  0
SECTION
  2
HEADER
  9
$ACADVER
  1
AC1015
  9
$ACADMAINTVER
 70
     6
  9
$DWGCODEPAGE
  3
DOS932
  9
$INSBASE
 10
0.0
 20
0.0
 30
0.0
  9
$EXTMIN
 10
0.0
 20
0.0
 30
0.0
  9
$EXTMAX
 10
44.0
 20
34.0
 30
0.0
  9
$LIMMIN
 10
0.0
 20
0.0
  9
$LIMMAX
 10
44.0
 20
34.0
  9
$ORTHOMODE
 70
     0
  9
$REGENMODE
 70
     1
  9
$FILLMODE
 70
     1
  9
$QTEXTMODE
 70
     0
  9
$MIRRTEXT
 70
     1
  9
$LTSCALE
 40
1.0
  9
$ATTMODE
 70
     1
  9
$TEXTSIZE
 40
0.1377952756
  9
$TRACEWID
 40
0.05
  9
$TEXTSTYLE
  7
STANDARD
  9
$CLAYER
  8
0
  9
$CELTYPE
  6
ByLayer
  9
$CECOLOR
 62
   256
  9
$CELTSCALE
 40
1.0
  9
$DISPSILH
 70
     0
  9
$DIMSCALE
 40
1.0
  9
$DIMASZ
 40
0.14
  9
$DIMEXO
 40
0.0393700787
  9
$DIMDLI
 40
0.38
  9
$DIMRND
 40
0.0
  9
$DIMDLE
 40
0.0
  9
$DIMEXE
 40
0.0393700787
  9
$DIMTP
 40
0.0
  9
$DIMTM
 40
0.0
  9
$DIMTXT
 40
0.1377952756
  9
$DIMCEN
 40
0.09
  9
$DIMTSZ
 40
0.0
  9
$DIMTOL
 70
     0
  9
$DIMLIM
 70
     0
  9
$DIMTIH
 70
     1
  9
$DIMTOH
 70
     1
  9
$DIMSE1
 70
     0
  9
$DIMSE2
 70
     0
  9
$DIMTAD
 70
     1
  9
$DIMZIN
 70
     1
  9
$DIMBLK
  1

  9
$DIMASO
 70
     1
  9
$DIMSHO
 70
     1
  9
$DIMPOST
  1

  9
$DIMAPOST
  1

  9
$DIMALT
 70
     0
  9
$DIMALTD
 70
     2
  9
$DIMALTF
 40
25.4
  9
$DIMLFAC
 40
1.0
  9
$DIMTOFL
 70
     0
  9
$DIMTVP
 40
0.0
  9
$DIMTIX
 70
     0
  9
$DIMSOXD
 70
     0
  9
$DIMSAH
 70
     0
  9
$DIMBLK1
  1

  9
$DIMBLK2
  1

  9
$DIMSTYLE
  2
Standard
  9
$DIMCLRD
 70
     0
  9
$DIMCLRE
 70
     0
  9
$DIMCLRT
 70
     0
  9
$DIMTFAC
 40
1.0
  9
$DIMGAP
 40
0.06
  9
$DIMJUST
 70
     0
  9
$DIMSD1
 70
     0
  9
$DIMSD2
 70
     0
  9
$DIMTOLJ
 70
     1
  9
$DIMTZIN
 70
     1
  9
$DIMALTZ
 70
     0
  9
$DIMALTTZ
 70
     0
  9
$DIMUPT
 70
     0
  9
$DIMDEC
 70
     0
  9
$DIMTDEC
 70
     4
  9
$DIMALTU
 70
     2
  9
$DIMALTTD
 70
     2
  9
$DIMTXSTY
  7
STANDARD
  9
$DIMAUNIT
 70
     0
  9
$DIMADEC
 70
     0
  9
$DIMALTRND
 40
0.0
  9
$DIMAZIN
 70
     0
  9
$DIMDSEP
 70
    46
  9
$DIMATFIT
 70
     3
  9
$DIMFRAC
 70
     0
  9
$DIMLDRBLK
  1

  9
$DIMLUNIT
 70
     2
  9
$DIMLWD
 70
    -2
  9
$DIMLWE
 70
    -2
  9
$DIMTMOVE
 70
     0
  9
$LUNITS
 70
     2
  9
$LUPREC
 70
     3
  9
$SKETCHINC
 40
0.1
  9
$FILLETRAD
 40
0.5
  9
$AUNITS
 70
     0
  9
$AUPREC
 70
     0
  9
$MENU
  1
.
  9
$ELEVATION
 40
0.0
  9
$PELEVATION
 40
0.0
  9
$THICKNESS
 40
0.0
  9
$LIMCHECK
 70
     0
  9
$CHAMFERA
 40
0.0
  9
$CHAMFERB
 40
0.0
  9
$CHAMFERC
 40
0.0
  9
$CHAMFERD
 40
0.0
  9
$SKPOLY
 70
     0
  9
$TDCREATE
 40
2460104.75550522
  9
$TDUCREATE
 40
2460104.38050522
  9
$TDUPDATE
 40
2460104.755507211
  9
$TDUUPDATE
 40
2460104.380507211
  9
$TDINDWG
 40
0.0000000116
  9
$TDUSRTIMER
 40
0.0000000116
  9
$USRTIMER
 70
     1
  9
$ANGBASE
 50
0.0
  9
$ANGDIR
 70
     0
  9
$PDMODE
 70
     0
  9
$PDSIZE
 40
-1.0
  9
$PLINEWID
 40
0.0
  9
$SPLFRAME
 70
     0
  9
$SPLINETYPE
 70
     6
  9
$SPLINESEGS
 70
     8
  9
$HANDSEED
  5
17B
  9
$SURFTAB1
 70
     6
  9
$SURFTAB2
 70
     6
  9
$SURFTYPE
 70
     6
  9
$SURFU
 70
     6
  9
$SURFV
 70
     6
  9
$UCSBASE
  2

  9
$UCSNAME
  2

  9
$UCSORG
 10
0.0
 20
0.0
 30
0.0
  9
$UCSXDIR
 10
1.0
 20
0.0
 30
0.0
  9
$UCSYDIR
 10
0.0
 20
1.0
 30
0.0
  9
$UCSORTHOREF
  2

  9
$UCSORTHOVIEW
 70
     0
  9
$UCSORGTOP
 10
0.0
 20
0.0
 30
0.0
  9
$UCSORGBOTTOM
 10
0.0
 20
0.0
 30
0.0
  9
$UCSORGLEFT
 10
0.0
 20
0.0
 30
0.0
  9
$UCSORGRIGHT
 10
0.0
 20
0.0
 30
0.0
  9
$UCSORGFRONT
 10
0.0
 20
0.0
 30
0.0
  9
$UCSORGBACK
 10
0.0
 20
0.0
 30
0.0
  9
$PUCSBASE
  2

  9
$PUCSNAME
  2

  9
$PUCSORG
 10
0.0
 20
0.0
 30
0.0
  9
$PUCSXDIR
 10
1.0
 20
0.0
 30
0.0
  9
$PUCSYDIR
 10
0.0
 20
1.0
 30
0.0
  9
$PUCSORTHOREF
  2

  9
$PUCSORTHOVIEW
 70
     0
  9
$PUCSORGTOP
 10
0.0
 20
0.0
 30
0.0
  9
$PUCSORGBOTTOM
 10
0.0
 20
0.0
 30
0.0
  9
$PUCSORGLEFT
 10
0.0
 20
0.0
 30
0.0
  9
$PUCSORGRIGHT
 10
0.0
 20
0.0
 30
0.0
  9
$PUCSORGFRONT
 10
0.0
 20
0.0
 30
0.0
  9
$PUCSORGBACK
 10
0.0
 20
0.0
 30
0.0
  9
$USERI1
 70
     0
  9
$USERI2
 70
     0
  9
$USERI3
 70
     0
  9
$USERI4
 70
     0
  9
$USERI5
 70
     0
  9
$USERR1
 40
0.0
  9
$USERR2
 40
0.0
  9
$USERR3
 40
0.0
  9
$USERR4
 40
0.0
  9
$USERR5
 40
0.0
  9
$WORLDVIEW
 70
     1
  9
$SHADEDGE
 70
     3
  9
$SHADEDIF
 70
    70
  9
$TILEMODE
 70
     0
  9
$MAXACTVP
 70
    64
  9
$PINSBASE
 10
0.0
 20
0.0
 30
0.0
  9
$PLIMCHECK
 70
     0
  9
$PEXTMIN
 10
0.0
 20
0.0
 30
0.0
  9
$PEXTMAX
 10
44.0
 20
34.0
 30
0.0
  9
$PLIMMIN
 10
0.0
 20
0.0
  9
$PLIMMAX
 10
44.0
 20
34.0
  9
$UNITMODE
 70
     0
  9
$VISRETAIN
 70
     1
  9
$PLINEGEN
 70
     0
  9
$PSLTSCALE
 70
     1
  9
$TREEDEPTH
 70
  3020
  9
$CMLSTYLE
  2
Standard
  9
$CMLJUST
 70
     0
  9
$CMLSCALE
 40
1.0
  9
$PROXYGRAPHICS
 70
     1
  9
$MEASUREMENT
 70
     0
  9
$CELWEIGHT
370
    -1
  9
$ENDCAPS
280
     0
  9
$JOINSTYLE
280
     0
  9
$LWDISPLAY
290
     1
  9
$INSUNITS
 70
     1
  9
$HYPERLINKBASE
  1

  9
$STYLESHEET
  1

  9
$XEDIT
290
     1
  9
$CEPSNTYPE
380
     0
  9
$PSTYLEMODE
290
     1
  9
$FINGERPRINTGUID
  2
{f762d5b6-bceb-4433-8bdd-5723a5830e7b}
  9
$VERSIONGUID
  2
{FAEB1C32-E019-11D5-929B-00C0DF256EC4}
  9
$EXTNAMES
290
     1
  9
$PSVPSCALE
 40
0.0
  9
$OLESTARTUP
290
     0
  0
ENDSEC
  0
SECTION
  2
CLASSES
  0
CLASS
  1
ACDBDICTIONARYWDFLT
  2
AcDbDictionaryWithDefault
  3
ObjectDBX Classes
 90
        0
280
     0
281
     0
  0
CLASS
  1
VISUALSTYLE
  2
AcDbVisualStyle
  3
ObjectDBX Classes
 90
     4095
280
     0
281
     0
  0
CLASS
  1
MATERIAL
  2
AcDbMaterial
  3
ObjectDBX Classes
 90
     1153
280
     0
281
     0
  0
CLASS
  1
SCALE
  2
AcDbScale
  3
ObjectDBX Classes
 90
     1153
280
     0
281
     0
  0
CLASS
  1
TABLESTYLE
  2
AcDbTableStyle
  3
ObjectDBX Classes
 90
     4095
280
     0
281
     0
  0
CLASS
  1
MLEADERSTYLE
  2
AcDbMLeaderStyle
  3
ACDB_MLEADERSTYLE_CLASS
 90
     4095
280
     0
281
     0
  0
CLASS
  1
SUN
  2
AcDbSun
  3
SCENEOE
 90
     1153
280
     0
281
     0
  0
CLASS
  1
ACDBPLACEHOLDER
  2
AcDbPlaceHolder
  3
ObjectDBX Classes
 90
        0
280
     0
281
     0
  0
CLASS
  1
LAYOUT
  2
AcDbLayout
  3
ObjectDBX Classes
 90
        0
280
     0
281
     0
  0
ENDSEC
  0
SECTION
  2
TABLES
  0
TABLE
  2
VPORT
  5
8
330
0
100
AcDbSymbolTable
 70
     1
  0
VPORT
  5
29
330
8
100
AcDbSymbolTableRecord
100
AcDbViewportTableRecord
  2
*Active
 70
     0
 10
0.0
 20
0.0
 11
1.0
 21
1.0
 12
22.0
 22
17.0
 13
0.0
 23
0.0
 14
0.5
 24
0.5
 15
0.5
 25
0.5
 16
0.0
 26
0.0
 36
1.0
 17
0.0
 27
0.0
 37
0.0
 40
34.0
 41
1.2941176471
 42
50.0
 43
0.0
 44
0.0
 50
0.0
 51
0.0
 71
     0
 72
  2000
 73
     1
 74
     3
 75
     0
 76
     0
 77
     0
 78
     0
281
     0
 65
     1
110
0.0
120
0.0
130
0.0
111
1.0
121
0.0
131
0.0
112
0.0
122
1.0
132
0.0
 79
     0
146
0.0
  0
ENDTAB
  0
TABLE
  2
LTYPE
  5
5
330
0
100
AcDbSymbolTable
 70
     8
  0
LTYPE
  5
14
330
5
100
AcDbSymbolTableRecord
100
AcDbLinetypeTableRecord
  2
ByBlock
 70
     0
  3

 72
    65
 73
     0
 40
0.0
  0
LTYPE
  5
15
330
5
100
AcDbSymbolTableRecord
100
AcDbLinetypeTableRecord
  2
ByLayer
 70
     0
  3

 72
    65
 73
     0
 40
0.0
  0
LTYPE
  5
16
330
5
100
AcDbSymbolTableRecord
100
AcDbLinetypeTableRecord
  2
Continuous
 70
     0
  3
Solid line
 72
    65
 73
     0
 40
0.0
  0
LTYPE
  5
6E
330
5
100
AcDbSymbolTableRecord
100
AcDbLinetypeTableRecord
  2
SLD-実線
 70
     0
  3
SolidWorks Line Style
 72
    65
 73
     0
 40
0.0
  0
LTYPE
  5
6F
330
5
100
AcDbSymbolTableRecord
100
AcDbLinetypeTableRecord
  2
SLD-破線
 70
     0
  3
SolidWorks Line Style
 72
    65
 73
     2
 40
0.075
 49
0.05
 74
     0
 49
-0.025
 74
     0
  0
LTYPE
  5
70
330
5
100
AcDbSymbolTableRecord
100
AcDbLinetypeTableRecord
  2
SLD-2点鎖線
 70
     0
  3
SolidWorks Line Style
 72
    65
 73
     6
 40
0.5
 49
0.25
 74
     0
 49
-0.05
 74
     0
 49
0.05
 74
     0
 49
-0.05
 74
     0
 49
0.05
 74
     0
 49
-0.05
 74
     0
  0
LTYPE
  5
71
330
5
100
AcDbSymbolTableRecord
100
AcDbLinetypeTableRecord
  2
SLD-鎖線
 70
     0
  3
SolidWorks Line Style
 72
    65
 73
     4
 40
0.4
 49
0.25
 74
     0
 49
-0.05
 74
     0
 49
0.05
 74
     0
 49
-0.05
 74
     0
  0
LTYPE
  5
72
330
5
100
AcDbSymbolTableRecord
100
AcDbLinetypeTableRecord
  2
SLD-1点鎖線(中心線)
 70
     0
  3
SolidWorks Line Style
 72
    65
 73
     4
 40
1.35
 49
1.2
 74
     0
 49
-0.05
 74
     0
 49
0.05
 74
     0
 49
-0.05
 74
     0
  0
LTYPE
  5
73
330
5
100
AcDbSymbolTableRecord
100
AcDbLinetypeTableRecord
  2
SLD-点線
 70
     0
  3
SolidWorks Line Style
 72
    65
 73
     2
 40
0.025
 49
0.0
 74
     0
 49
-0.025
 74
     0
  0
LTYPE
  5
74
330
5
100
AcDbSymbolTableRecord
100
AcDbLinetypeTableRecord
  2
SLD-細-太鎖線(切断面)
 70
     0
  3
SolidWorks Line Style
 72
    65
 73
     4
 40
0.4
 49
0.25
 74
     0
 49
-0.05
 74
     0
 49
0.05
 74
     0
 49
-0.05
 74
     0
  0
ENDTAB
  0
TABLE
  2
LAYER
  5
2
330
0
100
AcDbSymbolTable
 70
     4
  0
LAYER
  5
10
330
2
100
AcDbSymbolTableRecord
100
AcDbLayerTableRecord
  2
0
 70
     0
 62
     7
  6
Continuous
370
    -3
390
F
  0
LAYER
  5
75
330
2
100
AcDbSymbolTableRecord
100
AcDbLayerTableRecord
  2
SLD-0
 70
     0
 62
   179
  6
SLD-実線
370
    -3
390
F
  0
LAYER
  5
76
330
2
100
AcDbSymbolTableRecord
100
AcDbLayerTableRecord
  2
100
 70
     0
 62
   179
  6
SLD-実線
370
    -3
390
F
  0
LAYER
  5
77
330
2
100
AcDbSymbolTableRecord
100
AcDbLayerTableRecord
  2
1
 70
     0
 62
   179
  6
SLD-実線
370
    -3
390
F
  0
ENDTAB
  0
TABLE
  2
STYLE
  5
3
330
0
100
AcDbSymbolTable
 70
     3
  0
STYLE
  5
11
330
3
100
AcDbSymbolTableRecord
100
AcDbTextStyleTableRecord
  2
STANDARD
 70
     0
 40
0.0
 41
1.0
 50
0.0
 71
     0
 42
0.1377952756
  3
GOTHIC.TTF
  4

1001
ACAD
1000
CENTURY GOTHIC
1071
       34
  0
STYLE
  5
81
330
3
100
AcDbSymbolTableRecord
100
AcDbTextStyleTableRecord
  2
SLDTEXTSTYLE0
 70
     0
 40
0.0
 41
0.5952377551
 50
0.0
 71
     0
 42
0.1377952756
  3
SWMONO.TTF
  4
bigfont
1001
ACAD
1000
SWMONO
1071
      258
  0
STYLE
  5
87
330
3
100
AcDbSymbolTableRecord
100
AcDbTextStyleTableRecord
  2
SLDTEXTSTYLE1
 70
     0
 40
0.0
 41
0.7142857143
 50
0.0
 71
     0
 42
0.1377952756
  3
SWMONO.TTF
  4

1001
ACAD
1000
SWMONO
1071
      258
  0
ENDTAB
  0
TABLE
  2
VIEW
  5
6
330
0
100
AcDbSymbolTable
 70
     0
  0
ENDTAB
  0
TABLE
  2
UCS
  5
7
330
0
100
AcDbSymbolTable
 70
     0
  0
ENDTAB
  0
TABLE
  2
APPID
  5
9
330
0
100
AcDbSymbolTable
 70
     1
  0
APPID
  5
12
330
9
100
AcDbSymbolTableRecord
100
AcDbRegAppTableRecord
  2
ACAD
 70
     0
  0
ENDTAB
  0
TABLE
  2
DIMSTYLE
  5
A
330
0
100
AcDbSymbolTable
 70
     1
100
AcDbDimStyleTable
  0
DIMSTYLE
105
27
330
A
100
AcDbSymbolTableRecord
100
AcDbDimStyleTableRecord
  2
Standard
 70
     0
178
     0
340
11
  0
ENDTAB
  0
TABLE
  2
BLOCK_RECORD
  5
1
330
0
100
AcDbSymbolTable
 70
     7
  0
BLOCK_RECORD
  5
1F
330
1
100
AcDbSymbolTableRecord
100
AcDbBlockTableRecord
  2
*Model_Space
340
22
  0
BLOCK_RECORD
  5
1B
330
1
100
AcDbSymbolTableRecord
100
AcDbBlockTableRecord
  2
*Paper_Space
340
1E
  0
BLOCK_RECORD
  5
78
330
1
100
AcDbSymbolTableRecord
100
AcDbBlockTableRecord
  2
ZU_DIM_00022
340
0
  0
BLOCK_RECORD
  5
7E
330
1
100
AcDbSymbolTableRecord
100
AcDbBlockTableRecord
  2
SW_NOTE_0
340
0
102
{BLKREFS
331
83
102
}
  0
BLOCK_RECORD
  5
84
330
1
100
AcDbSymbolTableRecord
100
AcDbBlockTableRecord
  2
SW_NOTE_0_1
340
0
102
{BLKREFS
331
89
102
}
  0
BLOCK_RECORD
  5
8A
330
1
100
AcDbSymbolTableRecord
100
AcDbBlockTableRecord
  2
_OPEN30
340
0
102
{BLKREFS
331
9F
331
A0
331
A1
331
A2
102
}
  0
BLOCK_RECORD
  5
90
330
1
100
AcDbSymbolTableRecord
100
AcDbBlockTableRecord
  2
ZU_DIM_00023
340
0
  0
BLOCK_RECORD
  5
95
330
1
100
AcDbSymbolTableRecord
100
AcDbBlockTableRecord
  2
SW_NOTE_0_2
340
0
102
{BLKREFS
331
99
102
}
  0
BLOCK_RECORD
  5
9A
330
1
100
AcDbSymbolTableRecord
100
AcDbBlockTableRecord
  2
SW_NOTE_0_3
340
0
102
{BLKREFS
331
9E
102
}
  0
ENDTAB
  0
ENDSEC
  0
SECTION
  2
BLOCKS
  0
BLOCK
  5
20
330
1F
100
AcDbEntity
  8
0
100
AcDbBlockBegin
  2
*Model_Space
 70
     0
 10
0.0
 20
0.0
 30
0.0
  3
*Model_Space
  1

  0
ENDBLK
  5
21
330
1F
100
AcDbEntity
  8
0
100
AcDbBlockEnd
  0
BLOCK
  5
1C
330
1B
100
AcDbEntity
 67
     1
  8
0
100
AcDbBlockBegin
  2
*Paper_Space
 70
     0
 10
0.0
 20
0.0
 30
0.0
  3
*Paper_Space
  1

  0
ENDBLK
  5
1D
330
1B
100
AcDbEntity
 67
     1
  8
0
100
AcDbBlockEnd
  0
BLOCK
  5
79
330
78
100
AcDbEntity
  8
0
100
AcDbBlockBegin
  2
ZU_DIM_00022
 70
     0
 10
0.0
 20
0.0
 30
0.0
  3
ZU_DIM_00022
  1

  0
ARC
  5
7B
330
78
100
AcDbEntity
  8
SLD-0
  6
SLD-実線
370
    18
100
AcDbCircle
 10
-43.74538
 20
-6.212239
 30
0.0
 40
16.499999
100
AcDbArc
 50
318.872909
 51
332.762798
  0
ARC
  5
7C
330
78
100
AcDbEntity
  8
SLD-0
  6
SLD-実線
370
    18
100
AcDbCircle
 10
-43.74538
 20
-6.212239
 30
0.0
 40
16.50000200000001
100
AcDbArc
 50
138.872897
 51
152.762787
  0
LINE
  5
7D
330
78
100
AcDbEntity
  8
SLD-0
  6
SLD-実線
370
    18
100
AcDbLine
 10
-30.095661
 20
-15.482362
 30
0.0
 11
-57.3951
 21
3.057887
 31
0.0
  0
INSERT
  5
83
330
78
100
AcDbEntity
  8
SLD-0
 62
   179
100
AcDbBlockReference
  2
SW_NOTE_0
 10
-55.2839290266
 20
-0.0252600792
 30
0.0
  0
INSERT
  5
89
330
78
100
AcDbEntity
  8
SLD-0
 62
   179
100
AcDbBlockReference
  2
SW_NOTE_0_1
 10
-54.8206690266
 20
-0.3398830792
 30
0.0
  0
INSERT
  5
9F
330
78
100
AcDbEntity
  8
0
  6
Continuous
 62
     7
100
AcDbBlockReference
  2
_OPEN30
 10
-30.095661
 20
-15.482362
 30
0.0
 41
2.0
 42
2.0
 43
2.0
 50
325.81785
  0
INSERT
  5
A0
330
78
100
AcDbEntity
  8
0
  6
Continuous
 62
     7
100
AcDbBlockReference
  2
_OPEN30
 10
-57.3951
 20
3.057887
 30
0.0
 41
2.0
 42
2.0
 43
2.0
 50
145.81785
  0
ENDBLK
  5
7A
330
78
100
AcDbEntity
  8
0
100
AcDbBlockEnd
  0
BLOCK
  5
7F
330
7E
100
AcDbEntity
  8
0
100
AcDbBlockBegin
  2
SW_NOTE_0
 70
     0
 10
0.0
 20
0.0
 30
0.0
  3
SW_NOTE_0
  1

  0
MTEXT
  5
82
330
7E
100
AcDbEntity
  8
SLD-0
 62
     0
100
AcDbMText
 10
2.4532523859
 20
3.6122695887
 30
0.0
 40
3.2
 41
0.0
 71
     1
 72
     1
  1
φ
  7
SLDTEXTSTYLE0
 11
0.8272555090246293
 21
-0.5618258829819088
 31
0.0
 73
     1
 44
1.0
  0
ENDBLK
  5
80
330
7E
100
AcDbEntity
  8
0
100
AcDbBlockEnd
  0
BLOCK
  5
85
330
84
100
AcDbEntity
  8
0
100
AcDbBlockBegin
  2
SW_NOTE_0_1
 70
     0
 10
0.0
 20
0.0
 30
0.0
  3
SW_NOTE_0_1
  1

  0
MTEXT
  5
88
330
84
100
AcDbEntity
  8
SLD-0
 62
     0
100
AcDbMText
 10
2.4532523859
 20
3.6122695887
 30
0.0
 40
3.2
 41
0.0
 71
     1
 72
     1
  1
132
  7
SLDTEXTSTYLE1
 11
0.8272555090246293
 21
-0.5618258829819088
 31
0.0
 73
     1
 44
1.0
  0
ENDBLK
  5
86
330
84
100
AcDbEntity
  8
0
100
AcDbBlockEnd
  0
BLOCK
  5
8B
330
8A
100
AcDbEntity
  8
0
100
AcDbBlockBegin
  2
_OPEN30
 70
     0
 10
0.0
 20
0.0
 30
0.0
  3
_OPEN30
  1

  0
LINE
  5
8D
330
8A
100
AcDbEntity
  8
SLD-0
  6
SLD-実線
 62
   179
370
    18
100
AcDbLine
 10
-1.0
 20
0.267949
 30
0.0
 11
0.0
 21
0.0
 31
0.0
  0
LINE
  5
8E
330
8A
100
AcDbEntity
  8
SLD-0
  6
SLD-実線
 62
   179
370
    18
100
AcDbLine
 10
0.0
 20
0.0
 30
0.0
 11
-1.0
 21
-0.267949
 31
0.0
  0
LINE
  5
8F
330
8A
100
AcDbEntity
  8
SLD-0
  6
SLD-実線
 62
   179
370
    18
100
AcDbLine
 10
0.0
 20
0.0
 30
0.0
 11
-1.0
 21
0.0
 31
0.0
  0
ENDBLK
  5
8C
330
8A
100
AcDbEntity
  8
0
100
AcDbBlockEnd
  0
BLOCK
  5
91
330
90
100
AcDbEntity
  8
0
100
AcDbBlockBegin
  2
ZU_DIM_00023
 70
     0
 10
0.0
 20
0.0
 30
0.0
  3
ZU_DIM_00023
  1

  0
ARC
  5
93
330
90
100
AcDbEntity
  8
SLD-0
  6
SLD-実線
370
    18
100
AcDbCircle
 10
-43.74538
 20
-6.212239
 30
0.0
 40
18.74999099999999
100
AcDbArc
 50
44.154859
 51
56.377955
  0
LINE
  5
94
330
90
100
AcDbEntity
  8
SLD-0
  6
SLD-実線
370
    18
100
AcDbLine
 10
-55.730747
 20
-20.631453
 30
0.0
 11
-31.760029
 21
8.206973
 31
0.0
  0
INSERT
  5
99
330
90
100
AcDbEntity
  8
SLD-0
 62
   179
100
AcDbBlockReference
  2
SW_NOTE_0_2
 10
-38.7641452596
 20
-2.3539998408
 30
0.0
  0
INSERT
  5
9E
330
90
100
AcDbEntity
  8
SLD-0
 62
   179
100
AcDbBlockReference
  2
SW_NOTE_0_3
 10
-38.4061812596
 20
-1.9233458408
 30
0.0
  0
INSERT
  5
A1
330
90
100
AcDbEntity
  8
0
  6
Continuous
 62
     7
100
AcDbBlockReference
  2
_OPEN30
 10
-55.730747
 20
-20.631453
 30
0.0
 41
2.0
 42
2.0
 43
2.0
 50
230.266384
  0
INSERT
  5
A2
330
90
100
AcDbEntity
  8
0
  6
Continuous
 62
     7
100
AcDbBlockReference
  2
_OPEN30
 10
-31.760029
 20
8.206973
 30
0.0
 41
2.0
 42
2.0
 43
2.0
 50
50.266384
  0
ENDBLK
  5
92
330
90
100
AcDbEntity
  8
0
100
AcDbBlockEnd
  0
BLOCK
  5
96
330
95
100
AcDbEntity
  8
0
100
AcDbBlockBegin
  2
SW_NOTE_0_2
 70
     0
 10
0.0
 20
0.0
 30
0.0
  3
SW_NOTE_0_2
  1

  0
MTEXT
  5
98
330
95
100
AcDbEntity
  8
SLD-0
 62
     0
100
AcDbMText
 10
-3.3580014111
 20
2.7911942557
 30
0.0
 40
3.2
 41
0.0
 71
     1
 72
     1
  1
φ
  7
SLDTEXTSTYLE0
 11
0.6392188534300334
 21
0.7690248743828729
 31
0.0
 73
     1
 44
1.0
  0
ENDBLK
  5
97
330
95
100
AcDbEntity
  8
0
100
AcDbBlockEnd
  0
BLOCK
  5
9B
330
9A
100
AcDbEntity
  8
0
100
AcDbBlockBegin
  2
SW_NOTE_0_3
 70
     0
 10
0.0
 20
0.0
 30
0.0
  3
SW_NOTE_0_3
  1

  0
MTEXT
  5
9D
330
9A
100
AcDbEntity
  8
SLD-0
 62
     0
100
AcDbMText
 10
-3.3580014111
 20
2.7911942557
 30
0.0
 40
3.2
 41
0.0
 71
     1
 72
     1
  1
150
  7
SLDTEXTSTYLE1
 11
0.6392188534300334
 21
0.7690248743828729
 31
0.0
 73
     1
 44
1.0
  0
ENDBLK
  5
9C
330
9A
100
AcDbEntity
  8
0
100
AcDbBlockEnd
  0
ENDSEC
  0
SECTION
  2
ENTITIES
  0
VIEWPORT
  5
A3
330
1B
100
AcDbEntity
 67
     1
  8
0
100
AcDbViewport
 10
22.0
 20
17.0
 30
0.0
 40
46.552
 41
35.972
 68
     1
 69
     1
 12
22.0
 22
17.0
 13
0.0
 23
0.0
 14
0.5
 24
0.5
 15
0.5
 25
0.5
 16
0.0
 26
0.0
 36
1.0
 17
0.0
 27
0.0
 37
0.0
 42
50.0
 43
0.0
 44
0.0
 45
35.972
 50
0.0
 51
0.0
 72
   100
 90
   557152
  1

281
     0
 71
     1
 74
     0
110
0.0
120
0.0
130
0.0
111
1.0
121
0.0
131
0.0
112
0.0
122
1.0
132
0.0
 79
     0
146
0.0
  0
LINE
  5
A5
330
1B
100
AcDbEntity
 67
     1
  8
0
  6
SLD-鎖線
 62
   179
370
    18
100
AcDbLine
 10
22.5970309218
 20
8.238563439
 30
0.0
 11
22.1080959611
 21
8.7274982423
 31
0.0
  0
LINE
  5
A6
330
1B
100
AcDbEntity
 67
     1
  8
0
  6
SLD-実線
 62
   179
370
    18
100
AcDbLine
 10
17.7684868261
 20
22.0372541511
 30
0.0
 11
17.7684868261
 21
21.5948686392
 31
0.0
  0
LINE
  5
A7
330
1B
100
AcDbEntity
 67
     1
  8
0
  6
SLD-実線
 62
   179
370
    18
100
AcDbLine
 10
22.5786309218
 20
24.6256264352
 30
0.0
 11
22.6017468273
 21
24.6256264352
 31
0.0
  0
LINE
  5
A8
330
1B
100
AcDbEntity
 67
     1
  8
0
  6
SLD-実線
 62
   179
370
    18
100
AcDbLine
 10
22.766777536
 20
24.9489431282
 30
0.0
 11
22.7876247801
 21
24.1845417107
 31
0.0
  0
LINE
  5
A9
330
1B
100
AcDbEntity
 67
     1
  8
0
  6
SLD-実線
 62
   179
370
    18
100
AcDbLine
 10
19.1186543855
 20
12.3369404479
 30
0.0
 11
18.4986537554
 21
11.7169398178
 31
0.0
  0
LINE
  5
AA
330
1B
100
AcDbEntity
 67
     1
  8
0
  6
SLD-破線
 62
   179
370
    18
100
AcDbLine
 10
18.7294047791
 20
9.986110841
 30
0.0
 11
17.9223181648
 21
9.986110841
 31
0.0
  0
LINE
  5
AB
330
1B
100
AcDbEntity
 67
     1
  8
0
  6
SLD-実線
 62
   179
370
    18
100
AcDbLine
 10
18.1191685585
 20
21.5948686392
 30
0.0
 11
18.1174057239
 21
21.5554985604
 31
0.0
  0
LINE
  5
AC
330
1B
100
AcDbEntity
 67
     1
  8
0
  6
SLD-破線
 62
   179
370
    18
100
AcDbLine
 10
22.607357536
 20
20.9452623398
 30
0.0
 11
23.1191685598
 21
20.9452623398
 31
0.0
  0
LINE
  5
AD
330
1B
100
AcDbEntity
 67
     1
  8
0
  6
SLD-実線
 62
   179
370
    18
100
AcDbLine
 10
21.5325543861
 20
14.2780245429
 30
0.0
 11
20.5207433623
 21
14.2780245429
 31
0.0
  0
LINE
  5
AE
330
1B
100
AcDbEntity
 67
     1
  8
0
  6
SLD-実線
 62
   179
370
    18
100
AcDbLine
 10
19.5089323384
 20
14.2780245429
 30
0.0
 11
20.5207433623
 21
14.2780245429
 31
0.0
  0
LINE
  5
AF
330
1B
100
AcDbEntity
 67
     1
  8
0
  6
SLD-鎖線
 62
   179
370
    18
100
AcDbLine
 10
20.5207433623
 20
25.4632995063
 30
0.0
 11
20.5207433623
 21
18.2152374572
 31
0.0
  0
LINE
  5
B0
330
1B
100
AcDbEntity
 67
     1
  8
0
  6
SLD-実線
 62
   179
370
    18
100
AcDbLine
 10
18.3476033617
 20
25.0253213959
 30
0.0
 11
19.3031792552
 21
25.0961048702
 31
0.0
  0
LINE
  5
B1
330
1B
100
AcDbEntity
 67
     1
  8
0
  6
SLD-実線
 62
   179
370
    18
100
AcDbLine
 10
18.4986537554
 20
8.9127620218
 30
0.0
 11
19.1186543855
 21
8.2927613918
 31
0.0
  0
LINE
  5
B2
330
1B
100
AcDbEntity
 67
     1
  8
0
  6
SLD-破線
 62
   179
370
    18
100
AcDbLine
 10
22.607357536
 20
10.0195754079
 30
0.0
 11
23.1191685598
 21
10.0195754079
 31
0.0
  0
LINE
  5
B3
330
1B
100
AcDbEntity
 67
     1
  8
0
  6
SLD-実線
 62
   179
370
    18
100
AcDbLine
 10
19.5561764329
 20
21.8389631274
 30
0.0
 11
19.5561764329
 21
24.4789157265
 31
0.0
  0
LINE
  5
B4
330
1B
100
AcDbEntity
 67
     1
  8
0
  6
SLD-鎖線
 62
   179
370
    18
100
AcDbLine
 10
19.6005748581
 20
21.5311254896
 30
0.0
 11
19.3298158029
 21
21.5311254896
 31
0.0
  0
LINE
  5
B5
330
1B
100
AcDbEntity
 67
     1
  8
0
  6
SLD-実線
 62
   179
370
    18
100
AcDbLine
 10
21.504995331
 20
18.4452623392
 30
0.0
 11
23.1191685598
 21
18.4452623392
 31
0.0
  0
LINE
  5
B6
330
1B
100
AcDbEntity
 67
     1
  8
0
  6
SLD-実線
 62
   179
370
    18
100
AcDbLine
 10
18.7260285587
 20
25.053352892
 30
0.0
 11
18.7260285587
 21
21.9491993479
 31
0.0
  0
LINE
  5
B7
330
1B
100
AcDbEntity
 67
     1
  8
0
  6
SLD-実線
 62
   179
370
    18
100
AcDbLine
 10
22.922318166
 20
21.5948686392
 30
0.0
 11
22.922318166
 21
21.9491993479
 31
0.0
  0
LINE
  5
B8
330
1B
100
AcDbEntity
 67
     1
  8
0
  6
SLD-実線
 62
   179
370
    18
100
AcDbLine
 10
22.3810671422
 20
24.6256264352
 30
0.0
 11
22.3810671422
 21
21.9491993479
 31
0.0
  0
LINE
  5
B9
330
1B
100
AcDbEntity
 67
     1
  8
0
  6
SLD-実線
 62
   179
370
    18
100
AcDbLine
 10
21.7018457248
 20
25.1353673802
 30
0.0
 11
21.7018457248
 21
25.1381757267
 31
0.0
  0
LINE
  5
BA
330
1B
100
AcDbEntity
 67
     1
  8
0
  6
SLD-実線
 62
   179
370
    18
100
AcDbLine
 10
23.1191685598
 20
11.2991029611
 30
0.0
 11
22.9223181722
 21
11.2991029611
 31
0.0
  0
LINE
  5
BB
330
1B
100
AcDbEntity
 67
     1
  8
0
  6
SLD-実線
 62
   179
370
    18
100
AcDbLine
 10
18.4829852124
 20
7.9132761886
 30
0.0
 11
19.5364913935
 21
7.9132761886
 31
0.0
  0
LINE
  5
BC
330
1B
100
AcDbEntity
 67
     1
  8
0
  6
SLD-実線
 62
   179
370
    18
100
AcDbLine
 10
17.9223181648
 20
21.5554985604
 30
0.0
 11
18.4601016295
 21
21.5554985604
 31
0.0
  0
LINE
  5
BD
330
1B
100
AcDbEntity
 67
     1
  8
0
  6
SLD-破線
 62
   179
370
    18
100
AcDbLine
 10
18.4341291885
 20
20.9452623398
 30
0.0
 11
17.9223181648
 21
20.9452623398
 31
0.0
  0
LINE
  5
BE
330
1B
100
AcDbEntity
 67
     1
  8
0
  6
SLD-鎖線
 62
   179
370
    18
100
AcDbLine
 10
19.457751236
 20
24.6133941517
 30
0.0
 11
19.457751236
 21
24.9141936794
 31
0.0
  0
LINE
  5
BF
330
1B
100
AcDbEntity
 67
     1
  8
0
  6
SLD-実線
 62
   179
370
    18
100
AcDbLine
 10
21.819955961
 20
14.4703752516
 30
0.0
 11
20.5207433623
 21
14.4703752516
 31
0.0
  0
LINE
  5
C0
330
1B
100
AcDbEntity
 67
     1
  8
0
  6
SLD-実線
 62
   179
370
    18
100
AcDbLine
 10
19.4966767478
 20
25.0703615534
 30
0.0
 11
21.5045507641
 21
25.0703615534
 31
0.0
  0
LINE
  5
C1
330
1B
100
AcDbEntity
 67
     1
  8
0
  6
SLD-実線
 62
   179
370
    18
100
AcDbLine
 10
18.0396798971
 20
22.0372541511
 30
0.0
 11
18.0396798971
 21
21.5948686392
 31
0.0
  0
LINE
  5
C2
330
1B
100
AcDbEntity
 67
     1
  8
0
  6
SLD-実線
 62
   179
370
    18
100
AcDbLine
 10
18.9905836768
 20
25.0729495849
 30
0.0
 11
18.9905836768
 21
21.9491993479
 31
0.0
  0
LINE
  5
C3
330
1B
100
AcDbEntity
 67
     1
  8
0
  6
SLD-実線
 62
   179
370
    18
100
AcDbLine
 10
22.6804869848
 20
24.2881976162
 30
0.0
 11
22.6804869848
 21
24.5468862777
 31
0.0
  0
LINE
  5
C4
330
1B
100
AcDbEntity
 67
     1
  8
0
  6
SLD-実線
 62
   179
370
    18
100
AcDbLine
 10
22.8632630479
 20
24.2606689548
 30
0.0
 11
23.0213699771
 21
24.1693858052
 31
0.0
  0
LINE
  5
C5
330
1B
100
AcDbEntity
 67
     1
  8
0
  6
SLD-実線
 62
   179
370
    18
100
AcDbLine
 10
21.922832339
 20
12.3369404479
 30
0.0
 11
22.5428329691
 21
11.7169398178
 31
0.0
  0
LINE
  5
C6
330
1B
100
AcDbEntity
 67
     1
  8
0
  6
SLD-実線
 62
   179
370
    18
100
AcDbLine
 10
21.504995331
 20
12.7164258023
 30
0.0
 11
22.5585015121
 21
12.7164258023
 31
0.0
  0
LINE
  5
C7
330
1B
100
AcDbEntity
 67
     1
  8
0
  6
SLD-破線
 62
   179
370
    18
100
AcDbLine
 10
22.607357536
 20
10.6435911561
 30
0.0
 11
23.1191685598
 21
10.6435911561
 31
0.0
  0
LINE
  5
C8
330
1B
100
AcDbEntity
 67
     1
  8
0
  6
SLD-実線
 62
   179
370
    18
100
AcDbLine
 10
17.9223181648
 20
18.9570733629
 30
0.0
 11
23.1191685598
 21
18.9570733629
 31
0.0
  0
LINE
  5
C9
330
1B
100
AcDbEntity
 67
     1
  8
0
  6
SLD-実線
 62
   179
370
    18
100
AcDbLine
 10
19.1349165903
 20
21.9491993479
 30
0.0
 11
18.1191685585
 21
21.9491993479
 31
0.0
  0
LINE
  5
CA
330
1B
100
AcDbEntity
 67
     1
  8
0
  6
SLD-鎖線
 62
   179
370
    18
100
AcDbLine
 10
22.8166510794
 20
12.6107587157
 30
0.0
 11
22.3916457249
 21
12.1857533612
 31
0.0
  0
LINE
  5
CB
330
1B
100
AcDbEntity
 67
     1
  8
0
  6
SLD-実線
 62
   179
370
    18
100
AcDbLine
 10
21.6131043074
 20
21.9491993479
 30
0.0
 11
22.922318166
 21
21.9491993479
 31
0.0
  0
LINE
  5
CC
330
1B
100
AcDbEntity
 67
     1
  8
0
  6
SLD-実線
 62
   179
370
    18
100
AcDbLine
 10
20.5207433623
 20
25.1775458054
 30
0.0
 11
21.662475646
 21
25.1775458054
 31
0.0
  0
LINE
  5
CD
330
1B
100
AcDbEntity
 67
     1
  8
0
  6
SLD-実線
 62
   179
370
    18
100
AcDbLine
 10
23.1191685598
 20
12.3605802904
 30
0.0
 11
23.1191685598
 21
8.2691217067
 31
0.0
  0
LINE
  5
CE
330
1B
100
AcDbEntity
 67
     1
  8
0
  6
SLD-実線
 62
   179
370
    18
100
AcDbLine
 10
22.008932339
 20
21.5948686392
 30
0.0
 11
21.9695622603
 21
18.9570733629
 31
0.0
  0
LINE
  5
CF
330
1B
100
AcDbEntity
 67
     1
  8
0
  6
SLD-破線
 62
   179
370
    18
100
AcDbLine
 10
22.607357536
 20
20.3547111586
 30
0.0
 11
23.1191685598
 21
20.3547111586
 31
0.0
  0
LINE
  5
D0
330
1B
100
AcDbEntity
 67
     1
  8
0
  6
SLD-実線
 62
   179
370
    18
100
AcDbLine
 10
19.2215307635
 20
14.4703752516
 30
0.0
 11
20.5207433623
 21
14.4703752516
 31
0.0
  0
LINE
  5
D1
330
1B
100
AcDbEntity
 67
     1
  8
0
  6
SLD-実線
 62
   179
370
    18
100
AcDbLine
 10
21.5325543861
 20
14.2780245429
 30
0.0
 11
21.5325543861
 21
12.9132761961
 31
0.0
  0
LINE
  5
D2
330
1B
100
AcDbEntity
 67
     1
  8
0
  6
SLD-実線
 62
   179
370
    18
100
AcDbLine
 10
18.1191685585
 20
21.5948686392
 30
0.0
 11
18.1191685585
 21
21.9491993479
 31
0.0
  0
LINE
  5
D3
330
1B
100
AcDbEntity
 67
     1
  8
0
  6
SLD-実線
 62
   179
370
    18
100
AcDbLine
 10
18.8373839918
 20
25.0616015534
 30
0.0
 11
18.8373839918
 21
21.9491993479
 31
0.0
  0
LINE
  5
D4
330
1B
100
AcDbEntity
 67
     1
  8
0
  6
SLD-実線
 62
   179
370
    18
100
AcDbLine
 10
22.6954627303
 20
24.2572958428
 30
0.0
 11
22.8336529717
 21
24.1482063188
 31
0.0
  0
LINE
  5
D5
330
1B
100
AcDbEntity
 67
     1
  8
0
  6
SLD-実線
 62
   179
370
    18
100
AcDbLine
 10
22.2041027328
 20
25.0616015534
 30
0.0
 11
22.2041027328
 21
21.9491993479
 31
0.0
  0
LINE
  5
D6
330
1B
100
AcDbEntity
 67
     1
  8
0
  6
SLD-実線
 62
   179
370
    18
100
AcDbLine
 10
22.922318166
 20
8.2770927303
 30
0.0
 11
22.922318166
 21
9.3305990298
 31
0.0
  0
LINE
  5
D7
330
1B
100
AcDbEntity
 67
     1
  8
0
  6
SLD-破線
 62
   179
370
    18
100
AcDbLine
 10
18.5928666689
 20
10.6101265892
 30
0.0
 11
17.9223181648
 21
10.6101265892
 31
0.0
  0
LINE
  5
D8
330
1B
100
AcDbEntity
 67
     1
  8
0
  6
SLD-破線
 62
   179
370
    18
100
AcDbLine
 10
18.5928666689
 20
10.0195754079
 30
0.0
 11
17.9223181648
 21
10.0195754079
 31
0.0
  0
LINE
  5
D9
330
1B
100
AcDbEntity
 67
     1
  8
0
  6
SLD-鎖線
 62
   179
370
    18
100
AcDbLine
 10
17.4097602119
 20
20.6499867492
 30
0.0
 11
18.4903084011
 21
20.6499867492
 31
0.0
  0
LINE
  5
DA
330
1B
100
AcDbEntity
 67
     1
  8
0
  6
SLD-鎖線
 62
   179
370
    18
100
AcDbLine
 10
21.5837354885
 20
21.3762640722
 30
0.0
 11
21.5837354885
 21
21.6770635998
 31
0.0
  0
LINE
  5
DB
330
1B
100
AcDbEntity
 67
     1
  8
0
  6
SLD-鎖線
 62
   179
370
    18
100
AcDbLine
 10
19.7911745432
 20
13.5485576135
 30
0.0
 11
21.2222261971
 21
13.5485576135
 31
0.0
  0
LINE
  5
DC
330
1B
100
AcDbEntity
 67
     1
  8
0
  6
SLD-鎖線
 62
   179
370
    18
100
AcDbLine
 10
18.6859304484
 20
8.4800380847
 30
0.0
 11
18.239509031
 21
8.0336166673
 31
0.0
  0
LINE
  5
DD
330
1B
100
AcDbEntity
 67
     1
  8
0
  6
SLD-実線
 62
   179
370
    18
100
AcDbLine
 10
21.504995331
 20
12.9132761961
 30
0.0
 11
21.504995331
 21
12.7164258023
 31
0.0
  0
LINE
  5
DE
330
1B
100
AcDbEntity
 67
     1
  8
0
  6
SLD-実線
 62
   179
370
    18
100
AcDbLine
 10
19.0325543855
 20
21.5948686392
 30
0.0
 11
19.0719244643
 21
18.9570733629
 31
0.0
  0
LINE
  5
DF
330
1B
100
AcDbEntity
 67
     1
  8
0
  6
SLD-実線
 62
   179
370
    18
100
AcDbLine
 10
21.9056236776
 20
21.5948686392
 30
0.0
 11
23.2729998984
 21
21.5948686392
 31
0.0
  0
LINE
  5
E0
330
1B
100
AcDbEntity
 67
     1
  8
0
  6
SLD-実線
 62
   179
370
    18
100
AcDbLine
 10
21.9065701343
 20
21.9491993479
 30
0.0
 11
22.922318166
 21
21.9491993479
 31
0.0
  0
LINE
  5
E1
330
1B
100
AcDbEntity
 67
     1
  8
0
  6
SLD-実線
 62
   179
370
    18
100
AcDbLine
 10
19.5089323384
 20
14.2780245429
 30
0.0
 11
19.5089323384
 21
12.9132761961
 31
0.0
  0
LINE
  5
E2
330
1B
100
AcDbEntity
 67
     1
  8
0
  6
SLD-実線
 62
   179
370
    18
100
AcDbLine
 10
22.5664726541
 20
18.4452623392
 30
0.0
 11
22.5664726541
 21
18.9570733629
 31
0.0
  0
LINE
  5
E3
330
1B
100
AcDbEntity
 67
     1
  8
0
  6
SLD-実線
 62
   179
370
    18
100
AcDbLine
 10
18.0456416293
 20
22.0673095842
 30
0.0
 11
17.7744487159
 21
22.0673095842
 31
0.0
  0
LINE
  5
E4
330
1B
100
AcDbEntity
 67
     1
  8
0
  6
SLD-実線
 62
   179
370
    18
100
AcDbLine
 10
22.0509028902
 20
25.0729495849
 30
0.0
 11
22.0509028902
 21
21.9491993479
 31
0.0
  0
LINE
  5
E5
330
1B
100
AcDbEntity
 67
     1
  8
0
  6
SLD-実線
 62
   179
370
    18
100
AcDbLine
 10
22.8435780504
 20
24.2947643982
 30
0.0
 11
22.8435780265
 21
24.5476245558
 31
0.0
  0
LINE
  5
E6
330
1B
100
AcDbEntity
 67
     1
  8
0
  6
SLD-実線
 62
   179
370
    18
100
AcDbLine
 10
21.504995331
 20
7.7164258011
 30
0.0
 11
21.504995331
 21
7.9132761948
 31
0.0
  0
LINE
  5
E7
330
1B
100
AcDbEntity
 67
     1
  8
0
  6
SLD-破線
 62
   179
370
    18
100
AcDbLine
 10
18.7294047791
 20
10.6435911561
 30
0.0
 11
17.9223181648
 21
10.6435911561
 31
0.0
  0
LINE
  5
E8
330
1B
100
AcDbEntity
 67
     1
  8
0
  6
SLD-破線
 62
   179
370
    18
100
AcDbLine
 10
22.607357536
 20
9.986110841
 30
0.0
 11
23.1191685598
 21
9.986110841
 31
0.0
  0
LINE
  5
E9
330
1B
100
AcDbEntity
 67
     1
  8
0
  6
SLD-実線
 62
   179
370
    18
100
AcDbLine
 10
22.4065701344
 20
21.5948686392
 30
0.0
 11
22.5821606856
 21
18.9570733629
 31
0.0
  0
LINE
  5
EA
330
1B
100
AcDbEntity
 67
     1
  8
0
  6
SLD-破線
 62
   179
370
    18
100
AcDbLine
 10
22.607357536
 20
20.9787269067
 30
0.0
 11
23.1191685598
 21
20.9787269067
 31
0.0
  0
LINE
  5
EB
330
1B
100
AcDbEntity
 67
     1
  8
0
  6
SLD-実線
 62
   179
370
    18
100
AcDbLine
 10
21.9065701343
 20
12.9132761961
 30
0.0
 11
21.9065701343
 21
14.3837610783
 31
0.0
  0
LINE
  5
EC
330
1B
100
AcDbEntity
 67
     1
  8
0
  6
SLD-実線
 62
   179
370
    18
100
AcDbLine
 10
19.4966767478
 20
21.232177458
 30
0.0
 11
21.5045507641
 21
21.232177458
 31
0.0
  0
LINE
  5
ED
330
1B
100
AcDbEntity
 67
     1
  8
0
  6
SLD-鎖線
 62
   179
370
    18
100
AcDbLine
 10
22.6078361187
 20
20.6499867492
 30
0.0
 11
23.2956961189
 21
20.6499867492
 31
0.0
  0
LINE
  5
EE
330
1B
100
AcDbEntity
 67
     1
  8
0
  6
SLD-実線
 62
   179
370
    18
100
AcDbLine
 10
20.5207433623
 20
25.1775458054
 30
0.0
 11
19.3790110785
 21
25.1775458054
 31
0.0
  0
LINE
  5
EF
330
1B
100
AcDbEntity
 67
     1
  8
0
  6
SLD-実線
 62
   179
370
    18
100
AcDbLine
 10
22.6938833383
 20
25.0253213766
 30
0.0
 11
21.7383074693
 21
25.0961048702
 31
0.0
  0
LINE
  5
F0
330
1B
100
AcDbEntity
 67
     1
  8
0
  6
SLD-実線
 62
   179
370
    18
100
AcDbLine
 10
22.9223181722
 20
12.3526091422
 30
0.0
 11
22.9223181722
 21
11.2991029611
 31
0.0
  0
LINE
  5
F1
330
1B
100
AcDbEntity
 67
     1
  8
0
  6
SLD-実線
 62
   179
370
    18
100
AcDbLine
 10
17.9223181648
 20
21.5554985604
 30
0.0
 11
17.9223181648
 21
18.4452623392
 31
0.0
  0
LINE
  5
F2
330
1B
100
AcDbEntity
 67
     1
  8
0
  6
SLD-実線
 62
   179
370
    18
100
AcDbLine
 10
18.4616882436
 20
21.5948686392
 30
0.0
 11
18.355389031
 21
18.9570733629
 31
0.0
  0
LINE
  5
F3
330
1B
100
AcDbEntity
 67
     1
  8
0
  6
SLD-実線
 62
   179
370
    18
100
AcDbLine
 10
21.2884598979
 20
24.6757661203
 30
0.0
 11
19.7530268266
 21
24.6757661203
 31
0.0
  0
LINE
  5
F4
330
1B
100
AcDbEntity
 67
     1
  8
0
  6
SLD-鎖線
 62
   179
370
    18
100
AcDbLine
 10
18.9501049367
 20
11.8854892667
 30
0.0
 11
18.9292153304
 21
11.906378873
 31
0.0
  0
LINE
  5
F5
330
1B
100
AcDbEntity
 67
     1
  8
0
  6
SLD-実線
 62
   179
370
    18
100
AcDbLine
 10
20.5207433623
 20
25.0988056479
 30
0.0
 11
19.3148739131
 21
25.0988056479
 31
0.0
  0
LINE
  5
F6
330
1B
100
AcDbEntity
 67
     1
  8
0
  6
SLD-実線
 62
   179
370
    18
100
AcDbLine
 10
18.1782236766
 20
24.2606688995
 30
0.0
 11
18.02011659
 21
24.1693858052
 31
0.0
  0
LINE
  5
F7
330
1B
100
AcDbEntity
 67
     1
  8
0
  6
SLD-実線
 62
   179
370
    18
100
AcDbLine
 10
22.5786309218
 20
24.6256264352
 30
0.0
 11
22.5786309218
 21
24.1868571438
 31
0.0
  0
LINE
  5
F8
330
1B
100
AcDbEntity
 67
     1
  8
0
  6
SLD-実線
 62
   179
370
    18
100
AcDbLine
 10
23.0410398983
 20
24.1363842304
 30
0.0
 11
23.1382016306
 21
21.90082234
 31
0.0
  0
LINE
  5
F9
330
1B
100
AcDbEntity
 67
     1
  8
0
  6
SLD-実線
 62
   179
370
    18
100
AcDbLine
 10
18.4750140704
 20
7.7164258011
 30
0.0
 11
22.5664726541
 21
7.7164258011
 31
0.0
  0
LINE
  5
FA
330
1B
100
AcDbEntity
 67
     1
  8
0
  6
SLD-実線
 62
   179
370
    18
100
AcDbLine
 10
18.1191685523
 20
12.3526091484
 30
0.0
 11
18.1191685523
 21
11.2991029673
 31
0.0
  0
LINE
  5
FB
330
1B
100
AcDbEntity
 67
     1
  8
0
  6
SLD-実線
 62
   179
370
    18
100
AcDbLine
 10
18.6349165901
 20
21.5948686392
 30
0.0
 11
18.4593260389
 21
18.9570733629
 31
0.0
  0
LINE
  5
FC
330
1B
100
AcDbEntity
 67
     1
  8
0
  6
SLD-鎖線
 62
   179
370
    18
100
AcDbLine
 10
19.6005748581
 20
24.7682555691
 30
0.0
 11
19.3298158029
 21
24.7682555691
 31
0.0
  0
LINE
  5
FD
330
1B
100
AcDbEntity
 67
     1
  8
0
  6
SLD-実線
 62
   179
370
    18
100
AcDbLine
 10
20.5207433623
 20
14.5471344642
 30
0.0
 11
19.6349165904
 21
14.5471344642
 31
0.0
  0
LINE
  5
FE
330
1B
100
AcDbEntity
 67
     1
  8
0
  6
SLD-実線
 62
   179
370
    18
100
AcDbLine
 10
19.1147869839
 20
21.6140672219
 30
0.0
 11
19.1147869839
 21
24.6884717896
 31
0.0
  0
LINE
  5
FF
330
1B
100
AcDbEntity
 67
     1
  8
0
  6
SLD-実線
 62
   179
370
    18
100
AcDbLine
 10
18.1741402121
 20
22.521260293
 30
0.0
 11
17.7885135978
 21
22.0897207653
 31
0.0
  0
LINE
  5
100
330
1B
100
AcDbEntity
 67
     1
  8
0
  6
SLD-実線
 62
   179
370
    18
100
AcDbLine
 10
18.2747091885
 20
24.9489431282
 30
0.0
 11
18.1741402121
 21
22.521260293
 31
0.0
  0
LINE
  5
101
330
1B
100
AcDbEntity
 67
     1
  8
0
  6
SLD-実線
 62
   179
370
    18
100
AcDbLine
 10
22.4097657249
 20
24.6256264352
 30
0.0
 11
22.3810671422
 21
24.6256264352
 31
0.0
  0
LINE
  5
102
330
1B
100
AcDbEntity
 67
     1
  8
0
  6
SLD-実線
 62
   179
370
    18
100
AcDbLine
 10
23.2729998984
 20
22.0673095842
 30
0.0
 11
23.1289150164
 21
22.2349086393
 31
0.0
  0
LINE
  5
103
330
1B
100
AcDbEntity
 67
     1
  8
0
  6
SLD-実線
 62
   179
370
    18
100
AcDbLine
 10
22.5428329691
 20
8.9127620218
 30
0.0
 11
21.922832339
 21
8.2927613918
 31
0.0
  0
LINE
  5
104
330
1B
100
AcDbEntity
 67
     1
  8
0
  6
SLD-実線
 62
   179
370
    18
100
AcDbLine
 10
18.4750140704
 20
12.9132761961
 30
0.0
 11
22.5664726541
 21
12.9132761961
 31
0.0
  0
LINE
  5
105
330
1B
100
AcDbEntity
 67
     1
  8
0
  6
SLD-鎖線
 62
   179
370
    18
100
AcDbLine
 10
20.5207433623
 20
14.6743917871
 30
0.0
 11
20.5207433623
 21
7.3476853285
 31
0.0
  0
LINE
  5
106
330
1B
100
AcDbEntity
 67
     1
  8
0
  6
SLD-破線
 62
   179
370
    18
100
AcDbLine
 10
18.4341291885
 20
20.3212465916
 30
0.0
 11
17.9223181648
 21
20.3212465916
 31
0.0
  0
LINE
  5
107
330
1B
100
AcDbEntity
 67
     1
  8
0
  6
SLD-実線
 62
   179
370
    18
100
AcDbLine
 10
21.4853102916
 20
21.8389631274
 30
0.0
 11
21.4853102916
 21
24.4789157265
 31
0.0
  0
LINE
  5
108
330
1B
100
AcDbEntity
 67
     1
  8
0
  6
SLD-実線
 62
   179
370
    18
100
AcDbLine
 10
22.6211001972
 20
24.148093705
 30
0.0
 11
22.5013347173
 21
24.257408614
 31
0.0
  0
LINE
  5
109
330
1B
100
AcDbEntity
 67
     1
  8
0
  6
SLD-実線
 62
   179
370
    18
100
AcDbLine
 10
18.1191685585
 20
8.2770927303
 30
0.0
 11
18.1191685585
 21
9.3305990298
 31
0.0
  0
LINE
  5
10A
330
1B
100
AcDbEntity
 67
     1
  8
0
  6
SLD-実線
 62
   179
370
    18
100
AcDbLine
 10
22.922318166
 20
21.5948686392
 30
0.0
 11
23.0404284023
 21
18.9570733629
 31
0.0
  0
LINE
  5
10B
330
1B
100
AcDbEntity
 67
     1
  8
0
  6
SLD-鎖線
 62
   179
370
    18
100
AcDbLine
 10
21.5837354885
 20
24.6133941517
 30
0.0
 11
21.5837354885
 21
24.9141936794
 31
0.0
  0
LINE
  5
10C
330
1B
100
AcDbEntity
 67
     1
  8
0
  6
SLD-鎖線
 62
   179
370
    18
100
AcDbLine
 10
21.7265591106
 20
21.5311254896
 30
0.0
 11
21.4558000554
 21
21.5311254896
 31
0.0
  0
LINE
  5
10D
330
1B
100
AcDbEntity
 67
     1
  8
0
  6
SLD-実線
 62
   179
370
    18
100
AcDbLine
 10
18.4750140704
 20
18.4452623392
 30
0.0
 11
18.4750140704
 21
18.9570733629
 31
0.0
  0
LINE
  5
10E
330
1B
100
AcDbEntity
 67
     1
  8
0
  6
SLD-実線
 62
   179
370
    18
100
AcDbLine
 10
18.197908716
 20
24.2947643879
 30
0.0
 11
18.197908716
 21
24.5476245454
 31
0.0
  0
LINE
  5
10F
330
1B
100
AcDbEntity
 67
     1
  8
0
  6
SLD-実線
 62
   179
370
    18
100
AcDbLine
 10
23.2729998984
 20
22.0673095842
 30
0.0
 11
23.2729998984
 21
21.5948686392
 31
0.0
  0
LINE
  5
110
330
1B
100
AcDbEntity
 67
     1
  8
0
  6
SLD-鎖線
 62
   179
370
    18
100
AcDbLine
 10
24.0280095049
 20
10.3148509986
 30
0.0
 11
17.1234000543
 21
10.3148509986
 31
0.0
  0
LINE
  5
111
330
1B
100
AcDbEntity
 67
     1
  8
0
  6
SLD-実線
 62
   179
370
    18
100
AcDbLine
 10
19.5364913935
 20
7.7164258011
 30
0.0
 11
19.5364913935
 21
7.9132761886
 31
0.0
  0
LINE
  5
112
330
1B
100
AcDbEntity
 67
     1
  8
0
  6
SLD-実線
 62
   179
370
    18
100
AcDbLine
 10
21.504995331
 20
7.9132761948
 30
0.0
 11
22.558501473
 21
7.9132761948
 31
0.0
  0
LINE
  5
113
330
1B
100
AcDbEntity
 67
     1
  8
0
  6
SLD-実線
 62
   179
370
    18
100
AcDbLine
 10
22.9315455676
 20
21.3887910013
 30
0.0
 11
23.1191685598
 21
21.2011678517
 31
0.0
  0
LINE
  5
114
330
1B
100
AcDbEntity
 67
     1
  8
0
  6
SLD-破線
 62
   179
370
    18
100
AcDbLine
 10
18.4341291885
 20
20.9787269067
 30
0.0
 11
17.9223181648
 21
20.9787269067
 31
0.0
  0
LINE
  5
115
330
1B
100
AcDbEntity
 67
     1
  8
0
  6
SLD-鎖線
 62
   179
370
    18
100
AcDbLine
 10
19.457751236
 20
21.3762640722
 30
0.0
 11
19.457751236
 21
21.6770635998
 31
0.0
  0
LINE
  5
116
330
1B
100
AcDbEntity
 67
     1
  8
0
  6
SLD-実線
 62
   179
370
    18
100
AcDbLine
 10
21.8864405279
 20
21.6140672219
 30
0.0
 11
21.8864405279
 21
24.6884717896
 31
0.0
  0
LINE
  5
117
330
1B
100
AcDbEntity
 67
     1
  8
0
  6
SLD-実線
 62
   179
370
    18
100
AcDbLine
 10
19.3396409998
 20
25.1353673802
 30
0.0
 11
19.3396409998
 21
25.1381757267
 31
0.0
  0
LINE
  5
118
330
1B
100
AcDbEntity
 67
     1
  8
0
  6
SLD-実線
 62
   179
370
    18
100
AcDbLine
 10
22.3154580084
 20
25.053352892
 30
0.0
 11
22.3154580084
 21
21.9491993479
 31
0.0
  0
LINE
  5
119
330
1B
100
AcDbEntity
 67
     1
  8
0
  6
SLD-実線
 62
   179
370
    18
100
AcDbLine
 10
19.5364913935
 20
12.9132761961
 30
0.0
 11
19.5364913935
 21
12.7164258085
 31
0.0
  0
LINE
  5
11A
330
1B
100
AcDbEntity
 67
     1
  8
0
  6
SLD-破線
 62
   179
370
    18
100
AcDbLine
 10
22.607357536
 20
10.6101265892
 30
0.0
 11
23.1191685598
 21
10.6101265892
 31
0.0
  0
LINE
  5
11B
330
1B
100
AcDbEntity
 67
     1
  8
0
  6
SLD-鎖線
 62
   179
370
    18
100
AcDbLine
 10
20.1270425748
 20
20.8074670642
 30
0.0
 11
20.9144441498
 21
20.8074670642
 31
0.0
  0
LINE
  5
11C
330
1B
100
AcDbEntity
 67
     1
  8
0
  6
SLD-実線
 62
   179
370
    18
100
AcDbLine
 10
18.2372787948
 20
21.5948686392
 30
0.0
 11
18.1191685585
 21
21.5948686392
 31
0.0
  0
LINE
  5
11D
330
1B
100
AcDbEntity
 67
     1
  8
0
  6
SLD-実線
 62
   179
370
    18
100
AcDbLine
 10
19.1358628895
 20
21.5948686392
 30
0.0
 11
17.7684868261
 21
21.5948686392
 31
0.0
  0
LINE
  5
11E
330
1B
100
AcDbEntity
 67
     1
  8
0
  6
SLD-実線
 62
   179
370
    18
100
AcDbLine
 10
18.0396798971
 20
21.5554985604
 30
0.0
 11
18.0396798971
 21
18.9570733629
 31
0.0
  0
LINE
  5
11F
330
1B
100
AcDbEntity
 67
     1
  8
0
  6
SLD-実線
 62
   179
370
    18
100
AcDbLine
 10
18.0004468262
 20
24.1363842304
 30
0.0
 11
17.9123893459
 21
22.2283451748
 31
0.0
  0
LINE
  5
120
330
1B
100
AcDbEntity
 67
     1
  8
0
  6
SLD-実線
 62
   179
370
    18
100
AcDbLine
 10
22.4885058824
 20
24.2864872225
 30
0.0
 11
22.4885058824
 21
24.5468862777
 31
0.0
  0
LINE
  5
121
330
1B
100
AcDbEntity
 67
     1
  8
0
  6
SLD-実線
 62
   179
370
    18
100
AcDbLine
 10
22.922318166
 20
21.7523489542
 30
0.0
 11
23.1185317094
 21
21.8656329934
 31
0.0
  0
LINE
  5
122
330
1B
100
AcDbEntity
 67
     1
  8
0
  6
SLD-実線
 62
   179
370
    18
100
AcDbLine
 10
17.9223181648
 20
12.3605802904
 30
0.0
 11
17.9223181648
 21
8.2691217067
 31
0.0
  0
LINE
  5
123
330
1B
100
AcDbEntity
 67
     1
  8
0
  6
SLD-実線
 62
   179
370
    18
100
AcDbLine
 10
18.1191685523
 20
11.2991029673
 30
0.0
 11
17.9223181648
 21
11.2991029673
 31
0.0
  0
LINE
  5
124
330
1B
100
AcDbEntity
 67
     1
  8
0
  6
SLD-実線
 62
   179
370
    18
100
AcDbLine
 10
22.9240810006
 20
21.5554985604
 30
0.0
 11
23.1191685598
 21
21.5554985604
 31
0.0
  0
LINE
  5
125
330
1B
100
AcDbEntity
 67
     1
  8
0
  6
SLD-破線
 62
   179
370
    18
100
AcDbLine
 10
22.607357536
 20
20.3212465916
 30
0.0
 11
23.1191685598
 21
20.3212465916
 31
0.0
  0
LINE
  5
126
330
1B
100
AcDbEntity
 67
     1
  8
0
  6
SLD-実線
 62
   179
370
    18
100
AcDbLine
 10
20.5207433623
 20
14.5471344642
 30
0.0
 11
21.4065701341
 21
14.5471344642
 31
0.0
  0
LINE
  5
127
330
1B
100
AcDbEntity
 67
     1
  8
0
  6
SLD-実線
 62
   179
370
    18
100
AcDbLine
 10
18.4618562751
 20
22.5397505292
 30
0.0
 11
18.0597066687
 21
22.0897207653
 31
0.0
  0
LINE
  5
128
330
1B
100
AcDbEntity
 67
     1
  8
0
  6
SLD-実線
 62
   179
370
    18
100
AcDbLine
 10
22.6339290321
 20
24.1190150965
 30
0.0
 11
22.6339290321
 21
21.9491993479
 31
0.0
  0
LINE
  5
129
330
1B
100
AcDbEntity
 67
     1
  8
0
  6
SLD-実線
 62
   179
370
    18
100
AcDbLine
 10
20.5207433623
 20
25.0988056479
 30
0.0
 11
21.7266126539
 21
25.0988056479
 31
0.0
  0
LINE
  5
12A
330
1B
100
AcDbEntity
 67
     1
  8
0
  6
SLD-実線
 62
   179
370
    18
100
AcDbLine
 10
18.4829852124
 20
12.7164258085
 30
0.0
 11
19.5364913935
 21
12.7164258085
 31
0.0
  0
LINE
  5
12B
330
1B
100
AcDbEntity
 67
     1
  8
0
  6
SLD-実線
 62
   179
370
    18
100
AcDbLine
 10
23.1191685598
 20
9.3305990298
 30
0.0
 11
22.922318166
 21
9.3305990298
 31
0.0
  0
LINE
  5
12C
330
1B
100
AcDbEntity
 67
     1
  8
0
  6
SLD-実線
 62
   179
370
    18
100
AcDbLine
 10
17.9223181648
 20
18.4452623392
 30
0.0
 11
21.504995331
 21
18.4452623392
 31
0.0
  0
LINE
  5
12D
330
1B
100
AcDbEntity
 67
     1
  8
0
  6
SLD-破線
 62
   179
370
    18
100
AcDbLine
 10
18.4341291885
 20
20.3547111586
 30
0.0
 11
17.9223181648
 21
20.3547111586
 31
0.0
  0
LINE
  5
12E
330
1B
100
AcDbEntity
 67
     1
  8
0
  6
SLD-鎖線
 62
   179
370
    18
100
AcDbLine
 10
21.7265591106
 20
24.7682555691
 30
0.0
 11
21.4558000554
 21
24.7682555691
 31
0.0
  0
LINE
  5
12F
330
1B
100
AcDbEntity
 67
     1
  8
0
  6
SLD-鎖線
 62
   179
370
    18
100
AcDbLine
 10
18.9013765902
 20
11.9342177706
 30
0.0
 11
18.4850586373
 21
12.3505357235
 31
0.0
  0
LINE
  5
130
330
1B
100
AcDbEntity
 67
     1
  8
0
  6
SLD-実線
 62
   179
370
    18
100
AcDbLine
 10
22.8486287172
 20
21.9491993479
 30
0.0
 11
22.8486287172
 21
24.1173045453
 31
0.0
  0
LINE
  5
131
330
1B
100
AcDbEntity
 67
     1
  8
0
  6
SLD-実線
 62
   179
370
    18
100
AcDbLine
 10
18.1191685585
 20
9.3305990298
 30
0.0
 11
17.9223181648
 21
9.3305990298
 31
0.0
  0
LINE
  5
132
330
1B
100
AcDbEntity
 67
     1
  8
0
  6
SLD-実線
 62
   179
370
    18
100
AcDbLine
 10
23.1191685598
 20
21.5554985604
 30
0.0
 11
23.1191685598
 21
18.4452623392
 31
0.0
  0
LINE
  5
133
330
1B
100
AcDbEntity
 67
     1
  8
0
  6
SLD-実線
 62
   179
370
    18
100
AcDbLine
 10
19.7530268266
 20
21.6421127337
 30
0.0
 11
21.2884598979
 21
21.6421127337
 31
0.0
  0
LINE
  5
134
330
1B
100
AcDbEntity
 67
     1
  8
0
  6
SLD-実線
 62
   179
370
    18
100
AcDbLine
 10
19.1349165903
 20
12.9132761961
 30
0.0
 11
19.1349165903
 21
14.3837610783
 31
0.0
  0
CIRCLE
  5
135
330
1B
100
AcDbEntity
 67
     1
  8
1
  6
SLD-実線
 62
   179
370
    18
100
AcDbCircle
 10
87.764828
 20
493.693628
 30
0.0
 40
2.499999999999986
  0
ARC
  5
136
330
1B
100
AcDbEntity
 67
     1
  8
0
  6
SLD-鎖線
 62
   179
370
    18
100
AcDbCircle
 10
20.5207433623
 20
10.3148509986
 30
0.0
 40
2.952755906249998
100
AcDbArc
 50
37.337744
 51
52.662256
  0
ARC
  5
137
330
1B
100
AcDbEntity
 67
     1
  8
0
  6
SLD-実線
 62
   179
370
    18
100
AcDbCircle
 10
21.4065701341
 20
14.4211502122
 30
0.0
 40
0.1259842520000003
100
AcDbArc
 50
22.999613
 51
90.0
  0
ARC
  5
138
330
1B
100
AcDbEntity
 67
     1
  8
0
  6
SLD-実線
 62
   179
370
    18
100
AcDbCircle
 10
22.5278759612
 20
24.2864872225
 30
0.0
 40
0.0393700787500003
100
AcDbArc
 50
180.0
 51
227.612009
  0
ARC
  5
139
330
1B
100
AcDbEntity
 67
     1
  8
0
  6
SLD-実線
 62
   179
370
    18
100
AcDbCircle
 10
22.4097657249
 20
24.5468862777
 30
0.0
 40
0.0787401575000004
100
AcDbArc
 50
0.0
 51
90.0
  0
ARC
  5
13A
330
1B
100
AcDbEntity
 67
     1
  8
0
  6
SLD-実線
 62
   179
370
    18
100
AcDbCircle
 10
23.0016849377
 20
24.1352902146
 30
0.0
 40
0.0393700787499953
100
AcDbArc
 50
1.59224
 51
60.0
  0
ARC
  5
13B
330
1B
100
AcDbEntity
 67
     1
  8
0
  6
SLD-実線
 62
   179
370
    18
100
AcDbCircle
 10
20.5207433623
 20
10.3148509923
 30
0.0
 40
3.1496063
100
AcDbArc
 50
40.314909
 51
49.685091
  0
ARC
  5
13C
330
1B
100
AcDbEntity
 67
     1
  8
0
  6
SLD-実線
 62
   179
370
    18
100
AcDbCircle
 10
20.5207433574
 20
10.3148510043
 30
0.0
 40
3.149606277487291
100
AcDbArc
 50
310.3149085312
 51
319.685091
  0
ARC
  5
13D
330
1B
100
AcDbEntity
 67
     1
  8
0
  6
SLD-破線
 62
   179
370
    18
100
AcDbCircle
 10
20.5207433623
 20
13.5485576135
 30
0.0
 40
0.4330708662500052
100
AcDbArc
 50
207.834737
 51
332.165263
  0
ARC
  5
13E
330
1B
100
AcDbEntity
 67
     1
  8
0
  6
SLD-実線
 62
   179
370
    18
100
AcDbCircle
 10
19.3790110785
 20
25.1381757267
 30
0.0
 40
0.0393700787499967
100
AcDbArc
 50
90.0
 51
180.0
  0
CIRCLE
  5
13F
330
1B
100
AcDbEntity
 67
     1
  8
0
  6
SLD-実線
 62
   179
370
    18
100
AcDbCircle
 10
18.4328296609
 20
8.2269371398
 30
0.0
 40
0.137795275625006
  0
ARC
  5
140
330
1B
100
AcDbEntity
 67
     1
  8
0
  6
SLD-実線
 62
   179
370
    18
100
AcDbCircle
 10
21.2884598979
 20
21.8389631274
 30
0.0
 40
0.196850393750001
100
AcDbArc
 50
270.0
 51
0.0
  0
ARC
  5
141
330
1B
100
AcDbEntity
 67
     1
  8
0
  6
SLD-実線
 62
   179
370
    18
100
AcDbCircle
 10
17.8472269836
 20
22.0372541511
 30
0.0
 40
0.0787401574999966
100
AcDbArc
 50
138.215806
 51
180.0
  0
ARC
  5
142
330
1B
100
AcDbEntity
 67
     1
  8
0
  6
SLD-実線
 62
   179
370
    18
100
AcDbCircle
 10
19.300270921
 20
25.1353673802
 30
0.0
 40
0.0393700787500038
100
AcDbArc
 50
274.236395
 51
0.0
  0
ARC
  5
143
330
1B
100
AcDbEntity
 67
     1
  8
0
  6
SLD-鎖線
 62
   179
370
    18
100
AcDbCircle
 10
20.5207433623
 20
10.3148509986
 30
0.0
 40
2.283464567499999
100
AcDbArc
 50
265.05457
 51
274.94543
  0
ARC
  5
144
330
1B
100
AcDbEntity
 67
     1
  8
0
  6
SLD-鎖線
 62
   179
370
    18
100
AcDbCircle
 10
20.5207433623
 20
10.3148509986
 30
0.0
 40
2.283464567500004
100
AcDbArc
 50
85.05457
 51
94.94543
  0
ARC
  5
145
330
1B
100
AcDbEntity
 67
     1
  8
0
  6
SLD-実線
 62
   179
370
    18
100
AcDbCircle
 10
20.5207433623
 20
10.3148509986
 30
0.0
 40
3.149606299999997
100
AcDbArc
 50
220.314909
 51
229.685091
  0
ARC
  5
146
330
1B
100
AcDbEntity
 67
     1
  8
0
  6
SLD-実線
 62
   179
370
    18
100
AcDbCircle
 10
20.5207433623
 20
13.5485576135
 30
0.0
 40
0.4330708662500052
100
AcDbArc
 50
332.165263
 51
207.834737
  0
ARC
  5
147
330
1B
100
AcDbEntity
 67
     1
  8
0
  6
SLD-実線
 62
   179
370
    18
100
AcDbCircle
 10
20.5207433623
 20
10.3148509986
 30
0.0
 40
3.307086609470046
100
AcDbArc
 50
218.21321058
 51
231.78678942
  0
ARC
  5
148
330
1B
100
AcDbEntity
 67
     1
  8
0
  6
SLD-実線
 62
   179
370
    18
100
AcDbCircle
 10
20.5207433623
 20
10.3148509986
 30
0.0
 40
3.1496063
100
AcDbArc
 50
130.314909
 51
139.685091
  0
ARC
  5
149
330
1B
100
AcDbEntity
 67
     1
  8
0
  6
SLD-鎖線
 62
   179
370
    18
100
AcDbCircle
 10
20.5207433623
 20
10.3148509986
 30
0.0
 40
2.598425197499998
100
AcDbArc
 50
306.285258
 51
323.714742
  0
ARC
  5
14A
330
1B
100
AcDbEntity
 67
     1
  8
0
  6
SLD-実線
 62
   179
370
    18
100
AcDbCircle
 10
21.662475646
 20
25.1381757267
 30
0.0
 40
0.0393700787500038
100
AcDbArc
 50
0.0
 51
90.0
  0
CIRCLE
  5
14B
330
1B
100
AcDbEntity
 67
     1
  8
0
  6
SLD-実線
 62
   179
370
    18
100
AcDbCircle
 10
20.5207433623
 20
8.0313864311
 30
0.0
 40
0.1082677165624979
  0
CIRCLE
  5
14C
330
1B
100
AcDbEntity
 67
     1
  8
0
  6
SLD-実線
 62
   179
370
    18
100
AcDbCircle
 10
22.3581074572
 20
8.4774869036
 30
0.0
 40
0.137795275625006
  0
ARC
  5
14D
330
1B
100
AcDbEntity
 67
     1
  8
0
  6
SLD-実線
 62
   179
370
    18
100
AcDbCircle
 10
18.1184200546
 20
22.0372541511
 30
0.0
 40
0.0787401575000045
100
AcDbArc
 50
138.215806
 51
180.0
  0
CIRCLE
  5
14E
330
1B
100
AcDbEntity
 67
     1
  8
0
  6
SLD-実線
 62
   179
370
    18
100
AcDbCircle
 10
20.5207433623
 20
10.3148509986
 30
0.0
 40
0.4921259843750008
  0
CIRCLE
  5
14F
330
1B
100
AcDbEntity
 67
     1
  8
0
  6
SLD-実線
 62
   179
370
    18
100
AcDbCircle
 10
18.2372787948
 20
10.3148509986
 30
0.0
 40
0.1082677165624979
  0
ARC
  5
150
330
1B
100
AcDbEntity
 67
     1
  8
0
  6
SLD-実線
 62
   179
370
    18
100
AcDbCircle
 10
22.8092586384
 20
24.1173045453
 30
0.0
 40
0.0393700787500073
100
AcDbArc
 50
0.0
 51
51.711897
  0
ARC
  5
151
330
1B
100
AcDbEntity
 67
     1
  8
0
  6
SLD-実線
 62
   179
370
    18
100
AcDbCircle
 10
20.5207433623
 20
10.3148509986
 30
0.0
 40
1.161417323125004
100
AcDbArc
 50
79.174844
 51
103.953743
  0
ARC
  5
152
330
1B
100
AcDbEntity
 67
     1
  8
0
  6
SLD-鎖線
 62
   179
370
    18
100
AcDbCircle
 10
20.5207433623
 20
10.3148509986
 30
0.0
 40
2.598425197500007
100
AcDbArc
 50
126.285258
 51
143.714742
  0
ARC
  5
153
330
1B
100
AcDbEntity
 67
     1
  8
0
  6
SLD-実線
 62
   179
370
    18
100
AcDbCircle
 10
20.5207433623
 20
10.3148509986
 30
0.0
 40
1.673228346875001
100
AcDbArc
 50
151.234647
 51
46.005816
  0
ARC
  5
154
330
1B
100
AcDbEntity
 67
     1
  8
0
  6
SLD-実線
 62
   179
370
    18
100
AcDbCircle
 10
19.4966767478
 20
21.6140672219
 30
0.0
 40
0.3818897638750016
100
AcDbArc
 50
180.0
 51
270.0
  0
ARC
  5
155
330
1B
100
AcDbEntity
 67
     1
  8
0
  6
SLD-実線
 62
   179
370
    18
100
AcDbCircle
 10
21.5045507641
 20
21.6140672219
 30
0.0
 40
0.3818897638749981
100
AcDbArc
 50
270.0
 51
0.0
  0
ARC
  5
156
330
1B
100
AcDbEntity
 67
     1
  8
0
  6
SLD-鎖線
 62
   179
370
    18
100
AcDbCircle
 10
20.5207433623
 20
10.3148509986
 30
0.0
 40
2.283464567499999
100
AcDbArc
 50
355.05457
 51
4.94543
  0
ARC
  5
157
330
1B
100
AcDbEntity
 67
     1
  8
0
  6
SLD-鎖線
 62
   179
370
    18
100
AcDbCircle
 10
20.5207433623
 20
10.3148509986
 30
0.0
 40
2.283464567500002
100
AcDbArc
 50
175.05457
 51
184.94543
  0
ARC
  5
158
330
1B
100
AcDbEntity
 67
     1
  8
0
  6
SLD-実線
 62
   179
370
    18
100
AcDbCircle
 10
20.5207433623
 20
10.3148509986
 30
0.0
 40
1.161417323125004
100
AcDbArc
 50
153.770729
 51
43.481194
  0
ARC
  5
159
330
1B
100
AcDbEntity
 67
     1
  8
0
  6
SLD-実線
 62
   179
370
    18
100
AcDbCircle
 10
19.2215307635
 20
14.3837610783
 30
0.0
 40
0.086614173250009
100
AcDbArc
 50
90.0
 51
180.0
  0
ARC
  5
15A
330
1B
100
AcDbEntity
 67
     1
  8
0
  6
SLD-実線
 62
   179
370
    18
100
AcDbCircle
 10
21.5045507641
 20
24.6884717896
 30
0.0
 40
0.3818897638749981
100
AcDbArc
 50
0.0
 51
90.0
  0
ARC
  5
15B
330
1B
100
AcDbEntity
 67
     1
  8
0
  6
SLD-実線
 62
   179
370
    18
100
AcDbCircle
 10
23.09884667
 20
21.8997284818
 30
0.0
 40
0.0393700787500025
100
AcDbArc
 50
300.0
 51
1.59224
  0
ARC
  5
15C
330
1B
100
AcDbEntity
 67
     1
  8
0
  6
SLD-実線
 62
   179
370
    18
100
AcDbCircle
 10
20.5207433623
 20
10.3148509986
 30
0.0
 40
3.307086609470047
100
AcDbArc
 50
38.21321058
 51
51.78678942
  0
ARC
  5
15D
330
1B
100
AcDbEntity
 67
     1
  8
0
  6
SLD-実線
 62
   179
370
    18
100
AcDbCircle
 10
19.7530268266
 20
21.8389631274
 30
0.0
 40
0.196850393750001
100
AcDbArc
 50
180.0
 51
270.0
  0
ARC
  5
15E
330
1B
100
AcDbEntity
 67
     1
  8
0
  6
SLD-実線
 62
   179
370
    18
100
AcDbCircle
 10
19.4966767478
 20
24.6884717896
 30
0.0
 40
0.3818897638750016
100
AcDbArc
 50
90.0
 51
180.0
  0
ARC
  5
15F
330
1B
100
AcDbEntity
 67
     1
  8
0
  6
SLD-実線
 62
   179
370
    18
100
AcDbCircle
 10
18.3534200542
 20
24.9467963618
 30
0.0
 40
0.0787401733329199
100
AcDbArc
 50
94.2364117292
 51
178.437775
  0
CIRCLE
  5
160
330
1B
100
AcDbEntity
 67
     1
  8
0
  6
SLD-実線
 62
   179
370
    18
100
AcDbCircle
 10
20.5207433623
 20
12.5983155661
 30
0.0
 40
0.1082677165624979
  0
ARC
  5
161
330
1B
100
AcDbEntity
 67
     1
  8
0
  6
SLD-実線
 62
   179
370
    18
100
AcDbCircle
 10
22.6017468273
 20
24.5468862777
 30
0.0
 40
0.078740157500004
100
AcDbArc
 50
0.0
 51
90.0
  0
ARC
  5
162
330
1B
100
AcDbEntity
 67
     1
  8
0
  6
SLD-実線
 62
   179
370
    18
100
AcDbCircle
 10
22.8829480932
 20
24.2947643982
 30
0.0
 40
0.0393700428529731
100
AcDbArc
 50
180.0
 51
239.9999597845
  0
ARC
  5
163
330
1B
100
AcDbEntity
 67
     1
  8
0
  6
SLD-実線
 62
   179
370
    18
100
AcDbCircle
 10
20.5207433512
 20
10.3148509909
 30
0.0
 40
2.460629962136749
100
AcDbArc
 50
145.263096
 51
214.7369041617
  0
ARC
  5
164
330
1B
100
AcDbEntity
 67
     1
  8
0
  6
SLD-実線
 62
   179
370
    18
100
AcDbCircle
 10
20.5207433623
 20
10.3148509986
 30
0.0
 40
2.460629975557322
100
AcDbArc
 50
235.2630958383
 51
304.7369041617
  0
ARC
  5
165
330
1B
100
AcDbEntity
 67
     1
  8
0
  6
SLD-実線
 62
   179
370
    18
100
AcDbCircle
 10
19.7530268266
 20
24.4789157265
 30
0.0
 40
0.1968503937500046
100
AcDbArc
 50
90.0
 51
180.0
  0
ARC
  5
166
330
1B
100
AcDbEntity
 67
     1
  8
0
  6
SLD-実線
 62
   179
370
    18
100
AcDbCircle
 10
22.6880666699
 20
24.9467963566
 30
0.0
 40
0.0787401575000043
100
AcDbArc
 50
1.562225
 51
85.763605
  0
ARC
  5
167
330
1B
100
AcDbEntity
 67
     1
  8
0
  6
SLD-実線
 62
   179
370
    18
100
AcDbCircle
 10
20.5207433623
 20
10.3148509986
 30
0.0
 40
1.673228346875007
100
AcDbArc
 50
78.904249
 51
116.640157
  0
ARC
  5
168
330
1B
100
AcDbEntity
 67
     1
  8
0
  6
SLD-実線
 62
   179
370
    18
100
AcDbCircle
 10
22.7198570636
 20
24.2881976162
 30
0.0
 40
0.0393700787500038
100
AcDbArc
 50
180.0
 51
231.711897
  0
ARC
  5
169
330
1B
100
AcDbEntity
 67
     1
  8
0
  6
SLD-実線
 62
   179
370
    18
100
AcDbCircle
 10
22.5945589533
 20
24.1190150965
 30
0.0
 40
0.0393700787499984
100
AcDbArc
 50
0.0
 51
47.612009
  0
ARC
  5
16A
330
1B
100
AcDbEntity
 67
     1
  8
0
  6
SLD-鎖線
 62
   179
370
    18
100
AcDbCircle
 10
20.5207433623
 20
10.3148509986
 30
0.0
 40
2.952755906250006
100
AcDbArc
 50
217.337744
 51
232.662256
  0
ARC
  5
16B
330
1B
100
AcDbEntity
 67
     1
  8
0
  6
SLD-実線
 62
   179
370
    18
100
AcDbCircle
 10
20.5207433623
 20
10.3148509986
 30
0.0
 40
3.307086609470044
100
AcDbArc
 50
308.21321058
 51
321.78678942
  0
CIRCLE
  5
16C
330
1B
100
AcDbEntity
 67
     1
  8
0
  6
SLD-破線
 62
   179
370
    18
100
AcDbCircle
 10
20.5207433623
 20
20.8074670642
 30
0.0
 40
0.1574803149999937
  0
ARC
  5
16D
330
1B
100
AcDbEntity
 67
     1
  8
0
  6
SLD-実線
 62
   179
370
    18
100
AcDbCircle
 10
21.819955961
 20
14.3837610783
 30
0.0
 40
0.0866141732500001
100
AcDbArc
 50
0.0
 51
90.0
  0
ARC
  5
16E
330
1B
100
AcDbEntity
 67
     1
  8
0
  6
SLD-実線
 62
   179
370
    18
100
AcDbCircle
 10
18.0398016293
 20
24.1352902146
 30
0.0
 40
0.0393700787500024
100
AcDbArc
 50
120.0
 51
178.40776
  0
ARC
  5
16F
330
1B
100
AcDbEntity
 67
     1
  8
0
  6
SLD-実線
 62
   179
370
    18
100
AcDbCircle
 10
20.5207433623
 20
10.3148509986
 30
0.0
 40
2.460629921875004
100
AcDbArc
 50
55.263096
 51
124.736904
  0
ARC
  5
170
330
1B
100
AcDbEntity
 67
     1
  8
0
  6
SLD-実線
 62
   179
370
    18
100
AcDbCircle
 10
21.2884598979
 20
24.4789157265
 30
0.0
 40
0.1968503937500046
100
AcDbArc
 50
0.0
 51
90.0
  0
ARC
  5
171
330
1B
100
AcDbEntity
 67
     1
  8
0
  6
SLD-実線
 62
   179
370
    18
100
AcDbCircle
 10
18.2766488735
 20
24.5476245454
 30
0.0
 40
0.078740157500004
100
AcDbArc
 50
101.253011
 51
180.0
  0
ARC
  5
172
330
1B
100
AcDbEntity
 67
     1
  8
0
  6
SLD-実線
 62
   179
370
    18
100
AcDbCircle
 10
18.1585386373
 20
24.2947643879
 30
0.0
 40
0.0393700787499997
100
AcDbArc
 50
300.0
 51
0.0
  0
CIRCLE
  5
173
330
1B
100
AcDbEntity
 67
     1
  8
0
  6
SLD-実線
 62
   179
370
    18
100
AcDbCircle
 10
22.8042079298
 20
10.3148509986
 30
0.0
 40
0.1082677165625014
  0
ARC
  5
174
330
1B
100
AcDbEntity
 67
     1
  8
0
  6
SLD-実線
 62
   179
370
    18
100
AcDbCircle
 10
20.5207433623
 20
10.3148509986
 30
0.0
 40
3.307086609470051
100
AcDbArc
 50
128.21321058
 51
141.78678942
  0
CIRCLE
  5
175
330
1B
100
AcDbEntity
 67
     1
  8
0
  6
SLD-実線
 62
   179
370
    18
100
AcDbCircle
 10
18.6833792673
 20
12.152214936
 30
0.0
 40
0.1377952756249954
  0
ARC
  5
176
330
1B
100
AcDbEntity
 67
     1
  8
0
  6
SLD-実線
 62
   179
370
    18
100
AcDbCircle
 10
22.764837869
 20
24.5476245558
 30
0.0
 40
0.0787401575000004
100
AcDbArc
 50
0.0
 51
82.14773
  0
ARC
  5
177
330
1B
100
AcDbEntity
 67
     1
  8
0
  6
SLD-実線
 62
   179
370
    18
100
AcDbCircle
 10
21.7412158035
 20
25.1353673802
 30
0.0
 40
0.03937007875
100
AcDbArc
 50
180.0
 51
265.763605
  0
CIRCLE
  5
178
330
1B
100
AcDbEntity
 67
     1
  8
0
  6
SLD-実線
 62
   179
370
    18
100
AcDbCircle
 10
22.6086570636
 20
12.4027646999
 30
0.0
 40
0.137795275625006
  0
ARC
  5
179
330
1B
100
AcDbEntity
 67
     1
  8
0
  6
SLD-実線
 62
   179
370
    18
100
AcDbCircle
 10
20.5207433733
 20
10.3148509909
 30
0.0
 40
2.46062996213674
100
AcDbArc
 50
325.2630958383
 51
34.736904
  0
ARC
  5
17A
330
1B
100
AcDbEntity
 67
     1
  8
0
  6
SLD-実線
 62
   179
370
    18
100
AcDbCircle
 10
19.6349165904
 20
14.4211502122
 30
0.0
 40
0.1259842520000003
100
AcDbArc
 50
90.0
 51
157.000387
  0
ENDSEC
  0
SECTION
  2
OBJECTS
  0
DICTIONARY
  5
C
330
0
100
AcDbDictionary
281
     1
  3
ACAD_GROUP
350
D
  3
ACAD_LAYOUT
350
1A
  3
ACAD_MLINESTYLE
350
17
  3
ACAD_PLOTSETTINGS
350
19
  3
ACAD_PLOTSTYLENAME
350
E
  3
ACAD_SCALELIST
350
47
  0
DICTIONARY
  5
D
102
{ACAD_REACTORS
330
C
102
}
330
C
100
AcDbDictionary
281
     1
  0
DICTIONARY
  5
1A
102
{ACAD_REACTORS
330
C
102
}
330
C
100
AcDbDictionary
281
     1
  3
Model
350
22
  3
SW_Model_1
350
1E
  0
DICTIONARY
  5
17
102
{ACAD_REACTORS
330
C
102
}
330
C
100
AcDbDictionary
281
     1
  3
Standard
350
18
  0
DICTIONARY
  5
19
102
{ACAD_REACTORS
330
C
102
}
330
C
100
AcDbDictionary
281
     1
  0
ACDBDICTIONARYWDFLT
  5
E
102
{ACAD_REACTORS
330
C
102
}
330
C
100
AcDbDictionary
281
     1
  3
Normal
350
F
100
AcDbDictionaryWithDefault
340
F
  0
DICTIONARY
  5
47
102
{ACAD_REACTORS
330
C
102
}
330
C
100
AcDbDictionary
281
     1
  3
A0
350
48
  3
A1
350
49
  3
A2
350
4A
  3
A3
350
4B
  3
A4
350
4C
  3
A5
350
4D
  3
A6
350
4E
  3
A7
350
4F
  3
A8
350
50
  3
A9
350
51
  3
B0
350
52
  3
B1
350
53
  3
B2
350
54
  3
B3
350
55
  3
B4
350
56
  3
B5
350
57
  3
B6
350
58
  3
B7
350
59
  3
B8
350
5A
  3
B9
350
5B
  3
C0
350
5C
  3
C1
350
5D
  3
C2
350
5E
  3
C3
350
5F
  3
C4
350
60
  3
C5
350
61
  3
C6
350
62
  3
C7
350
63
  3
C8
350
64
  3
C9
350
65
  3
D0
350
66
  3
D1
350
67
  3
D2
350
68
  0
LAYOUT
  5
22
102
{ACAD_REACTORS
330
1A
102
}
330
1A
100
AcDbPlotSettings
  1

  2
none_device
  4
Letter_(8.50_x_11.00_Inches)
  6

 40
6.35
 41
6.35
 42
6.35000508
 43
6.35000508
 44
215.9
 45
279.4
 46
0.0
 47
0.0
 48
0.0
 49
0.0
140
0.0
141
0.0
142
1.0
143
1.0
 70
  1712
 72
     0
 73
     0
 74
     0
  7

 75
     0
147
1.0
148
0.0
149
0.0
100
AcDbLayout
  1
Model
 70
     1
 71
     0
 10
0.0
 20
0.0
 11
44.0
 21
34.0
 12
0.0
 22
0.0
 32
0.0
 14
0.0
 24
0.0
 34
0.0
 15
44.0
 25
34.0
 35
0.0
146
0.0
 13
0.0
 23
0.0
 33
0.0
 16
1.0
 26
0.0
 36
0.0
 17
0.0
 27
1.0
 37
0.0
 76
     0
330
1F
331
29
  0
LAYOUT
  5
1E
102
{ACAD_REACTORS
330
1A
102
}
330
1A
100
AcDbPlotSettings
  1

  2
none_device
  4
ANSI_E_(44.00_x_34.00_Inches)
  6

 40
6.35
 41
19.05
 42
6.3499746
 43
19.0499873
 44
1117.6
 45
863.6
 46
0.0
 47
0.0
 48
0.0
 49
0.0
140
0.0
141
0.0
142
1.0
143
1.0
 70
  4832
 72
     0
 73
     0
 74
     1
  7

 75
     0
147
1.0
148
0.0
149
0.0
100
AcDbLayout
  1
SW_Model_1
 70
     1
 71
     1
 10
0.0
 20
0.0
 11
44.0
 21
34.0
 12
0.0
 22
0.0
 32
0.0
 14
0.0
 24
0.0
 34
0.0
 15
44.0
 25
34.0
 35
0.0
146
0.0
 13
0.0
 23
0.0
 33
0.0
 16
1.0
 26
0.0
 36
0.0
 17
0.0
 27
1.0
 37
0.0
 76
     0
330
1B
331
A3
  0
MLINESTYLE
  5
18
102
{ACAD_REACTORS
330
17
102
}
330
17
100
AcDbMlineStyle
  2
Standard
 70
     0
  3

 62
   256
 51
90.0
 52
90.0
 71
     2
 49
0.5
 62
   256
  6
BYLAYER
 49
-0.5
 62
   256
  6
BYLAYER
  0
ACDBPLACEHOLDER
  5
F
102
{ACAD_REACTORS
330
E
102
}
330
E
  0
SCALE
  5
48
102
{ACAD_REACTORS
330
47
102
}
330
47
100
AcDbScale
 70
     0
300
1:1
140
1.0
141
1.0
290
     1
  0
SCALE
  5
49
102
{ACAD_REACTORS
330
47
102
}
330
47
100
AcDbScale
 70
     0
300
1:2
140
1.0
141
2.0
290
     0
  0
SCALE
  5
4A
102
{ACAD_REACTORS
330
47
102
}
330
47
100
AcDbScale
 70
     0
300
1:4
140
1.0
141
4.0
290
     0
  0
SCALE
  5
4B
102
{ACAD_REACTORS
330
47
102
}
330
47
100
AcDbScale
 70
     0
300
1:5
140
1.0
141
5.0
290
     0
  0
SCALE
  5
4C
102
{ACAD_REACTORS
330
47
102
}
330
47
100
AcDbScale
 70
     0
300
1:8
140
1.0
141
8.0
290
     0
  0
SCALE
  5
4D
102
{ACAD_REACTORS
330
47
102
}
330
47
100
AcDbScale
 70
     0
300
1:10
140
1.0
141
10.0
290
     0
  0
SCALE
  5
4E
102
{ACAD_REACTORS
330
47
102
}
330
47
100
AcDbScale
 70
     0
300
1:16
140
1.0
141
16.0
290
     0
  0
SCALE
  5
4F
102
{ACAD_REACTORS
330
47
102
}
330
47
100
AcDbScale
 70
     0
300
1:20
140
1.0
141
20.0
290
     0
  0
SCALE
  5
50
102
{ACAD_REACTORS
330
47
102
}
330
47
100
AcDbScale
 70
     0
300
1:30
140
1.0
141
30.0
290
     0
  0
SCALE
  5
51
102
{ACAD_REACTORS
330
47
102
}
330
47
100
AcDbScale
 70
     0
300
1:40
140
1.0
141
40.0
290
     0
  0
SCALE
  5
52
102
{ACAD_REACTORS
330
47
102
}
330
47
100
AcDbScale
 70
     0
300
1:50
140
1.0
141
50.0
290
     0
  0
SCALE
  5
53
102
{ACAD_REACTORS
330
47
102
}
330
47
100
AcDbScale
 70
     0
300
1:100
140
1.0
141
100.0
290
     0
  0
SCALE
  5
54
102
{ACAD_REACTORS
330
47
102
}
330
47
100
AcDbScale
 70
     0
300
2:1
140
2.0
141
1.0
290
     0
  0
SCALE
  5
55
102
{ACAD_REACTORS
330
47
102
}
330
47
100
AcDbScale
 70
     0
300
4:1
140
4.0
141
1.0
290
     0
  0
SCALE
  5
56
102
{ACAD_REACTORS
330
47
102
}
330
47
100
AcDbScale
 70
     0
300
8:1
140
8.0
141
1.0
290
     0
  0
SCALE
  5
57
102
{ACAD_REACTORS
330
47
102
}
330
47
100
AcDbScale
 70
     0
300
10:1
140
10.0
141
1.0
290
     0
  0
SCALE
  5
58
102
{ACAD_REACTORS
330
47
102
}
330
47
100
AcDbScale
 70
     0
300
100:1
140
100.0
141
1.0
290
     0
  0
SCALE
  5
59
102
{ACAD_REACTORS
330
47
102
}
330
47
100
AcDbScale
 70
     0
300
1/128" = 1'-0"
140
0.0078125
141
12.0
290
     0
  0
SCALE
  5
5A
102
{ACAD_REACTORS
330
47
102
}
330
47
100
AcDbScale
 70
     0
300
1/64" = 1'-0"
140
0.015625
141
12.0
290
     0
  0
SCALE
  5
5B
102
{ACAD_REACTORS
330
47
102
}
330
47
100
AcDbScale
 70
     0
300
1/32" = 1'-0"
140
0.03125
141
12.0
290
     0
  0
SCALE
  5
5C
102
{ACAD_REACTORS
330
47
102
}
330
47
100
AcDbScale
 70
     0
300
1/16" = 1'-0"
140
0.0625
141
12.0
290
     0
  0
SCALE
  5
5D
102
{ACAD_REACTORS
330
47
102
}
330
47
100
AcDbScale
 70
     0
300
3/32" = 1'-0"
140
0.09375
141
12.0
290
     0
  0
SCALE
  5
5E
102
{ACAD_REACTORS
330
47
102
}
330
47
100
AcDbScale
 70
     0
300
1/8" = 1'-0"
140
0.125
141
12.0
290
     0
  0
SCALE
  5
5F
102
{ACAD_REACTORS
330
47
102
}
330
47
100
AcDbScale
 70
     0
300
3/16" = 1'-0"
140
0.1875
141
12.0
290
     0
  0
SCALE
  5
60
102
{ACAD_REACTORS
330
47
102
}
330
47
100
AcDbScale
 70
     0
300
1/4" = 1'-0"
140
0.25
141
12.0
290
     0
  0
SCALE
  5
61
102
{ACAD_REACTORS
330
47
102
}
330
47
100
AcDbScale
 70
     0
300
3/8" = 1'-0"
140
0.375
141
12.0
290
     0
  0
SCALE
  5
62
102
{ACAD_REACTORS
330
47
102
}
330
47
100
AcDbScale
 70
     0
300
1/2" = 1'-0"
140
0.5
141
12.0
290
     0
  0
SCALE
  5
63
102
{ACAD_REACTORS
330
47
102
}
330
47
100
AcDbScale
 70
     0
300
3/4" = 1'-0"
140
0.75
141
12.0
290
     0
  0
SCALE
  5
64
102
{ACAD_REACTORS
330
47
102
}
330
47
100
AcDbScale
 70
     0
300
1" = 1'-0"
140
1.0
141
12.0
290
     0
  0
SCALE
  5
65
102
{ACAD_REACTORS
330
47
102
}
330
47
100
AcDbScale
 70
     0
300
1-1/2" = 1'-0"
140
1.5
141
12.0
290
     0
  0
SCALE
  5
66
102
{ACAD_REACTORS
330
47
102
}
330
47
100
AcDbScale
 70
     0
300
3" = 1'-0"
140
3.0
141
12.0
290
     0
  0
SCALE
  5
67
102
{ACAD_REACTORS
330
47
102
}
330
47
100
AcDbScale
 70
     0
300
6" = 1'-0"
140
6.0
141
12.0
290
     0
  0
SCALE
  5
68
102
{ACAD_REACTORS
330
47
102
}
330
47
100
AcDbScale
 70
     0
300
1'-0" = 1'-0"
140
12.0
141
12.0
290
     0
  0
ENDSEC
  0
EOF
