  0
SECTION
  2
HEADER
  9
$ACADVER
  1
AC1015
  9
$ACADMAINTVER
 70
     6
  9
$DWGCODEPAGE
  3
DOS932
  9
$INSBASE
 10
0.0
 20
0.0
 30
0.0
  9
$EXTMIN
 10
0.0
 20
0.0
 30
0.0
  9
$EXTMAX
 10
44.0
 20
34.0
 30
0.0
  9
$LIMMIN
 10
0.0
 20
0.0
  9
$LIMMAX
 10
44.0
 20
34.0
  9
$ORTHOMODE
 70
     0
  9
$REGENMODE
 70
     1
  9
$FILLMODE
 70
     1
  9
$QTEXTMODE
 70
     0
  9
$MIRRTEXT
 70
     1
  9
$LTSCALE
 40
1.0
  9
$ATTMODE
 70
     1
  9
$TEXTSIZE
 40
0.1377952756
  9
$TRACEWID
 40
0.05
  9
$TEXTSTYLE
  7
STANDARD
  9
$CLAYER
  8
0
  9
$CELTYPE
  6
ByLayer
  9
$CECOLOR
 62
   256
  9
$CELTSCALE
 40
1.0
  9
$DISPSILH
 70
     0
  9
$DIMSCALE
 40
1.0
  9
$DIMASZ
 40
0.14
  9
$DIMEXO
 40
0.0393700787
  9
$DIMDLI
 40
0.38
  9
$DIMRND
 40
0.0
  9
$DIMDLE
 40
0.0
  9
$DIMEXE
 40
0.0393700787
  9
$DIMTP
 40
0.0
  9
$DIMTM
 40
0.0
  9
$DIMTXT
 40
0.1377952756
  9
$DIMCEN
 40
0.09
  9
$DIMTSZ
 40
0.0
  9
$DIMTOL
 70
     0
  9
$DIMLIM
 70
     0
  9
$DIMTIH
 70
     1
  9
$DIMTOH
 70
     1
  9
$DIMSE1
 70
     0
  9
$DIMSE2
 70
     0
  9
$DIMTAD
 70
     1
  9
$DIMZIN
 70
     1
  9
$DIMBLK
  1

  9
$DIMASO
 70
     1
  9
$DIMSHO
 70
     1
  9
$DIMPOST
  1

  9
$DIMAPOST
  1

  9
$DIMALT
 70
     0
  9
$DIMALTD
 70
     2
  9
$DIMALTF
 40
25.4
  9
$DIMLFAC
 40
1.0
  9
$DIMTOFL
 70
     0
  9
$DIMTVP
 40
0.0
  9
$DIMTIX
 70
     0
  9
$DIMSOXD
 70
     0
  9
$DIMSAH
 70
     0
  9
$DIMBLK1
  1

  9
$DIMBLK2
  1

  9
$DIMSTYLE
  2
Standard
  9
$DIMCLRD
 70
     0
  9
$DIMCLRE
 70
     0
  9
$DIMCLRT
 70
     0
  9
$DIMTFAC
 40
1.0
  9
$DIMGAP
 40
0.06
  9
$DIMJUST
 70
     0
  9
$DIMSD1
 70
     0
  9
$DIMSD2
 70
     0
  9
$DIMTOLJ
 70
     1
  9
$DIMTZIN
 70
     1
  9
$DIMALTZ
 70
     0
  9
$DIMALTTZ
 70
     0
  9
$DIMUPT
 70
     0
  9
$DIMDEC
 70
     4
  9
$DIMTDEC
 70
     4
  9
$DIMALTU
 70
     2
  9
$DIMALTTD
 70
     2
  9
$DIMTXSTY
  7
STANDARD
  9
$DIMAUNIT
 70
     0
  9
$DIMADEC
 70
     0
  9
$DIMALTRND
 40
0.0
  9
$DIMAZIN
 70
     0
  9
$DIMDSEP
 70
    46
  9
$DIMATFIT
 70
     3
  9
$DIMFRAC
 70
     0
  9
$DIMLDRBLK
  1

  9
$DIMLUNIT
 70
     2
  9
$DIMLWD
 70
    -2
  9
$DIMLWE
 70
    -2
  9
$DIMTMOVE
 70
     0
  9
$LUNITS
 70
     2
  9
$LUPREC
 70
     3
  9
$SKETCHINC
 40
0.1
  9
$FILLETRAD
 40
0.5
  9
$AUNITS
 70
     0
  9
$AUPREC
 70
     0
  9
$MENU
  1
.
  9
$ELEVATION
 40
0.0
  9
$PELEVATION
 40
0.0
  9
$THICKNESS
 40
0.0
  9
$LIMCHECK
 70
     0
  9
$CHAMFERA
 40
0.0
  9
$CHAMFERB
 40
0.0
  9
$CHAMFERC
 40
0.0
  9
$CHAMFERD
 40
0.0
  9
$SKPOLY
 70
     0
  9
$TDCREATE
 40
2460104.767407141
  9
$TDUCREATE
 40
2460104.392407141
  9
$TDUPDATE
 40
2460104.767408773
  9
$TDUUPDATE
 40
2460104.392408773
  9
$TDINDWG
 40
0.0000000116
  9
$TDUSRTIMER
 40
0.0000000116
  9
$USRTIMER
 70
     1
  9
$ANGBASE
 50
0.0
  9
$ANGDIR
 70
     0
  9
$PDMODE
 70
     0
  9
$PDSIZE
 40
-1.0
  9
$PLINEWID
 40
0.0
  9
$SPLFRAME
 70
     0
  9
$SPLINETYPE
 70
     6
  9
$SPLINESEGS
 70
     8
  9
$HANDSEED
  5
236
  9
$SURFTAB1
 70
     6
  9
$SURFTAB2
 70
     6
  9
$SURFTYPE
 70
     6
  9
$SURFU
 70
     6
  9
$SURFV
 70
     6
  9
$UCSBASE
  2

  9
$UCSNAME
  2

  9
$UCSORG
 10
0.0
 20
0.0
 30
0.0
  9
$UCSXDIR
 10
1.0
 20
0.0
 30
0.0
  9
$UCSYDIR
 10
0.0
 20
1.0
 30
0.0
  9
$UCSORTHOREF
  2

  9
$UCSORTHOVIEW
 70
     0
  9
$UCSORGTOP
 10
0.0
 20
0.0
 30
0.0
  9
$UCSORGBOTTOM
 10
0.0
 20
0.0
 30
0.0
  9
$UCSORGLEFT
 10
0.0
 20
0.0
 30
0.0
  9
$UCSORGRIGHT
 10
0.0
 20
0.0
 30
0.0
  9
$UCSORGFRONT
 10
0.0
 20
0.0
 30
0.0
  9
$UCSORGBACK
 10
0.0
 20
0.0
 30
0.0
  9
$PUCSBASE
  2

  9
$PUCSNAME
  2

  9
$PUCSORG
 10
0.0
 20
0.0
 30
0.0
  9
$PUCSXDIR
 10
1.0
 20
0.0
 30
0.0
  9
$PUCSYDIR
 10
0.0
 20
1.0
 30
0.0
  9
$PUCSORTHOREF
  2

  9
$PUCSORTHOVIEW
 70
     0
  9
$PUCSORGTOP
 10
0.0
 20
0.0
 30
0.0
  9
$PUCSORGBOTTOM
 10
0.0
 20
0.0
 30
0.0
  9
$PUCSORGLEFT
 10
0.0
 20
0.0
 30
0.0
  9
$PUCSORGRIGHT
 10
0.0
 20
0.0
 30
0.0
  9
$PUCSORGFRONT
 10
0.0
 20
0.0
 30
0.0
  9
$PUCSORGBACK
 10
0.0
 20
0.0
 30
0.0
  9
$USERI1
 70
     0
  9
$USERI2
 70
     0
  9
$USERI3
 70
     0
  9
$USERI4
 70
     0
  9
$USERI5
 70
     0
  9
$USERR1
 40
0.0
  9
$USERR2
 40
0.0
  9
$USERR3
 40
0.0
  9
$USERR4
 40
0.0
  9
$USERR5
 40
0.0
  9
$WORLDVIEW
 70
     1
  9
$SHADEDGE
 70
     3
  9
$SHADEDIF
 70
    70
  9
$TILEMODE
 70
     0
  9
$MAXACTVP
 70
    64
  9
$PINSBASE
 10
0.0
 20
0.0
 30
0.0
  9
$PLIMCHECK
 70
     0
  9
$PEXTMIN
 10
0.0
 20
0.0
 30
0.0
  9
$PEXTMAX
 10
44.0
 20
34.0
 30
0.0
  9
$PLIMMIN
 10
0.0
 20
0.0
  9
$PLIMMAX
 10
44.0
 20
34.0
  9
$UNITMODE
 70
     0
  9
$VISRETAIN
 70
     1
  9
$PLINEGEN
 70
     0
  9
$PSLTSCALE
 70
     1
  9
$TREEDEPTH
 70
  3020
  9
$CMLSTYLE
  2
Standard
  9
$CMLJUST
 70
     0
  9
$CMLSCALE
 40
1.0
  9
$PROXYGRAPHICS
 70
     1
  9
$MEASUREMENT
 70
     0
  9
$CELWEIGHT
370
    -1
  9
$ENDCAPS
280
     0
  9
$JOINSTYLE
280
     0
  9
$LWDISPLAY
290
     1
  9
$INSUNITS
 70
     1
  9
$HYPERLINKBASE
  1

  9
$STYLESHEET
  1

  9
$XEDIT
290
     1
  9
$CEPSNTYPE
380
     0
  9
$PSTYLEMODE
290
     1
  9
$FINGERPRINTGUID
  2
{2ccedc65-e2d6-4ee4-a3da-b56a73cc688f}
  9
$VERSIONGUID
  2
{FAEB1C32-E019-11D5-929B-00C0DF256EC4}
  9
$EXTNAMES
290
     1
  9
$PSVPSCALE
 40
0.0
  9
$OLESTARTUP
290
     0
  0
ENDSEC
  0
SECTION
  2
CLASSES
  0
CLASS
  1
ACDBDICTIONARYWDFLT
  2
AcDbDictionaryWithDefault
  3
ObjectDBX Classes
 90
        0
280
     0
281
     0
  0
CLASS
  1
VISUALSTYLE
  2
AcDbVisualStyle
  3
ObjectDBX Classes
 90
     4095
280
     0
281
     0
  0
CLASS
  1
MATERIAL
  2
AcDbMaterial
  3
ObjectDBX Classes
 90
     1153
280
     0
281
     0
  0
CLASS
  1
SCALE
  2
AcDbScale
  3
ObjectDBX Classes
 90
     1153
280
     0
281
     0
  0
CLASS
  1
TABLESTYLE
  2
AcDbTableStyle
  3
ObjectDBX Classes
 90
     4095
280
     0
281
     0
  0
CLASS
  1
MLEADERSTYLE
  2
AcDbMLeaderStyle
  3
ACDB_MLEADERSTYLE_CLASS
 90
     4095
280
     0
281
     0
  0
CLASS
  1
SUN
  2
AcDbSun
  3
SCENEOE
 90
     1153
280
     0
281
     0
  0
CLASS
  1
ACDBPLACEHOLDER
  2
AcDbPlaceHolder
  3
ObjectDBX Classes
 90
        0
280
     0
281
     0
  0
CLASS
  1
LAYOUT
  2
AcDbLayout
  3
ObjectDBX Classes
 90
        0
280
     0
281
     0
  0
ENDSEC
  0
SECTION
  2
TABLES
  0
TABLE
  2
VPORT
  5
8
330
0
100
AcDbSymbolTable
 70
     1
  0
VPORT
  5
29
330
8
100
AcDbSymbolTableRecord
100
AcDbViewportTableRecord
  2
*Active
 70
     0
 10
0.0
 20
0.0
 11
1.0
 21
1.0
 12
22.0
 22
17.0
 13
0.0
 23
0.0
 14
0.5
 24
0.5
 15
0.5
 25
0.5
 16
0.0
 26
0.0
 36
1.0
 17
0.0
 27
0.0
 37
0.0
 40
34.0
 41
1.2941176471
 42
50.0
 43
0.0
 44
0.0
 50
0.0
 51
0.0
 71
     0
 72
  2000
 73
     1
 74
     3
 75
     0
 76
     0
 77
     0
 78
     0
281
     0
 65
     1
110
0.0
120
0.0
130
0.0
111
1.0
121
0.0
131
0.0
112
0.0
122
1.0
132
0.0
 79
     0
146
0.0
  0
ENDTAB
  0
TABLE
  2
LTYPE
  5
5
330
0
100
AcDbSymbolTable
 70
     8
  0
LTYPE
  5
14
330
5
100
AcDbSymbolTableRecord
100
AcDbLinetypeTableRecord
  2
ByBlock
 70
     0
  3

 72
    65
 73
     0
 40
0.0
  0
LTYPE
  5
15
330
5
100
AcDbSymbolTableRecord
100
AcDbLinetypeTableRecord
  2
ByLayer
 70
     0
  3

 72
    65
 73
     0
 40
0.0
  0
LTYPE
  5
16
330
5
100
AcDbSymbolTableRecord
100
AcDbLinetypeTableRecord
  2
Continuous
 70
     0
  3
Solid line
 72
    65
 73
     0
 40
0.0
  0
LTYPE
  5
6E
330
5
100
AcDbSymbolTableRecord
100
AcDbLinetypeTableRecord
  2
SLD-実線
 70
     0
  3
SolidWorks Line Style
 72
    65
 73
     0
 40
0.0
  0
LTYPE
  5
6F
330
5
100
AcDbSymbolTableRecord
100
AcDbLinetypeTableRecord
  2
SLD-破線
 70
     0
  3
SolidWorks Line Style
 72
    65
 73
     2
 40
0.075
 49
0.05
 74
     0
 49
-0.025
 74
     0
  0
LTYPE
  5
70
330
5
100
AcDbSymbolTableRecord
100
AcDbLinetypeTableRecord
  2
SLD-2点鎖線
 70
     0
  3
SolidWorks Line Style
 72
    65
 73
     6
 40
0.5
 49
0.25
 74
     0
 49
-0.05
 74
     0
 49
0.05
 74
     0
 49
-0.05
 74
     0
 49
0.05
 74
     0
 49
-0.05
 74
     0
  0
LTYPE
  5
71
330
5
100
AcDbSymbolTableRecord
100
AcDbLinetypeTableRecord
  2
SLD-鎖線
 70
     0
  3
SolidWorks Line Style
 72
    65
 73
     4
 40
0.4
 49
0.25
 74
     0
 49
-0.05
 74
     0
 49
0.05
 74
     0
 49
-0.05
 74
     0
  0
LTYPE
  5
72
330
5
100
AcDbSymbolTableRecord
100
AcDbLinetypeTableRecord
  2
SLD-1点鎖線(中心線)
 70
     0
  3
SolidWorks Line Style
 72
    65
 73
     4
 40
1.35
 49
1.2
 74
     0
 49
-0.05
 74
     0
 49
0.05
 74
     0
 49
-0.05
 74
     0
  0
LTYPE
  5
73
330
5
100
AcDbSymbolTableRecord
100
AcDbLinetypeTableRecord
  2
SLD-点線
 70
     0
  3
SolidWorks Line Style
 72
    65
 73
     2
 40
0.025
 49
0.0
 74
     0
 49
-0.025
 74
     0
  0
LTYPE
  5
74
330
5
100
AcDbSymbolTableRecord
100
AcDbLinetypeTableRecord
  2
SLD-細-太鎖線(切断面)
 70
     0
  3
SolidWorks Line Style
 72
    65
 73
     4
 40
0.4
 49
0.25
 74
     0
 49
-0.05
 74
     0
 49
0.05
 74
     0
 49
-0.05
 74
     0
  0
ENDTAB
  0
TABLE
  2
LAYER
  5
2
330
0
100
AcDbSymbolTable
 70
     4
  0
LAYER
  5
10
330
2
100
AcDbSymbolTableRecord
100
AcDbLayerTableRecord
  2
0
 70
     0
 62
     7
  6
Continuous
370
    -3
390
F
  0
LAYER
  5
75
330
2
100
AcDbSymbolTableRecord
100
AcDbLayerTableRecord
  2
SLD-0
 70
     0
 62
   179
  6
SLD-実線
370
    -3
390
F
  0
LAYER
  5
76
330
2
100
AcDbSymbolTableRecord
100
AcDbLayerTableRecord
  2
100
 70
     0
 62
   179
  6
SLD-実線
370
    -3
390
F
  0
LAYER
  5
77
330
2
100
AcDbSymbolTableRecord
100
AcDbLayerTableRecord
  2
1
 70
     0
 62
   179
  6
SLD-実線
370
    -3
390
F
  0
ENDTAB
  0
TABLE
  2
STYLE
  5
3
330
0
100
AcDbSymbolTable
 70
     4
  0
STYLE
  5
11
330
3
100
AcDbSymbolTableRecord
100
AcDbTextStyleTableRecord
  2
STANDARD
 70
     0
 40
0.0
 41
1.0
 50
0.0
 71
     0
 42
0.1377952756
  3
GOTHIC.TTF
  4

1001
ACAD
1000
CENTURY GOTHIC
1071
       34
  0
STYLE
  5
87
330
3
100
AcDbSymbolTableRecord
100
AcDbTextStyleTableRecord
  2
SLDTEXTSTYLE0
 70
     0
 40
0.0
 41
0.6696428571
 50
0.0
 71
     0
 42
0.1377952756
  3
SWMONO.TTF
  4

1001
ACAD
1000
SWMONO
1071
      258
  0
STYLE
  5
93
330
3
100
AcDbSymbolTableRecord
100
AcDbTextStyleTableRecord
  2
SLDTEXTSTYLE1
 70
     0
 40
0.0
 41
0.5952377551
 50
0.0
 71
     0
 42
0.1377952756
  3
SWMONO.TTF
  4
bigfont
1001
ACAD
1000
SWMONO
1071
      258
  0
STYLE
  5
99
330
3
100
AcDbSymbolTableRecord
100
AcDbTextStyleTableRecord
  2
SLDTEXTSTYLE2
 70
     0
 40
0.0
 41
0.7142857143
 50
0.0
 71
     0
 42
0.1377952756
  3
SWMONO.TTF
  4

1001
ACAD
1000
SWMONO
1071
      258
  0
ENDTAB
  0
TABLE
  2
VIEW
  5
6
330
0
100
AcDbSymbolTable
 70
     0
  0
ENDTAB
  0
TABLE
  2
UCS
  5
7
330
0
100
AcDbSymbolTable
 70
     0
  0
ENDTAB
  0
TABLE
  2
APPID
  5
9
330
0
100
AcDbSymbolTable
 70
     1
  0
APPID
  5
12
330
9
100
AcDbSymbolTableRecord
100
AcDbRegAppTableRecord
  2
ACAD
 70
     0
  0
ENDTAB
  0
TABLE
  2
DIMSTYLE
  5
A
330
0
100
AcDbSymbolTable
 70
     1
100
AcDbDimStyleTable
  0
DIMSTYLE
105
27
330
A
100
AcDbSymbolTableRecord
100
AcDbDimStyleTableRecord
  2
Standard
 70
     0
178
     0
340
11
  0
ENDTAB
  0
TABLE
  2
BLOCK_RECORD
  5
1
330
0
100
AcDbSymbolTable
 70
    23
  0
BLOCK_RECORD
  5
1F
330
1
100
AcDbSymbolTableRecord
100
AcDbBlockTableRecord
  2
*Model_Space
340
22
  0
BLOCK_RECORD
  5
1B
330
1
100
AcDbSymbolTableRecord
100
AcDbBlockTableRecord
  2
*Paper_Space
340
1E
  0
BLOCK_RECORD
  5
78
330
1
100
AcDbSymbolTableRecord
100
AcDbBlockTableRecord
  2
_OPEN30
340
0
102
{BLKREFS
331
F7
331
F8
331
F9
331
FA
331
FB
331
FC
331
FD
331
FE
331
FF
331
100
331
101
331
102
331
103
331
104
331
105
331
106
102
}
  0
BLOCK_RECORD
  5
7E
330
1
100
AcDbSymbolTableRecord
100
AcDbBlockTableRecord
  2
ZU_DIM_00039
340
0
  0
BLOCK_RECORD
  5
84
330
1
100
AcDbSymbolTableRecord
100
AcDbBlockTableRecord
  2
SW_NOTE_0
340
0
102
{BLKREFS
331
89
102
}
  0
BLOCK_RECORD
  5
8A
330
1
100
AcDbSymbolTableRecord
100
AcDbBlockTableRecord
  2
ZU_DIM_00036
340
0
  0
BLOCK_RECORD
  5
90
330
1
100
AcDbSymbolTableRecord
100
AcDbBlockTableRecord
  2
SW_NOTE_0_1
340
0
102
{BLKREFS
331
95
102
}
  0
BLOCK_RECORD
  5
96
330
1
100
AcDbSymbolTableRecord
100
AcDbBlockTableRecord
  2
SW_NOTE_0_2
340
0
102
{BLKREFS
331
9B
102
}
  0
BLOCK_RECORD
  5
9C
330
1
100
AcDbSymbolTableRecord
100
AcDbBlockTableRecord
  2
ZU_DIM_00035
340
0
  0
BLOCK_RECORD
  5
A2
330
1
100
AcDbSymbolTableRecord
100
AcDbBlockTableRecord
  2
SW_NOTE_0_3
340
0
102
{BLKREFS
331
A6
102
}
  0
BLOCK_RECORD
  5
A7
330
1
100
AcDbSymbolTableRecord
100
AcDbBlockTableRecord
  2
SW_NOTE_0_4
340
0
102
{BLKREFS
331
AB
102
}
  0
BLOCK_RECORD
  5
AC
330
1
100
AcDbSymbolTableRecord
100
AcDbBlockTableRecord
  2
ZU_DIM_00034
340
0
  0
BLOCK_RECORD
  5
B2
330
1
100
AcDbSymbolTableRecord
100
AcDbBlockTableRecord
  2
SW_NOTE_0_5
340
0
102
{BLKREFS
331
B6
102
}
  0
BLOCK_RECORD
  5
B7
330
1
100
AcDbSymbolTableRecord
100
AcDbBlockTableRecord
  2
SW_NOTE_0_6
340
0
102
{BLKREFS
331
BB
102
}
  0
BLOCK_RECORD
  5
BC
330
1
100
AcDbSymbolTableRecord
100
AcDbBlockTableRecord
  2
ZU_DIM_00032
340
0
  0
BLOCK_RECORD
  5
C2
330
1
100
AcDbSymbolTableRecord
100
AcDbBlockTableRecord
  2
SW_NOTE_0_7
340
0
102
{BLKREFS
331
C6
102
}
  0
BLOCK_RECORD
  5
C7
330
1
100
AcDbSymbolTableRecord
100
AcDbBlockTableRecord
  2
ZU_DIM_00033
340
0
  0
BLOCK_RECORD
  5
CD
330
1
100
AcDbSymbolTableRecord
100
AcDbBlockTableRecord
  2
SW_NOTE_0_8
340
0
102
{BLKREFS
331
D1
102
}
  0
BLOCK_RECORD
  5
D2
330
1
100
AcDbSymbolTableRecord
100
AcDbBlockTableRecord
  2
SW_NOTE_0_9
340
0
102
{BLKREFS
331
D6
102
}
  0
BLOCK_RECORD
  5
D7
330
1
100
AcDbSymbolTableRecord
100
AcDbBlockTableRecord
  2
ZU_DIM_00038
340
0
  0
BLOCK_RECORD
  5
DD
330
1
100
AcDbSymbolTableRecord
100
AcDbBlockTableRecord
  2
SW_NOTE_0_10
340
0
102
{BLKREFS
331
E1
102
}
  0
BLOCK_RECORD
  5
E2
330
1
100
AcDbSymbolTableRecord
100
AcDbBlockTableRecord
  2
SW_NOTE_0_11
340
0
102
{BLKREFS
331
E6
102
}
  0
BLOCK_RECORD
  5
E7
330
1
100
AcDbSymbolTableRecord
100
AcDbBlockTableRecord
  2
ZU_DIM_00037
340
0
  0
BLOCK_RECORD
  5
ED
330
1
100
AcDbSymbolTableRecord
100
AcDbBlockTableRecord
  2
SW_NOTE_0_12
340
0
102
{BLKREFS
331
F1
102
}
  0
BLOCK_RECORD
  5
F2
330
1
100
AcDbSymbolTableRecord
100
AcDbBlockTableRecord
  2
SW_NOTE_0_13
340
0
102
{BLKREFS
331
F6
102
}
  0
ENDTAB
  0
ENDSEC
  0
SECTION
  2
BLOCKS
  0
BLOCK
  5
20
330
1F
100
AcDbEntity
  8
0
100
AcDbBlockBegin
  2
*Model_Space
 70
     0
 10
0.0
 20
0.0
 30
0.0
  3
*Model_Space
  1

  0
ENDBLK
  5
21
330
1F
100
AcDbEntity
  8
0
100
AcDbBlockEnd
  0
BLOCK
  5
1C
330
1B
100
AcDbEntity
 67
     1
  8
0
100
AcDbBlockBegin
  2
*Paper_Space
 70
     0
 10
0.0
 20
0.0
 30
0.0
  3
*Paper_Space
  1

  0
ENDBLK
  5
1D
330
1B
100
AcDbEntity
 67
     1
  8
0
100
AcDbBlockEnd
  0
BLOCK
  5
79
330
78
100
AcDbEntity
  8
0
100
AcDbBlockBegin
  2
_OPEN30
 70
     0
 10
0.0
 20
0.0
 30
0.0
  3
_OPEN30
  1

  0
LINE
  5
7B
330
78
100
AcDbEntity
  8
SLD-0
  6
SLD-実線
370
    18
100
AcDbLine
 10
-1.0
 20
0.267949
 30
0.0
 11
0.0
 21
0.0
 31
0.0
  0
LINE
  5
7C
330
78
100
AcDbEntity
  8
SLD-0
  6
SLD-実線
370
    18
100
AcDbLine
 10
0.0
 20
0.0
 30
0.0
 11
-1.0
 21
-0.267949
 31
0.0
  0
LINE
  5
7D
330
78
100
AcDbEntity
  8
SLD-0
  6
SLD-実線
370
    18
100
AcDbLine
 10
0.0
 20
0.0
 30
0.0
 11
-1.0
 21
0.0
 31
0.0
  0
ENDBLK
  5
7A
330
78
100
AcDbEntity
  8
0
100
AcDbBlockEnd
  0
BLOCK
  5
7F
330
7E
100
AcDbEntity
  8
0
100
AcDbBlockBegin
  2
ZU_DIM_00039
 70
     0
 10
0.0
 20
0.0
 30
0.0
  3
ZU_DIM_00039
  1

  0
ARC
  5
81
330
7E
100
AcDbEntity
  8
SLD-0
  6
SLD-実線
370
    18
100
AcDbCircle
 10
-43.341976
 20
-26.22319
 30
0.0
 40
27.612115
100
AcDbArc
 50
315.000017
 51
0.0
  0
LINE
  5
82
330
7E
100
AcDbEntity
  8
SLD-0
  6
SLD-実線
370
    18
100
AcDbLine
 10
-26.911456
 20
-42.653715
 30
0.0
 11
-22.638744
 21
-46.926407
 31
0.0
  0
LINE
  5
83
330
7E
100
AcDbEntity
  8
SLD-0
  6
SLD-実線
370
    18
100
AcDbLine
 10
-20.070835
 20
-26.22319
 30
0.0
 11
-14.06319
 21
-26.22319
 31
0.0
  0
INSERT
  5
89
330
7E
100
AcDbEntity
  8
SLD-0
 62
   179
100
AcDbBlockReference
  2
SW_NOTE_0
 10
-18.1032892652
 20
-40.4232855703
 30
0.0
  0
INSERT
  5
F7
330
7E
100
AcDbEntity
  8
0
  6
Continuous
 62
     7
100
AcDbBlockReference
  2
_OPEN30
 10
-23.817257
 20
-45.747898
 30
0.0
 41
2.0
 42
2.0
 43
2.0
 50
225.000017
  0
INSERT
  5
F8
330
7E
100
AcDbEntity
  8
0
  6
Continuous
 62
     7
100
AcDbBlockReference
  2
_OPEN30
 10
-15.729862
 20
-26.22319
 30
0.0
 41
2.0
 42
2.0
 43
2.0
 50
90.0
  0
ENDBLK
  5
80
330
7E
100
AcDbEntity
  8
0
100
AcDbBlockEnd
  0
BLOCK
  5
85
330
84
100
AcDbEntity
  8
0
100
AcDbBlockBegin
  2
SW_NOTE_0
 70
     0
 10
0.0
 20
0.0
 30
0.0
  3
SW_NOTE_0
  1

  0
MTEXT
  5
88
330
84
100
AcDbEntity
  8
SLD-0
 62
     0
100
AcDbMText
 10
-4.0283066455
 20
1.6851363209
 30
0.0
 40
3.2
 41
0.0
 71
     1
 72
     1
  1
45°
  7
SLDTEXTSTYLE0
 11
0.3859175708444154
 21
0.922533266887187
 31
0.0
 73
     1
 44
1.0
  0
ENDBLK
  5
86
330
84
100
AcDbEntity
  8
0
100
AcDbBlockEnd
  0
BLOCK
  5
8B
330
8A
100
AcDbEntity
  8
0
100
AcDbBlockBegin
  2
ZU_DIM_00036
 70
     0
 10
0.0
 20
0.0
 30
0.0
  3
ZU_DIM_00036
  1

  0
ARC
  5
8D
330
8A
100
AcDbEntity
  8
SLD-0
  6
SLD-実線
370
    18
100
AcDbCircle
 10
-43.341976
 20
-26.22319
 30
0.0
 40
22.750009
100
AcDbArc
 50
204.006087
 51
212.401081
  0
ARC
  5
8E
330
8A
100
AcDbEntity
  8
SLD-0
  6
SLD-実線
370
    18
100
AcDbCircle
 10
-43.341976
 20
-26.22319
 30
0.0
 40
22.75
100
AcDbArc
 50
24.006107
 51
32.401091
  0
LINE
  5
8F
330
8A
100
AcDbEntity
  8
SLD-0
  6
SLD-実線
370
    18
100
AcDbLine
 10
-67.062927
 20
-38.944172
 30
0.0
 11
-12.13792
 21
-9.489199
 31
0.0
  0
INSERT
  5
95
330
8A
100
AcDbEntity
  8
SLD-0
 62
   179
100
AcDbBlockReference
  2
SW_NOTE_0_1
 10
-19.2482854993
 20
-14.8505823783
 30
0.0
  0
INSERT
  5
9B
330
8A
100
AcDbEntity
  8
SLD-0
 62
   179
100
AcDbBlockReference
  2
SW_NOTE_0_2
 10
-18.7547724993
 20
-14.5859223783
 30
0.0
  0
INSERT
  5
F9
330
8A
100
AcDbEntity
  8
0
  6
Continuous
 62
     7
100
AcDbBlockReference
  2
_OPEN30
 10
-23.293003
 20
-15.471401
 30
0.0
 41
2.0
 42
2.0
 43
2.0
 50
208.203602
  0
INSERT
  5
FA
330
8A
100
AcDbEntity
  8
0
  6
Continuous
 62
     7
100
AcDbBlockReference
  2
_OPEN30
 10
-63.390957
 20
-36.974979
 30
0.0
 41
2.0
 42
2.0
 43
2.0
 50
28.203598
  0
ENDBLK
  5
8C
330
8A
100
AcDbEntity
  8
0
100
AcDbBlockEnd
  0
BLOCK
  5
91
330
90
100
AcDbEntity
  8
0
100
AcDbBlockBegin
  2
SW_NOTE_0_1
 70
     0
 10
0.0
 20
0.0
 30
0.0
  3
SW_NOTE_0_1
  1

  0
MTEXT
  5
94
330
90
100
AcDbEntity
  8
SLD-0
 62
     0
100
AcDbMText
 10
-2.0636677336
 20
3.8481442716
 30
0.0
 40
3.2
 41
0.0
 71
     1
 72
     1
  1
φ
  7
SLDTEXTSTYLE1
 11
0.8812738003278238
 21
0.4726060609596062
 31
0.0
 73
     1
 44
1.0
  0
ENDBLK
  5
92
330
90
100
AcDbEntity
  8
0
100
AcDbBlockEnd
  0
BLOCK
  5
97
330
96
100
AcDbEntity
  8
0
100
AcDbBlockBegin
  2
SW_NOTE_0_2
 70
     0
 10
0.0
 20
0.0
 30
0.0
  3
SW_NOTE_0_2
  1

  0
MTEXT
  5
9A
330
96
100
AcDbEntity
  8
SLD-0
 62
     0
100
AcDbMText
 10
-2.0636677336
 20
3.8481442716
 30
0.0
 40
3.2
 41
0.0
 71
     1
 72
     1
  1
182
  7
SLDTEXTSTYLE2
 11
0.8812738003278238
 21
0.4726060609596062
 31
0.0
 73
     1
 44
1.0
  0
ENDBLK
  5
98
330
96
100
AcDbEntity
  8
0
100
AcDbBlockEnd
  0
BLOCK
  5
9D
330
9C
100
AcDbEntity
  8
0
100
AcDbBlockBegin
  2
ZU_DIM_00035
 70
     0
 10
0.0
 20
0.0
 30
0.0
  3
ZU_DIM_00035
  1

  0
ARC
  5
9F
330
9C
100
AcDbEntity
  8
SLD-0
  6
SLD-実線
370
    18
100
AcDbCircle
 10
242.599274
 20
-215.021805
 30
0.0
 40
21.24999000000003
100
AcDbArc
 50
225.708197
 51
237.963937
  0
ARC
  5
A0
330
9C
100
AcDbEntity
  8
SLD-0
  6
SLD-実線
370
    18
100
AcDbCircle
 10
242.599274
 20
-215.021805
 30
0.0
 40
21.25002199999999
100
AcDbArc
 50
45.708167
 51
57.963889
  0
LINE
  5
A1
330
9C
100
AcDbEntity
  8
SLD-0
  6
SLD-実線
370
    18
100
AcDbLine
 10
229.468597
 20
-231.729523
 30
0.0
 11
255.72995
 21
-198.314072
 31
0.0
  0
INSERT
  5
A6
330
9C
100
AcDbEntity
  8
SLD-0
 62
   179
100
AcDbBlockReference
  2
SW_NOTE_0_3
 10
246.4446042403
 20
-212.116422759
 30
0.0
  0
INSERT
  5
AB
330
9C
100
AcDbEntity
  8
SLD-0
 62
   179
100
AcDbBlockReference
  2
SW_NOTE_0_4
 10
246.7906432403
 20
-211.676115759
 30
0.0
  0
INSERT
  5
FB
330
9C
100
AcDbEntity
  8
0
  6
Continuous
 62
     7
100
AcDbBlockReference
  2
_OPEN30
 10
229.468597
 20
-231.729523
 30
0.0
 41
2.0
 42
2.0
 43
2.0
 50
231.836036
  0
INSERT
  5
FC
330
9C
100
AcDbEntity
  8
0
  6
Continuous
 62
     7
100
AcDbBlockReference
  2
_OPEN30
 10
255.72995
 20
-198.314072
 30
0.0
 41
2.0
 42
2.0
 43
2.0
 50
51.836036
  0
ENDBLK
  5
9E
330
9C
100
AcDbEntity
  8
0
100
AcDbBlockEnd
  0
BLOCK
  5
A3
330
A2
100
AcDbEntity
  8
0
100
AcDbBlockBegin
  2
SW_NOTE_0_3
 70
     0
 10
0.0
 20
0.0
 30
0.0
  3
SW_NOTE_0_3
  1

  0
MTEXT
  5
A5
330
A2
100
AcDbEntity
  8
SLD-0
 62
     0
100
AcDbMText
 10
-3.4331966317
 20
2.6981659952
 30
0.0
 40
3.2
 41
0.0
 71
     1
 72
     1
  1
φ
  7
SLDTEXTSTYLE1
 11
0.6179142029760814
 21
0.7862455327443419
 31
0.0
 73
     1
 44
1.0
  0
ENDBLK
  5
A4
330
A2
100
AcDbEntity
  8
0
100
AcDbBlockEnd
  0
BLOCK
  5
A8
330
A7
100
AcDbEntity
  8
0
100
AcDbBlockBegin
  2
SW_NOTE_0_4
 70
     0
 10
0.0
 20
0.0
 30
0.0
  3
SW_NOTE_0_4
  1

  0
MTEXT
  5
AA
330
A7
100
AcDbEntity
  8
SLD-0
 62
     0
100
AcDbMText
 10
-3.4331966317
 20
2.6981659952
 30
0.0
 40
3.2
 41
0.0
 71
     1
 72
     1
  1
170
  7
SLDTEXTSTYLE2
 11
0.6179142029760814
 21
0.7862455327443419
 31
0.0
 73
     1
 44
1.0
  0
ENDBLK
  5
A9
330
A7
100
AcDbEntity
  8
0
100
AcDbBlockEnd
  0
BLOCK
  5
AD
330
AC
100
AcDbEntity
  8
0
100
AcDbBlockBegin
  2
ZU_DIM_00034
 70
     0
 10
0.0
 20
0.0
 30
0.0
  3
ZU_DIM_00034
  1

  0
ARC
  5
AF
330
AC
100
AcDbEntity
  8
SLD-0
  6
SLD-実線
370
    18
100
AcDbCircle
 10
242.599274
 20
-215.021805
 30
0.0
 40
20.00000700000002
100
AcDbArc
 50
319.578299
 51
332.600054
  0
ARC
  5
B0
330
AC
100
AcDbEntity
  8
SLD-0
  6
SLD-実線
370
    18
100
AcDbCircle
 10
242.599274
 20
-215.021805
 30
0.0
 40
19.999993
100
AcDbArc
 50
139.578209
 51
152.600054
  0
LINE
  5
B1
330
AC
100
AcDbEntity
  8
SLD-0
  6
SLD-実線
370
    18
100
AcDbLine
 10
259.197418
 20
-226.179855
 30
0.0
 11
226.00116
 21
-203.863754
 31
0.0
  0
INSERT
  5
B6
330
AC
100
AcDbEntity
  8
SLD-0
 62
   179
100
AcDbBlockReference
  2
SW_NOTE_0_5
 10
230.1857839971
 20
-208.1566423229
 30
0.0
  0
INSERT
  5
BB
330
AC
100
AcDbEntity
  8
SLD-0
 62
   179
100
AcDbBlockReference
  2
SW_NOTE_0_6
 10
230.6505359971
 20
-208.4690813229
 30
0.0
  0
INSERT
  5
FD
330
AC
100
AcDbEntity
  8
0
  6
Continuous
 62
     7
100
AcDbBlockReference
  2
_OPEN30
 10
259.197418
 20
-226.179855
 30
0.0
 41
2.0
 42
2.0
 43
2.0
 50
326.089132
  0
INSERT
  5
FE
330
AC
100
AcDbEntity
  8
0
  6
Continuous
 62
     7
100
AcDbBlockReference
  2
_OPEN30
 10
226.00116
 20
-203.863754
 30
0.0
 41
2.0
 42
2.0
 43
2.0
 50
146.089132
  0
ENDBLK
  5
AE
330
AC
100
AcDbEntity
  8
0
100
AcDbBlockEnd
  0
BLOCK
  5
B3
330
B2
100
AcDbEntity
  8
0
100
AcDbBlockBegin
  2
SW_NOTE_0_5
 70
     0
 10
0.0
 20
0.0
 30
0.0
  3
SW_NOTE_0_5
  1

  0
MTEXT
  5
B5
330
B2
100
AcDbEntity
  8
SLD-0
 62
     0
100
AcDbMText
 10
2.436118924
 20
3.6238464976
 30
0.0
 40
3.2
 41
0.0
 71
     1
 72
     1
  1
φ
  7
SLDTEXTSTYLE1
 11
0.8299067678598613
 21
-0.5579021031152315
 31
0.0
 73
     1
 44
1.0
  0
ENDBLK
  5
B4
330
B2
100
AcDbEntity
  8
0
100
AcDbBlockEnd
  0
BLOCK
  5
B8
330
B7
100
AcDbEntity
  8
0
100
AcDbBlockBegin
  2
SW_NOTE_0_6
 70
     0
 10
0.0
 20
0.0
 30
0.0
  3
SW_NOTE_0_6
  1

  0
MTEXT
  5
BA
330
B7
100
AcDbEntity
  8
SLD-0
 62
     0
100
AcDbMText
 10
2.436118924
 20
3.6238464976
 30
0.0
 40
3.2
 41
0.0
 71
     1
 72
     1
  1
160
  7
SLDTEXTSTYLE2
 11
0.8299067678598613
 21
-0.5579021031152315
 31
0.0
 73
     1
 44
1.0
  0
ENDBLK
  5
B9
330
B7
100
AcDbEntity
  8
0
100
AcDbBlockEnd
  0
BLOCK
  5
BD
330
BC
100
AcDbEntity
  8
0
100
AcDbBlockBegin
  2
ZU_DIM_00032
 70
     0
 10
0.0
 20
0.0
 30
0.0
  3
ZU_DIM_00032
  1

  0
ARC
  5
BF
330
BC
100
AcDbEntity
  8
SLD-0
  6
SLD-実線
370
    18
100
AcDbCircle
 10
242.599289
 20
-215.02179
 30
0.0
 40
27.83550000000002
100
AcDbArc
 50
314.999978
 51
0.0
  0
LINE
  5
C0
330
BC
100
AcDbEntity
  8
SLD-0
  6
SLD-実線
370
    18
100
AcDbLine
 10
260.91551
 20
-233.338013
 30
0.0
 11
263.889008
 21
-236.311523
 31
0.0
  0
LINE
  5
C1
330
BC
100
AcDbEntity
  8
SLD-0
  6
SLD-実線
370
    18
100
AcDbLine
 10
266.612274
 20
-215.02179
 30
0.0
 11
272.70752
 21
-215.02179
 31
0.0
  0
INSERT
  5
C6
330
BC
100
AcDbEntity
  8
SLD-0
 62
   179
100
AcDbBlockReference
  2
SW_NOTE_0_7
 10
268.8755463552
 20
-226.8149876708
 30
0.0
  0
INSERT
  5
FF
330
BC
100
AcDbEntity
  8
0
  6
Continuous
 62
     7
100
AcDbBlockReference
  2
_OPEN30
 10
270.434784
 20
-215.02179
 30
0.0
 41
2.0
 42
2.0
 43
2.0
 50
90.0
  0
INSERT
  5
100
330
BC
100
AcDbEntity
  8
0
  6
Continuous
 62
     7
100
AcDbBlockReference
  2
_OPEN30
 10
262.281952
 20
-234.704468
 30
0.0
 41
2.0
 42
2.0
 43
2.0
 50
224.999978
  0
ENDBLK
  5
BE
330
BC
100
AcDbEntity
  8
0
100
AcDbBlockEnd
  0
BLOCK
  5
C3
330
C2
100
AcDbEntity
  8
0
100
AcDbBlockBegin
  2
SW_NOTE_0_7
 70
     0
 10
0.0
 20
0.0
 30
0.0
  3
SW_NOTE_0_7
  1

  0
MTEXT
  5
C5
330
C2
100
AcDbEntity
  8
SLD-0
 62
     0
100
AcDbMText
 10
-4.0341850927
 20
1.6710145085
 30
0.0
 40
3.2
 41
0.0
 71
     1
 72
     1
  1
45°
  7
SLDTEXTSTYLE0
 11
0.3826834968640478
 21
0.9238795057949409
 31
0.0
 73
     1
 44
1.0
  0
ENDBLK
  5
C4
330
C2
100
AcDbEntity
  8
0
100
AcDbBlockEnd
  0
BLOCK
  5
C8
330
C7
100
AcDbEntity
  8
0
100
AcDbBlockBegin
  2
ZU_DIM_00033
 70
     0
 10
0.0
 20
0.0
 30
0.0
  3
ZU_DIM_00033
  1

  0
ARC
  5
CA
330
C7
100
AcDbEntity
  8
SLD-0
  6
SLD-実線
370
    18
100
AcDbCircle
 10
242.599274
 20
-215.021805
 30
0.0
 40
23.75000300000001
100
AcDbArc
 50
211.775131
 51
222.740869
  0
ARC
  5
CB
330
C7
100
AcDbEntity
  8
SLD-0
  6
SLD-実線
370
    18
100
AcDbCircle
 10
242.599274
 20
-215.021805
 30
0.0
 40
23.75002400000001
100
AcDbArc
 50
31.775143
 51
42.740846
  0
LINE
  5
CC
330
C7
100
AcDbEntity
  8
SLD-0
  6
SLD-実線
370
    18
100
AcDbLine
 10
219.173965
 20
-232.839966
 30
0.0
 11
271.801117
 21
-192.809784
 31
0.0
  0
INSERT
  5
D1
330
C7
100
AcDbEntity
  8
SLD-0
 62
   179
100
AcDbBlockReference
  2
SW_NOTE_0_8
 10
262.9935840989
 20
-201.0520920913
 30
0.0
  0
INSERT
  5
D6
330
C7
100
AcDbEntity
  8
SLD-0
 62
   179
100
AcDbBlockReference
  2
SW_NOTE_0_9
 10
263.4392940989
 20
-200.7130730913
 30
0.0
  0
INSERT
  5
101
330
C7
100
AcDbEntity
  8
0
  6
Continuous
 62
     7
100
AcDbBlockReference
  2
_OPEN30
 10
223.696228
 20
-229.400162
 30
0.0
 41
2.0
 42
2.0
 43
2.0
 50
37.257976
  0
INSERT
  5
102
330
C7
100
AcDbEntity
  8
0
  6
Continuous
 62
     7
100
AcDbBlockReference
  2
_OPEN30
 10
261.502319
 20
-200.643433
 30
0.0
 41
2.0
 42
2.0
 43
2.0
 50
217.25798
  0
ENDBLK
  5
C9
330
C7
100
AcDbEntity
  8
0
100
AcDbBlockEnd
  0
BLOCK
  5
CE
330
CD
100
AcDbEntity
  8
0
100
AcDbBlockBegin
  2
SW_NOTE_0_8
 70
     0
 10
0.0
 20
0.0
 30
0.0
  3
SW_NOTE_0_8
  1

  0
MTEXT
  5
D0
330
CD
100
AcDbEntity
  8
SLD-0
 62
     0
100
AcDbMText
 10
-2.6435422213
 20
3.475431394
 30
0.0
 40
3.2
 41
0.0
 71
     1
 72
     1
  1
φ
  7
SLDTEXTSTYLE1
 11
0.7959178284795796
 21
0.6054046665729877
 31
0.0
 73
     1
 44
1.0
  0
ENDBLK
  5
CF
330
CD
100
AcDbEntity
  8
0
100
AcDbBlockEnd
  0
BLOCK
  5
D3
330
D2
100
AcDbEntity
  8
0
100
AcDbBlockBegin
  2
SW_NOTE_0_9
 70
     0
 10
0.0
 20
0.0
 30
0.0
  3
SW_NOTE_0_9
  1

  0
MTEXT
  5
D5
330
D2
100
AcDbEntity
  8
SLD-0
 62
     0
100
AcDbMText
 10
-2.6435422213
 20
3.475431394
 30
0.0
 40
3.2
 41
0.0
 71
     1
 72
     1
  1
190
  7
SLDTEXTSTYLE2
 11
0.7959178284795796
 21
0.6054046665729877
 31
0.0
 73
     1
 44
1.0
  0
ENDBLK
  5
D4
330
D2
100
AcDbEntity
  8
0
100
AcDbBlockEnd
  0
BLOCK
  5
D8
330
D7
100
AcDbEntity
  8
0
100
AcDbBlockBegin
  2
ZU_DIM_00038
 70
     0
 10
0.0
 20
0.0
 30
0.0
  3
ZU_DIM_00038
  1

  0
ARC
  5
DA
330
D7
100
AcDbEntity
  8
SLD-0
  6
SLD-実線
370
    18
100
AcDbCircle
 10
-43.341976
 20
-26.22319
 30
0.0
 40
20.00000500000001
100
AcDbArc
 50
322.021077
 51
331.570365
  0
ARC
  5
DB
330
D7
100
AcDbEntity
  8
SLD-0
  6
SLD-実線
370
    18
100
AcDbCircle
 10
-43.341976
 20
-26.22319
 30
0.0
 40
19.999989
100
AcDbArc
 50
142.021028
 51
151.570314
  0
LINE
  5
DC
330
D7
100
AcDbEntity
  8
SLD-0
  6
SLD-実線
370
    18
100
AcDbLine
 10
-26.607502
 20
-37.175705
 30
0.0
 11
-60.076427
 21
-15.270668
 31
0.0
  0
INSERT
  5
E1
330
D7
100
AcDbEntity
  8
SLD-0
 62
   179
100
AcDbBlockReference
  2
SW_NOTE_0_10
 10
-56.6280105857
 20
-19.1583233652
 30
0.0
  0
INSERT
  5
E6
330
D7
100
AcDbEntity
  8
SLD-0
 62
   179
100
AcDbBlockReference
  2
SW_NOTE_0_11
 10
-56.1594475857
 20
-19.4649943652
 30
0.0
  0
INSERT
  5
103
330
D7
100
AcDbEntity
  8
0
  6
Continuous
 62
     7
100
AcDbBlockReference
  2
_OPEN30
 10
-26.607502
 20
-37.175705
 30
0.0
 41
2.0
 42
2.0
 43
2.0
 50
326.795702
  0
INSERT
  5
104
330
D7
100
AcDbEntity
  8
0
  6
Continuous
 62
     7
100
AcDbBlockReference
  2
_OPEN30
 10
-60.076427
 20
-15.270668
 30
0.0
 41
2.0
 42
2.0
 43
2.0
 50
146.795702
  0
ENDBLK
  5
D9
330
D7
100
AcDbEntity
  8
0
100
AcDbBlockEnd
  0
BLOCK
  5
DE
330
DD
100
AcDbEntity
  8
0
100
AcDbBlockBegin
  2
SW_NOTE_0_10
 70
     0
 10
0.0
 20
0.0
 30
0.0
  3
SW_NOTE_0_10
  1

  0
MTEXT
  5
E0
330
DD
100
AcDbEntity
  8
SLD-0
 62
     0
100
AcDbMText
 10
2.3912495964
 20
3.6536097517
 30
0.0
 40
3.2
 41
0.0
 71
     1
 72
     1
  1
φ
  7
SLDTEXTSTYLE1
 11
0.8367229302073012
 21
-0.5476264585146593
 31
0.0
 73
     1
 44
1.0
  0
ENDBLK
  5
DF
330
DD
100
AcDbEntity
  8
0
100
AcDbBlockEnd
  0
BLOCK
  5
E3
330
E2
100
AcDbEntity
  8
0
100
AcDbBlockBegin
  2
SW_NOTE_0_11
 70
     0
 10
0.0
 20
0.0
 30
0.0
  3
SW_NOTE_0_11
  1

  0
MTEXT
  5
E5
330
E2
100
AcDbEntity
  8
SLD-0
 62
     0
100
AcDbMText
 10
2.3912495964
 20
3.6536097517
 30
0.0
 40
3.2
 41
0.0
 71
     1
 72
     1
  1
160
  7
SLDTEXTSTYLE2
 11
0.8367229302073012
 21
-0.5476264585146593
 31
0.0
 73
     1
 44
1.0
  0
ENDBLK
  5
E4
330
E2
100
AcDbEntity
  8
0
100
AcDbBlockEnd
  0
BLOCK
  5
E8
330
E7
100
AcDbEntity
  8
0
100
AcDbBlockBegin
  2
ZU_DIM_00037
 70
     0
 10
0.0
 20
0.0
 30
0.0
  3
ZU_DIM_00037
  1

  0
ARC
  5
EA
330
E7
100
AcDbEntity
  8
SLD-0
  6
SLD-実線
370
    18
100
AcDbCircle
 10
-43.341976
 20
-26.22319
 30
0.0
 40
20.5
100
AcDbArc
 50
233.569906
 51
242.886301
  0
ARC
  5
EB
330
E7
100
AcDbEntity
  8
SLD-0
  6
SLD-実線
370
    18
100
AcDbCircle
 10
-43.341976
 20
-26.22319
 30
0.0
 40
20.500001
100
AcDbArc
 50
53.56991
 51
62.886303
  0
LINE
  5
EC
330
E7
100
AcDbEntity
  8
SLD-0
  6
SLD-実線
370
    18
100
AcDbLine
 10
-54.136028
 20
-43.651283
 30
0.0
 11
-32.547932
 21
-8.795094
 31
0.0
  0
INSERT
  5
F1
330
E7
100
AcDbEntity
  8
SLD-0
 62
   179
100
AcDbBlockReference
  2
SW_NOTE_0_12
 10
-38.081987252
 20
-20.3217311376
 30
0.0
  0
INSERT
  5
F6
330
E7
100
AcDbEntity
  8
SLD-0
 62
   179
100
AcDbBlockReference
  2
SW_NOTE_0_13
 10
-37.787126252
 20
-19.8456461376
 30
0.0
  0
INSERT
  5
105
330
E7
100
AcDbEntity
  8
0
  6
Continuous
 62
     7
100
AcDbBlockReference
  2
_OPEN30
 10
-54.136028
 20
-43.651283
 30
0.0
 41
2.0
 42
2.0
 43
2.0
 50
238.228097
  0
INSERT
  5
106
330
E7
100
AcDbEntity
  8
0
  6
Continuous
 62
     7
100
AcDbBlockReference
  2
_OPEN30
 10
-32.547932
 20
-8.795094
 30
0.0
 41
2.0
 42
2.0
 43
2.0
 50
58.228097
  0
ENDBLK
  5
E9
330
E7
100
AcDbEntity
  8
0
100
AcDbBlockEnd
  0
BLOCK
  5
EE
330
ED
100
AcDbEntity
  8
0
100
AcDbBlockBegin
  2
SW_NOTE_0_12
 70
     0
 10
0.0
 20
0.0
 30
0.0
  3
SW_NOTE_0_12
  1

  0
MTEXT
  5
F0
330
ED
100
AcDbEntity
  8
SLD-0
 62
     0
100
AcDbMText
 10
-3.7122448974
 20
2.2991686915
 30
0.0
 40
3.2
 41
0.0
 71
     1
 72
     1
  1
φ
  7
SLDTEXTSTYLE1
 11
0.5265387644955158
 21
0.8501511215563593
 31
0.0
 73
     1
 44
1.0
  0
ENDBLK
  5
EF
330
ED
100
AcDbEntity
  8
0
100
AcDbBlockEnd
  0
BLOCK
  5
F3
330
F2
100
AcDbEntity
  8
0
100
AcDbBlockBegin
  2
SW_NOTE_0_13
 70
     0
 10
0.0
 20
0.0
 30
0.0
  3
SW_NOTE_0_13
  1

  0
MTEXT
  5
F5
330
F2
100
AcDbEntity
  8
SLD-0
 62
     0
100
AcDbMText
 10
-3.7122448974
 20
2.2991686915
 30
0.0
 40
3.2
 41
0.0
 71
     1
 72
     1
  1
164
  7
SLDTEXTSTYLE2
 11
0.5265387644955158
 21
0.8501511215563593
 31
0.0
 73
     1
 44
1.0
  0
ENDBLK
  5
F4
330
F2
100
AcDbEntity
  8
0
100
AcDbBlockEnd
  0
ENDSEC
  0
SECTION
  2
ENTITIES
  0
VIEWPORT
  5
107
330
1B
100
AcDbEntity
 67
     1
  8
0
100
AcDbViewport
 10
22.0
 20
17.0
 30
0.0
 40
46.552
 41
35.972
 68
     1
 69
     1
 12
22.0
 22
17.0
 13
0.0
 23
0.0
 14
0.5
 24
0.5
 15
0.5
 25
0.5
 16
0.0
 26
0.0
 36
1.0
 17
0.0
 27
0.0
 37
0.0
 42
50.0
 43
0.0
 44
0.0
 45
35.972
 50
0.0
 51
0.0
 72
   100
 90
   557152
  1

281
     0
 71
     1
 74
     0
110
0.0
120
0.0
130
0.0
111
1.0
121
0.0
131
0.0
112
0.0
122
1.0
132
0.0
 79
     0
146
0.0
  0
LINE
  5
109
330
1B
100
AcDbEntity
 67
     1
  8
SLD-0
  6
SLD-実線
 62
   179
370
    18
100
AcDbLine
 10
22.1618878005
 20
10.7740981228
 30
0.0
 11
22.1618878005
 21
11.8115122963
 31
0.0
  0
LINE
  5
10A
330
1B
100
AcDbEntity
 67
     1
  8
SLD-0
  6
SLD-実線
 62
   179
370
    18
100
AcDbLine
 10
19.3902342565
 20
10.7740981228
 30
0.0
 11
19.3902342565
 21
11.8115122963
 31
0.0
  0
LINE
  5
10B
330
1B
100
AcDbEntity
 67
     1
  8
SLD-0
  6
SLD-実線
 62
   179
370
    18
100
AcDbLine
 10
23.1185807141
 20
25.9186459453
 30
0.0
 11
23.2766876433
 21
25.8273628509
 31
0.0
  0
LINE
  5
10C
330
1B
100
AcDbEntity
 67
     1
  8
SLD-0
  6
SLD-実線
 62
   179
370
    18
100
AcDbLine
 10
22.9507802416
 20
25.9152729297
 30
0.0
 11
23.088970638
 21
25.8061833645
 31
0.0
  0
LINE
  5
10D
330
1B
100
AcDbEntity
 67
     1
  8
SLD-0
  6
SLD-実線
 62
   179
370
    18
100
AcDbLine
 10
22.8764178794
 20
25.806070725
 30
0.0
 11
22.7566523676
 21
25.9153855281
 31
0.0
  0
LINE
  5
10E
330
1B
100
AcDbEntity
 67
     1
  8
SLD-0
  6
SLD-実線
 62
   179
370
    18
100
AcDbLine
 10
18.4335413429
 20
25.9186460006
 30
0.0
 11
18.2754342562
 21
25.8273628509
 31
0.0
  0
LINE
  5
10F
330
1B
100
AcDbEntity
 67
     1
  8
SLD-0
  6
SLD-実線
 62
   179
370
    18
100
AcDbLine
 10
22.6363848085
 20
26.283603481
 30
0.0
 11
22.6363848085
 21
22.3473338737
 31
0.0
  0
LINE
  5
110
330
1B
100
AcDbEntity
 67
     1
  8
SLD-0
  6
SLD-実線
 62
   179
370
    18
100
AcDbLine
 10
22.6650832337
 20
26.283603481
 30
0.0
 11
22.6363848085
 21
26.283603481
 31
0.0
  0
LINE
  5
111
330
1B
100
AcDbEntity
 67
     1
  8
SLD-0
  6
SLD-実線
 62
   179
370
    18
100
AcDbLine
 10
22.7438233912
 20
25.9444642683
 30
0.0
 11
22.7438233912
 21
26.2048633235
 31
0.0
  0
LINE
  5
112
330
1B
100
AcDbEntity
 67
     1
  8
SLD-0
  6
SLD-実線
 62
   179
370
    18
100
AcDbLine
 10
23.0220952023
 20
26.606920174
 30
0.0
 11
23.0429424464
 21
25.8425187565
 31
0.0
  0
LINE
  5
113
330
1B
100
AcDbEntity
 67
     1
  8
SLD-0
  6
SLD-実線
 62
   179
370
    18
100
AcDbLine
 10
23.0988956747
 20
25.9527414337
 30
0.0
 11
23.0988956747
 21
26.2056015912
 31
0.0
  0
LINE
  5
114
330
1B
100
AcDbEntity
 67
     1
  8
SLD-0
  6
SLD-実線
 62
   179
370
    18
100
AcDbLine
 10
22.8339485881
 20
26.283603481
 30
0.0
 11
22.8339485881
 21
25.844834032
 31
0.0
  0
LINE
  5
115
330
1B
100
AcDbEntity
 67
     1
  8
SLD-0
  6
SLD-実線
 62
   179
370
    18
100
AcDbLine
 10
22.9358044936
 20
25.946174662
 30
0.0
 11
22.9358044936
 21
26.2048633235
 31
0.0
  0
LINE
  5
116
330
1B
100
AcDbEntity
 67
     1
  8
SLD-0
  6
SLD-実線
 62
   179
370
    18
100
AcDbLine
 10
22.8339485881
 20
26.283603481
 30
0.0
 11
22.8570643361
 21
26.283603481
 31
0.0
  0
LINE
  5
117
330
1B
100
AcDbEntity
 67
     1
  8
SLD-0
  6
SLD-実線
 62
   179
370
    18
100
AcDbLine
 10
20.7760610285
 20
26.8355228512
 30
0.0
 11
21.9177933122
 21
26.8355228512
 31
0.0
  0
LINE
  5
118
330
1B
100
AcDbEntity
 67
     1
  8
SLD-0
  6
SLD-実線
 62
   179
370
    18
100
AcDbLine
 10
20.7760610285
 20
26.7567826937
 30
0.0
 11
21.9819303201
 21
26.7567826937
 31
0.0
  0
LINE
  5
119
330
1B
100
AcDbEntity
 67
     1
  8
SLD-0
  6
SLD-実線
 62
   179
370
    18
100
AcDbLine
 10
21.957163391
 20
26.793344426
 30
0.0
 11
21.957163391
 21
26.7961527724
 31
0.0
  0
LINE
  5
11A
330
1B
100
AcDbEntity
 67
     1
  8
SLD-0
  6
SLD-実線
 62
   179
370
    18
100
AcDbLine
 10
22.9492008716
 20
26.6832984417
 30
0.0
 11
21.9936251233
 21
26.7540819063
 31
0.0
  0
LINE
  5
11B
330
1B
100
AcDbEntity
 67
     1
  8
SLD-0
  6
SLD-実線
 62
   179
370
    18
100
AcDbLine
 10
18.5300268547
 20
26.606920174
 30
0.0
 11
18.4294578783
 21
22.9193948187
 31
0.0
  0
LINE
  5
11C
330
1B
100
AcDbEntity
 67
     1
  8
SLD-0
  6
SLD-実線
 62
   179
370
    18
100
AcDbLine
 10
18.4532263822
 20
25.9527414337
 30
0.0
 11
18.4532263822
 21
26.2056015912
 31
0.0
  0
LINE
  5
11D
330
1B
100
AcDbEntity
 67
     1
  8
SLD-0
  6
SLD-実線
 62
   179
370
    18
100
AcDbLine
 10
18.6029210524
 20
26.6832984224
 30
0.0
 11
19.5584969337
 21
26.7540819063
 31
0.0
  0
LINE
  5
11E
330
1B
100
AcDbEntity
 67
     1
  8
SLD-0
  6
SLD-実線
 62
   179
370
    18
100
AcDbLine
 10
20.7760610285
 20
26.7567826937
 30
0.0
 11
19.5701915794
 21
26.7567826937
 31
0.0
  0
LINE
  5
11F
330
1B
100
AcDbEntity
 67
     1
  8
SLD-0
  6
SLD-実線
 62
   179
370
    18
100
AcDbLine
 10
19.594958666
 20
26.793344426
 30
0.0
 11
19.594958666
 21
26.7961527724
 31
0.0
  0
LINE
  5
120
330
1B
100
AcDbEntity
 67
     1
  8
SLD-0
  6
SLD-実線
 62
   179
370
    18
100
AcDbLine
 10
20.7760610285
 20
26.8355228512
 30
0.0
 11
19.6343287447
 21
26.8355228512
 31
0.0
  0
LINE
  5
121
330
1B
100
AcDbEntity
 67
     1
  8
SLD-0
  6
SLD-鎖線
 62
   179
370
    18
100
AcDbLine
 10
21.9818767768
 20
23.1891025353
 30
0.0
 11
21.7111177216
 21
23.1891025353
 31
0.0
  0
LINE
  5
122
330
1B
100
AcDbEntity
 67
     1
  8
SLD-0
  6
SLD-鎖線
 62
   179
370
    18
100
AcDbLine
 10
21.8390531547
 20
23.034241118
 30
0.0
 11
21.8390531547
 21
23.3350406456
 31
0.0
  0
LINE
  5
123
330
1B
100
AcDbEntity
 67
     1
  8
SLD-0
  6
SLD-鎖線
 62
   179
370
    18
100
AcDbLine
 10
19.8558925243
 20
23.1891025353
 30
0.0
 11
19.5851334691
 21
23.1891025353
 31
0.0
  0
LINE
  5
124
330
1B
100
AcDbEntity
 67
     1
  8
SLD-0
  6
SLD-鎖線
 62
   179
370
    18
100
AcDbLine
 10
19.7130689022
 20
23.034241118
 30
0.0
 11
19.7130689022
 21
23.3350406456
 31
0.0
  0
LINE
  5
125
330
1B
100
AcDbEntity
 67
     1
  8
SLD-0
  6
SLD-実線
 62
   179
370
    18
100
AcDbLine
 10
20.0083444929
 20
23.3000897794
 30
0.0
 11
21.5437775641
 21
23.3000897794
 31
0.0
  0
LINE
  5
126
330
1B
100
AcDbEntity
 67
     1
  8
SLD-0
  6
SLD-実線
 62
   179
370
    18
100
AcDbLine
 10
21.7406279579
 20
23.4969401732
 30
0.0
 11
21.7406279579
 21
26.1368927723
 31
0.0
  0
LINE
  5
127
330
1B
100
AcDbEntity
 67
     1
  8
SLD-0
  6
SLD-鎖線
 62
   179
370
    18
100
AcDbLine
 10
21.8390531547
 20
26.2713711975
 30
0.0
 11
21.8390531547
 21
26.5721707251
 31
0.0
  0
LINE
  5
128
330
1B
100
AcDbEntity
 67
     1
  8
SLD-0
  6
SLD-鎖線
 62
   179
370
    18
100
AcDbLine
 10
21.9818767768
 20
26.4262326149
 30
0.0
 11
21.7111177216
 21
26.4262326149
 31
0.0
  0
LINE
  5
129
330
1B
100
AcDbEntity
 67
     1
  8
SLD-0
  6
SLD-実線
 62
   179
370
    18
100
AcDbLine
 10
21.5437775641
 20
26.333743166
 30
0.0
 11
20.0083444929
 21
26.333743166
 31
0.0
  0
LINE
  5
12A
330
1B
100
AcDbEntity
 67
     1
  8
SLD-0
  6
SLD-実線
 62
   179
370
    18
100
AcDbLine
 10
19.8114940991
 20
23.4969401732
 30
0.0
 11
19.8114940991
 21
26.1368927723
 31
0.0
  0
LINE
  5
12B
330
1B
100
AcDbEntity
 67
     1
  8
SLD-0
  6
SLD-鎖線
 62
   179
370
    18
100
AcDbLine
 10
19.7130689022
 20
26.2713711975
 30
0.0
 11
19.7130689022
 21
26.5721707251
 31
0.0
  0
LINE
  5
12C
330
1B
100
AcDbEntity
 67
     1
  8
SLD-0
  6
SLD-鎖線
 62
   179
370
    18
100
AcDbLine
 10
19.8558925243
 20
26.4262326149
 30
0.0
 11
19.5851334691
 21
26.4262326149
 31
0.0
  0
LINE
  5
12D
330
1B
100
AcDbEntity
 67
     1
  8
SLD-0
  6
SLD-実線
 62
   179
370
    18
100
AcDbLine
 10
21.7878720524
 20
11.7057756033
 30
0.0
 11
20.7760610285
 21
11.7057756033
 31
0.0
  0
LINE
  5
12E
330
1B
100
AcDbEntity
 67
     1
  8
SLD-0
  6
SLD-実線
 62
   179
370
    18
100
AcDbLine
 10
21.7878720524
 20
11.7057756033
 30
0.0
 11
21.7878720524
 21
10.7740981228
 31
0.0
  0
LINE
  5
12F
330
1B
100
AcDbEntity
 67
     1
  8
SLD-0
  6
SLD-実線
 62
   179
370
    18
100
AcDbLine
 10
20.7760610285
 20
11.9748855246
 30
0.0
 11
21.6618878004
 21
11.9748855246
 31
0.0
  0
LINE
  5
130
330
1B
100
AcDbEntity
 67
     1
  8
SLD-0
  6
SLD-実線
 62
   179
370
    18
100
AcDbLine
 10
22.0752736272
 20
11.8981264695
 30
0.0
 11
20.7760610285
 21
11.8981264695
 31
0.0
  0
LINE
  5
131
330
1B
100
AcDbEntity
 67
     1
  8
SLD-0
  6
SLD-実線
 62
   179
370
    18
100
AcDbLine
 10
19.7642500046
 20
11.7057756033
 30
0.0
 11
20.7760610285
 21
11.7057756033
 31
0.0
  0
LINE
  5
132
330
1B
100
AcDbEntity
 67
     1
  8
SLD-0
  6
SLD-実線
 62
   179
370
    18
100
AcDbLine
 10
19.7642500046
 20
11.7057756033
 30
0.0
 11
19.7642500046
 21
10.7740981228
 31
0.0
  0
LINE
  5
133
330
1B
100
AcDbEntity
 67
     1
  8
SLD-0
  6
SLD-実線
 62
   179
370
    18
100
AcDbLine
 10
20.7760610285
 20
11.9748855246
 30
0.0
 11
19.8902342566
 21
11.9748855246
 31
0.0
  0
LINE
  5
134
330
1B
100
AcDbEntity
 67
     1
  8
SLD-0
  6
SLD-実線
 62
   179
370
    18
100
AcDbLine
 10
19.4768484297
 20
11.8981264695
 30
0.0
 11
20.7760610285
 21
11.8981264695
 31
0.0
  0
LINE
  5
135
330
1B
100
AcDbEntity
 67
     1
  8
SLD-0
  6
SLD-鎖線
 62
   179
370
    18
100
AcDbLine
 10
20.0464920519
 20
10.9763088315
 30
0.0
 11
21.4775438633
 21
10.9763088315
 31
0.0
  0
LINE
  5
136
330
1B
100
AcDbEntity
 67
     1
  8
SLD-0
  6
SLD-実線
 62
   179
370
    18
100
AcDbLine
 10
19.9537885873
 20
22.897824425
 30
0.0
 11
19.9537885873
 21
22.3473338737
 31
0.0
  0
LINE
  5
137
330
1B
100
AcDbEntity
 67
     1
  8
SLD-0
  6
SLD-実線
 62
   179
370
    18
100
AcDbLine
 10
19.8127811857
 20
22.897824425
 30
0.0
 11
19.8127811857
 21
22.3473338737
 31
0.0
  0
LINE
  5
138
330
1B
100
AcDbEntity
 67
     1
  8
SLD-0
  6
SLD-実線
 62
   179
370
    18
100
AcDbLine
 10
23.1185807141
 20
25.9186459453
 30
0.0
 11
23.2766876433
 21
25.8273628509
 31
0.0
  0
LINE
  5
139
330
1B
100
AcDbEntity
 67
     1
  8
SLD-0
  6
SLD-実線
 62
   179
370
    18
100
AcDbLine
 10
22.8764178794
 20
25.806070725
 30
0.0
 11
22.7566523676
 21
25.9153855281
 31
0.0
  0
LINE
  5
13A
330
1B
100
AcDbEntity
 67
     1
  8
SLD-0
  6
SLD-実線
 62
   179
370
    18
100
AcDbLine
 10
22.9507802416
 20
25.9152729297
 30
0.0
 11
23.088970638
 21
25.8061833645
 31
0.0
  0
LINE
  5
13B
330
1B
100
AcDbEntity
 67
     1
  8
SLD-0
  6
SLD-実線
 62
   179
370
    18
100
AcDbLine
 10
22.7438233912
 20
25.9444642683
 30
0.0
 11
22.7438233912
 21
25.9693811187
 31
0.0
  0
LINE
  5
13C
330
1B
100
AcDbEntity
 67
     1
  8
SLD-0
  6
SLD-実線
 62
   179
370
    18
100
AcDbLine
 10
22.8339485881
 20
25.9693811187
 30
0.0
 11
22.8339485881
 21
25.844834032
 31
0.0
  0
LINE
  5
13D
330
1B
100
AcDbEntity
 67
     1
  8
SLD-0
  6
SLD-実線
 62
   179
370
    18
100
AcDbLine
 10
22.9358044936
 20
25.946174662
 30
0.0
 11
22.9358044936
 21
25.9693811187
 31
0.0
  0
LINE
  5
13E
330
1B
100
AcDbEntity
 67
     1
  8
SLD-0
  6
SLD-実線
 62
   179
370
    18
100
AcDbLine
 10
23.0394826039
 20
25.9693811187
 30
0.0
 11
23.0429424464
 21
25.8425187565
 31
0.0
  0
LINE
  5
13F
330
1B
100
AcDbEntity
 67
     1
  8
SLD-0
  6
SLD-実線
 62
   179
370
    18
100
AcDbLine
 10
18.3009592956
 20
22.4654441099
 30
0.0
 11
18.0297663821
 21
22.4654441099
 31
0.0
  0
LINE
  5
140
330
1B
100
AcDbEntity
 67
     1
  8
SLD-0
  6
SLD-実線
 62
   179
370
    18
100
AcDbLine
 10
18.2949974058
 20
22.4353886769
 30
0.0
 11
18.2949974058
 21
21.9930031649
 31
0.0
  0
LINE
  5
141
330
1B
100
AcDbEntity
 67
     1
  8
SLD-0
  6
SLD-実線
 62
   179
370
    18
100
AcDbLine
 10
18.0238044924
 20
22.4353886769
 30
0.0
 11
18.0238044924
 21
21.9930031649
 31
0.0
  0
LINE
  5
142
330
1B
100
AcDbEntity
 67
     1
  8
SLD-0
  6
SLD-実線
 62
   179
370
    18
100
AcDbLine
 10
20.067399611
 20
22.3473338737
 30
0.0
 11
18.7171739414
 21
22.3473338737
 31
0.0
  0
LINE
  5
143
330
1B
100
AcDbEntity
 67
     1
  8
SLD-0
  6
SLD-実線
 62
   179
370
    18
100
AcDbLine
 10
18.4435815003
 20
23.4372570236
 30
0.0
 11
18.4294578783
 21
22.9193948187
 31
0.0
  0
LINE
  5
144
330
1B
100
AcDbEntity
 67
     1
  8
SLD-0
  6
SLD-実線
 62
   179
370
    18
100
AcDbLine
 10
18.4335413429
 20
25.9186460006
 30
0.0
 11
18.2754342562
 21
25.8273628509
 31
0.0
  0
LINE
  5
145
330
1B
100
AcDbEntity
 67
     1
  8
SLD-0
  6
SLD-実線
 62
   179
370
    18
100
AcDbLine
 10
18.2557644924
 20
25.7943612761
 30
0.0
 11
18.1677068546
 21
22.6264797005
 31
0.0
  0
LINE
  5
146
330
1B
100
AcDbEntity
 67
     1
  8
SLD-0
  6
SLD-実線
 62
   179
370
    18
100
AcDbLine
 10
18.7171739414
 20
23.2705408031
 30
0.0
 11
18.7171739414
 21
21.9930031649
 31
0.0
  0
LINE
  5
147
330
1B
100
AcDbEntity
 67
     1
  8
SLD-0
  6
SLD-実線
 62
   179
370
    18
100
AcDbLine
 10
18.7171739414
 20
22.9378850549
 30
0.0
 11
18.3150241775
 21
22.4878552911
 31
0.0
  0
LINE
  5
148
330
1B
100
AcDbEntity
 67
     1
  8
SLD-0
  6
SLD-実線
 62
   179
370
    18
100
AcDbLine
 10
18.4294578783
 20
22.9193948187
 30
0.0
 11
18.043831264
 21
22.4878552911
 31
0.0
  0
LINE
  5
149
330
1B
100
AcDbEntity
 67
     1
  8
SLD-0
  6
SLD-実線
 62
   179
370
    18
100
AcDbLine
 10
20.067399611
 20
21.9930031649
 30
0.0
 11
20.067399611
 21
22.897824425
 31
0.0
  0
LINE
  5
14A
330
1B
100
AcDbEntity
 67
     1
  8
SLD-0
  6
SLD-実線
 62
   179
370
    18
100
AcDbLine
 10
18.5126392956
 20
25.9693811187
 30
0.0
 11
18.4294578783
 21
22.9193948187
 31
0.0
  0
LINE
  5
14B
330
1B
100
AcDbEntity
 67
     1
  8
SLD-0
  6
SLD-実線
 62
   179
370
    18
100
AcDbLine
 10
18.4532263822
 20
25.9527414337
 30
0.0
 11
18.4532263822
 21
25.9693811187
 31
0.0
  0
LINE
  5
14C
330
1B
100
AcDbEntity
 67
     1
  8
SLD-0
  6
SLD-実線
 62
   179
370
    18
100
AcDbLine
 10
19.4046153589
 20
22.3473338737
 30
0.0
 11
19.4046153589
 21
23.1759006456
 31
0.0
  0
LINE
  5
14D
330
1B
100
AcDbEntity
 67
     1
  8
SLD-0
  6
SLD-実線
 62
   179
370
    18
100
AcDbLine
 10
19.092701658
 20
26.7195785992
 30
0.0
 11
19.092701658
 21
22.3473338737
 31
0.0
  0
LINE
  5
14E
330
1B
100
AcDbEntity
 67
     1
  8
SLD-0
  6
SLD-実線
 62
   179
370
    18
100
AcDbLine
 10
18.9813462249
 20
26.7113299378
 30
0.0
 11
18.9813462249
 21
22.3473338737
 31
0.0
  0
LINE
  5
14F
330
1B
100
AcDbEntity
 67
     1
  8
SLD-0
  6
SLD-実線
 62
   179
370
    18
100
AcDbLine
 10
19.2459013431
 20
26.7309266307
 30
0.0
 11
19.2459013431
 21
22.3473338737
 31
0.0
  0
LINE
  5
150
330
1B
100
AcDbEntity
 67
     1
  8
SLD-0
  6
SLD-実線
 62
   179
370
    18
100
AcDbLine
 10
19.587046225
 20
22.3473338737
 30
0.0
 11
19.587046225
 21
22.9456693069
 31
0.0
  0
LINE
  5
151
330
1B
100
AcDbEntity
 67
     1
  8
SLD-0
  6
SLD-実線
 62
   179
370
    18
100
AcDbLine
 10
23.1776358322
 20
22.1504834799
 30
0.0
 11
23.3738493756
 21
22.263767417
 31
0.0
  0
LINE
  5
152
330
1B
100
AcDbEntity
 67
     1
  8
SLD-0
  6
SLD-実線
 62
   179
370
    18
100
AcDbLine
 10
21.484722446
 20
22.3473338737
 30
0.0
 11
23.1776358322
 21
22.3473338737
 31
0.0
  0
LINE
  5
153
330
1B
100
AcDbEntity
 67
     1
  8
SLD-0
  6
SLD-実線
 62
   179
370
    18
100
AcDbLine
 10
23.0394826039
 20
25.9693811187
 30
0.0
 11
23.0429424464
 21
25.8425187565
 31
0.0
  0
LINE
  5
154
330
1B
100
AcDbEntity
 67
     1
  8
SLD-0
  6
SLD-実線
 62
   179
370
    18
100
AcDbLine
 10
23.2963575646
 20
25.7943612761
 30
0.0
 11
23.3935191394
 21
22.2989568658
 31
0.0
  0
LINE
  5
155
330
1B
100
AcDbEntity
 67
     1
  8
SLD-0
  6
SLD-実線
 62
   179
370
    18
100
AcDbLine
 10
23.5283174071
 20
22.4654441099
 30
0.0
 11
23.5283174071
 21
21.9930031649
 31
0.0
  0
LINE
  5
156
330
1B
100
AcDbEntity
 67
     1
  8
SLD-0
  6
SLD-実線
 62
   179
370
    18
100
AcDbLine
 10
23.5283174071
 20
22.4654441099
 30
0.0
 11
23.3842326827
 21
22.6330430076
 31
0.0
  0
LINE
  5
157
330
1B
100
AcDbEntity
 67
     1
  8
SLD-0
  6
SLD-実線
 62
   179
370
    18
100
AcDbLine
 10
21.484722446
 20
21.9930031649
 30
0.0
 11
21.484722446
 21
22.897824425
 31
0.0
  0
LINE
  5
158
330
1B
100
AcDbEntity
 67
     1
  8
SLD-0
  6
SLD-実線
 62
   179
370
    18
100
AcDbLine
 10
23.1185807141
 20
25.9186459453
 30
0.0
 11
23.2766876433
 21
25.8273628509
 31
0.0
  0
LINE
  5
159
330
1B
100
AcDbEntity
 67
     1
  8
SLD-0
  6
SLD-実線
 62
   179
370
    18
100
AcDbLine
 10
21.9650758319
 20
22.3473338737
 30
0.0
 11
21.9650758319
 21
22.9456693069
 31
0.0
  0
LINE
  5
15A
330
1B
100
AcDbEntity
 67
     1
  8
SLD-0
  6
SLD-実線
 62
   179
370
    18
100
AcDbLine
 10
22.1475065406
 20
22.3473338737
 30
0.0
 11
22.1475065406
 21
23.1759006456
 31
0.0
  0
LINE
  5
15B
330
1B
100
AcDbEntity
 67
     1
  8
SLD-0
  6
SLD-実線
 62
   179
370
    18
100
AcDbLine
 10
21.7393407138
 20
22.897824425
 30
0.0
 11
21.7393407138
 21
22.3473338737
 31
0.0
  0
LINE
  5
15C
330
1B
100
AcDbEntity
 67
     1
  8
SLD-0
  6
SLD-実線
 62
   179
370
    18
100
AcDbLine
 10
21.5983333122
 20
22.897824425
 30
0.0
 11
21.5983333122
 21
22.3473338737
 31
0.0
  0
LINE
  5
15D
330
1B
100
AcDbEntity
 67
     1
  8
SLD-0
  6
SLD-実線
 62
   179
370
    18
100
AcDbLine
 10
22.5707756746
 20
26.7113299378
 30
0.0
 11
22.5707756746
 21
22.3473338737
 31
0.0
  0
LINE
  5
15E
330
1B
100
AcDbEntity
 67
     1
  8
SLD-0
  6
SLD-実線
 62
   179
370
    18
100
AcDbLine
 10
22.4594202415
 20
26.7195785992
 30
0.0
 11
22.4594202415
 21
22.3473338737
 31
0.0
  0
LINE
  5
15F
330
1B
100
AcDbEntity
 67
     1
  8
SLD-0
  6
SLD-実線
 62
   179
370
    18
100
AcDbLine
 10
22.3062205564
 20
26.7309266307
 30
0.0
 11
22.3062205564
 21
22.3473338737
 31
0.0
  0
LINE
  5
160
330
1B
100
AcDbEntity
 67
     1
  8
SLD-0
  6
SLD-実線
 62
   179
370
    18
100
AcDbLine
 10
22.8892466983
 20
25.7769919848
 30
0.0
 11
22.8892466983
 21
22.3473338737
 31
0.0
  0
LINE
  5
161
330
1B
100
AcDbEntity
 67
     1
  8
SLD-0
  6
SLD-実線
 62
   179
370
    18
100
AcDbLine
 10
22.6363848085
 20
25.9693811187
 30
0.0
 11
22.6363848085
 21
22.3473338737
 31
0.0
  0
LINE
  5
162
330
1B
100
AcDbEntity
 67
     1
  8
SLD-0
  6
SLD-実線
 62
   179
370
    18
100
AcDbLine
 10
22.7438233912
 20
25.9444642683
 30
0.0
 11
22.7438233912
 21
25.9693811187
 31
0.0
  0
LINE
  5
163
330
1B
100
AcDbEntity
 67
     1
  8
SLD-0
  6
SLD-実線
 62
   179
370
    18
100
AcDbLine
 10
23.1039463834
 20
22.3473338737
 30
0.0
 11
23.1039463834
 21
25.7752815911
 31
0.0
  0
LINE
  5
164
330
1B
100
AcDbEntity
 67
     1
  8
SLD-0
  6
SLD-実線
 62
   179
370
    18
100
AcDbLine
 10
22.8339485881
 20
25.9693811187
 30
0.0
 11
22.8339485881
 21
25.844834032
 31
0.0
  0
LINE
  5
165
330
1B
100
AcDbEntity
 67
     1
  8
SLD-0
  6
SLD-実線
 62
   179
370
    18
100
AcDbLine
 10
22.9358044936
 20
25.946174662
 30
0.0
 11
22.9358044936
 21
25.9693811187
 31
0.0
  0
LINE
  5
166
330
1B
100
AcDbEntity
 67
     1
  8
SLD-0
  6
SLD-実線
 62
   179
370
    18
100
AcDbLine
 10
22.9507802416
 20
25.9152729297
 30
0.0
 11
23.088970638
 21
25.8061833645
 31
0.0
  0
LINE
  5
167
330
1B
100
AcDbEntity
 67
     1
  8
SLD-0
  6
SLD-実線
 62
   179
370
    18
100
AcDbLine
 10
22.8764178794
 20
25.806070725
 30
0.0
 11
22.7566523676
 21
25.9153855281
 31
0.0
  0
LINE
  5
168
330
1B
100
AcDbEntity
 67
     1
  8
SLD-0
  6
SLD-実線
 62
   179
370
    18
100
AcDbLine
 10
23.1776358322
 20
22.3473338737
 30
0.0
 11
23.1776358322
 21
21.9930031649
 31
0.0
  0
LINE
  5
169
330
1B
100
AcDbEntity
 67
     1
  8
SLD-0
  6
SLD-鎖線
 62
   179
370
    18
100
AcDbLine
 10
20.7760610285
 20
10.0668176502
 30
0.0
 11
20.7760610285
 21
27.2616938749
 31
0.0
  0
LINE
  5
16A
330
1B
100
AcDbEntity
 67
     1
  8
1
  6
SLD-実線
 62
   179
370
    18
100
AcDbLine
 10
19.3902342565
 20
23.2797141889
 30
0.0
 11
19.3902342565
 21
26.3541187566
 31
0.0
  0
LINE
  5
16B
330
1B
100
AcDbEntity
 67
     1
  8
1
  6
SLD-実線
 62
   179
370
    18
100
AcDbLine
 10
19.7721240204
 20
22.897824425
 30
0.0
 11
21.7799980366
 21
22.897824425
 31
0.0
  0
LINE
  5
16C
330
1B
100
AcDbEntity
 67
     1
  8
1
  6
SLD-実線
 62
   179
370
    18
100
AcDbLine
 10
22.1618878005
 20
23.2797141889
 30
0.0
 11
22.1618878005
 21
26.3541187566
 31
0.0
  0
LINE
  5
16D
330
1B
100
AcDbEntity
 67
     1
  8
1
  6
SLD-実線
 62
   179
370
    18
100
AcDbLine
 10
19.7721240204
 20
26.7360085205
 30
0.0
 11
21.7799980366
 21
26.7360085205
 31
0.0
  0
LINE
  5
16E
330
1B
100
AcDbEntity
 67
     1
  8
SLD-0
  6
SLD-鎖線
 62
   179
370
    18
100
AcDbLine
 10
22.7209766195
 20
22.5414025352
 30
0.0
 11
22.7209766195
 21
22.8645626927
 31
0.0
  0
LINE
  5
16F
330
1B
100
AcDbEntity
 67
     1
  8
SLD-0
  6
SLD-鎖線
 62
   179
370
    18
100
AcDbLine
 10
22.8468655959
 20
22.7016645824
 30
0.0
 11
22.4906715801
 21
22.7016645824
 31
0.0
  0
LINE
  5
170
330
1B
100
AcDbEntity
 67
     1
  8
SLD-0
  6
SLD-鎖線
 62
   179
370
    18
100
AcDbLine
 10
24.2833270136
 20
7.742602059
 30
0.0
 11
16.0988788226
 21
7.742602059
 31
0.0
  0
LINE
  5
171
330
1B
100
AcDbEntity
 67
     1
  8
SLD-0
  6
SLD-鎖線
 62
   179
370
    18
100
AcDbLine
 10
20.7760610285
 20
13.0571522966
 30
0.0
 11
20.7760610285
 21
4.3411077275
 31
0.0
  0
LINE
  5
172
330
1B
100
AcDbEntity
 67
     1
  8
SLD-0
  6
SLD-鎖線
 62
   179
370
    18
100
AcDbLine
 10
22.4885062258
 20
5.3856234758
 30
0.0
 11
22.2570947296
 21
5.704134027
 31
0.0
  0
LINE
  5
173
330
1B
100
AcDbEntity
 67
     1
  8
SLD-0
  6
SLD-鎖線
 62
   179
370
    18
100
AcDbLine
 10
23.5468555174
 20
8.6428877285
 30
0.0
 11
23.1724238637
 21
8.521227571
 31
0.0
  0
LINE
  5
174
330
1B
100
AcDbEntity
 67
     1
  8
SLD-0
  6
SLD-鎖線
 62
   179
370
    18
100
AcDbLine
 10
18.0052663821
 20
8.6428877285
 30
0.0
 11
18.3796980358
 21
8.521227571
 31
0.0
  0
LINE
  5
175
330
1B
100
AcDbEntity
 67
     1
  8
SLD-0
  6
SLD-鎖線
 62
   179
370
    18
100
AcDbLine
 10
19.0636158312
 20
5.3856234758
 30
0.0
 11
19.2950273273
 21
5.704134027
 31
0.0
  0
LINE
  5
176
330
1B
100
AcDbEntity
 67
     1
  8
SLD-0
  6
SLD-実線
 62
   179
370
    18
100
AcDbLine
 10
17.7445649647
 20
7.742602059
 30
0.0
 11
17.7445649647
 21
5.833254657
 31
0.0
  0
LINE
  5
177
330
1B
100
AcDbEntity
 67
     1
  8
SLD-0
  6
SLD-実線
 62
   179
370
    18
100
AcDbLine
 10
18.8667136264
 20
4.7111059953
 30
0.0
 11
20.7760610285
 21
4.7111059953
 31
0.0
  0
LINE
  5
178
330
1B
100
AcDbEntity
 67
     1
  8
SLD-0
  6
SLD-鎖線
 62
   179
370
    18
100
AcDbLine
 10
23.252189533
 20
10.2187307211
 30
0.0
 11
22.6942909502
 21
9.6608319808
 31
0.0
  0
LINE
  5
179
330
1B
100
AcDbEntity
 67
     1
  8
SLD-0
  6
SLD-鎖線
 62
   179
370
    18
100
AcDbLine
 10
23.252189533
 20
5.2664735545
 30
0.0
 11
22.6942909502
 21
5.8243721373
 31
0.0
  0
LINE
  5
17A
330
1B
100
AcDbEntity
 67
     1
  8
SLD-0
  6
SLD-実線
 62
   179
370
    18
100
AcDbLine
 10
19.4965334691
 20
4.907956389
 30
0.0
 11
19.4965334691
 21
4.7111059953
 31
0.0
  0
LINE
  5
17B
330
1B
100
AcDbEntity
 67
     1
  8
SLD-0
  6
SLD-実線
 62
   179
370
    18
100
AcDbLine
 10
18.9244112642
 20
4.907956389
 30
0.0
 11
19.4965334691
 21
4.907956389
 31
0.0
  0
LINE
  5
17C
330
1B
100
AcDbEntity
 67
     1
  8
SLD-0
  6
SLD-実線
 62
   179
370
    18
100
AcDbLine
 10
17.9414153451
 20
5.8909523128
 30
0.0
 11
17.9414153585
 21
6.4630744996
 31
0.0
  0
LINE
  5
17D
330
1B
100
AcDbEntity
 67
     1
  8
SLD-0
  6
SLD-実線
 62
   179
370
    18
100
AcDbLine
 10
17.9414153585
 20
6.4630744996
 30
0.0
 11
17.7445649647
 21
6.4630744996
 31
0.0
  0
LINE
  5
17E
330
1B
100
AcDbEntity
 67
     1
  8
SLD-0
  6
SLD-実線
 62
   179
370
    18
100
AcDbLine
 10
23.6107067119
 20
5.8909523128
 30
0.0
 11
23.6107066985
 21
6.4630744996
 31
0.0
  0
LINE
  5
17F
330
1B
100
AcDbEntity
 67
     1
  8
SLD-0
  6
SLD-実線
 62
   179
370
    18
100
AcDbLine
 10
23.6107066985
 20
6.4630744996
 30
0.0
 11
23.8075570922
 21
6.4630744996
 31
0.0
  0
LINE
  5
180
330
1B
100
AcDbEntity
 67
     1
  8
SLD-0
  6
SLD-実線
 62
   179
370
    18
100
AcDbLine
 10
23.8075570922
 20
5.833254657
 30
0.0
 11
23.8075570922
 21
7.742602059
 31
0.0
  0
LINE
  5
181
330
1B
100
AcDbEntity
 67
     1
  8
SLD-0
  6
SLD-実線
 62
   179
370
    18
100
AcDbLine
 10
22.6277107747
 20
4.9079563756
 30
0.0
 11
22.0555885879
 21
4.907956389
 31
0.0
  0
LINE
  5
182
330
1B
100
AcDbEntity
 67
     1
  8
SLD-0
  6
SLD-実線
 62
   179
370
    18
100
AcDbLine
 10
20.7760610285
 20
4.7111059953
 30
0.0
 11
22.6854082731
 21
4.7111059953
 31
0.0
  0
LINE
  5
183
330
1B
100
AcDbEntity
 67
     1
  8
SLD-0
  6
SLD-実線
 62
   179
370
    18
100
AcDbLine
 10
22.0555885879
 20
4.907956389
 30
0.0
 11
22.0555885879
 21
4.7111059953
 31
0.0
  0
LINE
  5
184
330
1B
100
AcDbEntity
 67
     1
  8
SLD-0
  6
SLD-実線
 62
   179
370
    18
100
AcDbLine
 10
22.6277107747
 20
10.5772477425
 30
0.0
 11
22.0555885879
 21
10.577247729
 31
0.0
  0
LINE
  5
185
330
1B
100
AcDbEntity
 67
     1
  8
SLD-0
  6
SLD-実線
 62
   179
370
    18
100
AcDbLine
 10
22.0555885879
 20
10.577247729
 30
0.0
 11
22.0555885879
 21
10.7740981228
 31
0.0
  0
LINE
  5
186
330
1B
100
AcDbEntity
 67
     1
  8
SLD-0
  6
SLD-実線
 62
   179
370
    18
100
AcDbLine
 10
22.6854082731
 20
10.7740981228
 30
0.0
 11
20.7760610285
 21
10.7740981228
 31
0.0
  0
LINE
  5
187
330
1B
100
AcDbEntity
 67
     1
  8
SLD-0
  6
SLD-実線
 62
   179
370
    18
100
AcDbLine
 10
23.6107067119
 20
9.5942518053
 30
0.0
 11
23.6107066985
 21
9.0221296184
 31
0.0
  0
LINE
  5
188
330
1B
100
AcDbEntity
 67
     1
  8
SLD-0
  6
SLD-実線
 62
   179
370
    18
100
AcDbLine
 10
23.8075570922
 20
7.742602059
 30
0.0
 11
23.8075570922
 21
9.6519494327
 31
0.0
  0
LINE
  5
189
330
1B
100
AcDbEntity
 67
     1
  8
SLD-0
  6
SLD-実線
 62
   179
370
    18
100
AcDbLine
 10
23.6107066985
 20
9.0221296184
 30
0.0
 11
23.8075570922
 21
9.0221296184
 31
0.0
  0
LINE
  5
18A
330
1B
100
AcDbEntity
 67
     1
  8
SLD-0
  6
SLD-実線
 62
   179
370
    18
100
AcDbLine
 10
17.9414153451
 20
9.5942518053
 30
0.0
 11
17.9414153585
 21
9.0221296184
 31
0.0
  0
LINE
  5
18B
330
1B
100
AcDbEntity
 67
     1
  8
SLD-0
  6
SLD-実線
 62
   179
370
    18
100
AcDbLine
 10
17.9414153585
 20
9.0221296184
 30
0.0
 11
17.7445649647
 21
9.0221296184
 31
0.0
  0
LINE
  5
18C
330
1B
100
AcDbEntity
 67
     1
  8
SLD-0
  6
SLD-実線
 62
   179
370
    18
100
AcDbLine
 10
17.7445649647
 20
9.6519494611
 30
0.0
 11
17.7445649647
 21
7.742602059
 31
0.0
  0
LINE
  5
18D
330
1B
100
AcDbEntity
 67
     1
  8
SLD-0
  6
SLD-実線
 62
   179
370
    18
100
AcDbLine
 10
18.9244112822
 20
10.5772477425
 30
0.0
 11
19.4965334691
 21
10.577247729
 31
0.0
  0
LINE
  5
18E
330
1B
100
AcDbEntity
 67
     1
  8
SLD-0
  6
SLD-実線
 62
   179
370
    18
100
AcDbLine
 10
20.7760610285
 20
10.7740981228
 30
0.0
 11
18.8667136548
 21
10.7740981228
 31
0.0
  0
LINE
  5
18F
330
1B
100
AcDbEntity
 67
     1
  8
SLD-0
  6
SLD-実線
 62
   179
370
    18
100
AcDbLine
 10
19.4965334691
 20
10.577247729
 30
0.0
 11
19.4965334691
 21
10.7740981228
 31
0.0
  0
LINE
  5
190
330
1B
100
AcDbEntity
 67
     1
  8
SLD-0
  6
SLD-破線
 62
   179
370
    18
100
AcDbLine
 10
23.0988956747
 20
8.1559878859
 30
0.0
 11
23.7288169347
 21
8.1559878859
 31
0.0
  0
LINE
  5
191
330
1B
100
AcDbEntity
 67
     1
  8
SLD-0
  6
SLD-破線
 62
   179
370
    18
100
AcDbLine
 10
23.0988956747
 20
8.1093343426
 30
0.0
 11
23.7288169347
 21
8.1093343426
 31
0.0
  0
LINE
  5
192
330
1B
100
AcDbEntity
 67
     1
  8
SLD-0
  6
SLD-実線
 62
   179
370
    18
100
AcDbLine
 10
17.7445649647
 20
18.2134756049
 30
0.0
 11
22.0555885879
 21
18.2134756049
 31
0.0
  0
LINE
  5
193
330
1B
100
AcDbEntity
 67
     1
  8
SLD-0
  6
SLD-実線
 62
   179
370
    18
100
AcDbLine
 10
17.7445649647
 20
18.7252866287
 30
0.0
 11
17.7445649647
 21
18.2134756049
 31
0.0
  0
LINE
  5
194
330
1B
100
AcDbEntity
 67
     1
  8
SLD-0
  6
SLD-実線
 62
   179
370
    18
100
AcDbLine
 10
23.8075570922
 20
18.7252866287
 30
0.0
 11
23.8075570922
 21
18.2134756049
 31
0.0
  0
LINE
  5
195
330
1B
100
AcDbEntity
 67
     1
  8
SLD-0
  6
SLD-実線
 62
   179
370
    18
100
AcDbLine
 10
17.7445649647
 20
18.7252866287
 30
0.0
 11
23.8075570922
 21
18.7252866287
 31
0.0
  0
LINE
  5
196
330
1B
100
AcDbEntity
 67
     1
  8
SLD-0
  6
SLD-実線
 62
   179
370
    18
100
AcDbLine
 10
18.3744862247
 20
21.9930031649
 30
0.0
 11
23.1776358322
 21
21.9930031649
 31
0.0
  0
LINE
  5
197
330
1B
100
AcDbEntity
 67
     1
  8
SLD-0
  6
SLD-実線
 62
   179
370
    18
100
AcDbLine
 10
23.1776358322
 20
22.0717433224
 30
0.0
 11
23.1776358322
 21
21.9930031649
 31
0.0
  0
LINE
  5
198
330
1B
100
AcDbEntity
 67
     1
  8
SLD-0
  6
SLD-実線
 62
   179
370
    18
100
AcDbLine
 10
23.2155829189
 20
21.7961527712
 30
0.0
 11
23.7288169347
 21
21.7961527712
 31
0.0
  0
LINE
  5
199
330
1B
100
AcDbEntity
 67
     1
  8
SLD-0
  6
SLD-実線
 62
   179
370
    18
100
AcDbLine
 10
23.1852251236
 20
21.9536330862
 30
0.0
 11
23.5283174071
 21
21.9536330862
 31
0.0
  0
LINE
  5
19A
330
1B
100
AcDbEntity
 67
     1
  8
SLD-0
  6
SLD-実線
 62
   179
370
    18
100
AcDbLine
 10
18.7171739414
 20
21.9536330862
 30
0.0
 11
18.0240925239
 21
21.9536330862
 31
0.0
  0
LINE
  5
19B
330
1B
100
AcDbEntity
 67
     1
  8
SLD-0
  6
SLD-実線
 62
   179
370
    18
100
AcDbLine
 10
22.6854082731
 20
18.2134756049
 30
0.0
 11
22.6854082731
 21
18.7252866287
 31
0.0
  0
LINE
  5
19C
330
1B
100
AcDbEntity
 67
     1
  8
SLD-0
  6
SLD-実線
 62
   179
370
    18
100
AcDbLine
 10
18.8667136264
 20
18.2134756049
 30
0.0
 11
18.8667136264
 21
18.7252866287
 31
0.0
  0
LINE
  5
19D
330
1B
100
AcDbEntity
 67
     1
  8
SLD-0
  6
SLD-鎖線
 62
   179
370
    18
100
AcDbLine
 10
17.5194325237
 20
20.6937905662
 30
0.0
 11
18.6618333114
 21
20.6937905662
 31
0.0
  0
LINE
  5
19E
330
1B
100
AcDbEntity
 67
     1
  8
SLD-0
  6
SLD-破線
 62
   179
370
    18
100
AcDbLine
 10
23.0988956747
 20
20.2804047393
 30
0.0
 11
23.7288169347
 21
20.2804047393
 31
0.0
  0
LINE
  5
19F
330
1B
100
AcDbEntity
 67
     1
  8
SLD-0
  6
SLD-破線
 62
   179
370
    18
100
AcDbLine
 10
23.0988956747
 20
20.3270582826
 30
0.0
 11
23.7288169347
 21
20.3270582826
 31
0.0
  0
LINE
  5
1A0
330
1B
100
AcDbEntity
 67
     1
  8
SLD-0
  6
SLD-破線
 62
   179
370
    18
100
AcDbLine
 10
23.0988956747
 20
21.0605228498
 30
0.0
 11
23.7288169347
 21
21.0605228498
 31
0.0
  0
LINE
  5
1A1
330
1B
100
AcDbEntity
 67
     1
  8
SLD-0
  6
SLD-破線
 62
   179
370
    18
100
AcDbLine
 10
23.0988956747
 20
21.1071763931
 30
0.0
 11
23.7288169347
 21
21.1071763931
 31
0.0
  0
LINE
  5
1A2
330
1B
100
AcDbEntity
 67
     1
  8
SLD-0
  6
SLD-破線
 62
   179
370
    18
100
AcDbLine
 10
18.4532263822
 20
21.0605228498
 30
0.0
 11
17.8233051222
 21
21.0605228498
 31
0.0
  0
LINE
  5
1A3
330
1B
100
AcDbEntity
 67
     1
  8
SLD-0
  6
SLD-破線
 62
   179
370
    18
100
AcDbLine
 10
18.4532263822
 20
21.1071763931
 30
0.0
 11
17.8233051222
 21
21.1071763931
 31
0.0
  0
LINE
  5
1A4
330
1B
100
AcDbEntity
 67
     1
  8
SLD-0
  6
SLD-破線
 62
   179
370
    18
100
AcDbLine
 10
18.4532263822
 20
20.2804047393
 30
0.0
 11
17.8233051222
 21
20.2804047393
 31
0.0
  0
LINE
  5
1A5
330
1B
100
AcDbEntity
 67
     1
  8
SLD-0
  6
SLD-破線
 62
   179
370
    18
100
AcDbLine
 10
18.4532263822
 20
20.3270582826
 30
0.0
 11
17.8233051222
 21
20.3270582826
 31
0.0
  0
LINE
  5
1A6
330
1B
100
AcDbEntity
 67
     1
  8
SLD-0
  6
SLD-実線
 62
   179
370
    18
100
AcDbLine
 10
18.0240925239
 20
21.7961527712
 30
0.0
 11
17.8233051222
 21
21.7961527712
 31
0.0
  0
LINE
  5
1A7
330
1B
100
AcDbEntity
 67
     1
  8
SLD-0
  6
SLD-実線
 62
   179
370
    18
100
AcDbLine
 10
23.7288169347
 20
21.7961527712
 30
0.0
 11
23.7288169347
 21
18.7252866287
 31
0.0
  0
LINE
  5
1A8
330
1B
100
AcDbEntity
 67
     1
  8
SLD-0
  6
SLD-実線
 62
   179
370
    18
100
AcDbLine
 10
17.8233051222
 20
21.7961527712
 30
0.0
 11
17.8233051222
 21
18.7252866287
 31
0.0
  0
LINE
  5
1A9
330
1B
100
AcDbEntity
 67
     1
  8
SLD-0
  6
SLD-破線
 62
   179
370
    18
100
AcDbLine
 10
23.6500767772
 20
8.530003634
 30
0.0
 11
23.6107066985
 21
8.530003634
 31
0.0
  0
LINE
  5
1AA
330
1B
100
AcDbEntity
 67
     1
  8
SLD-0
  6
SLD-破線
 62
   179
370
    18
100
AcDbLine
 10
23.7288169347
 20
8.4512634765
 30
0.0
 11
23.7288169347
 21
7.742602059
 31
0.0
  0
LINE
  5
1AB
330
1B
100
AcDbEntity
 67
     1
  8
SLD-0
  6
SLD-破線
 62
   179
370
    18
100
AcDbLine
 10
23.0988956747
 20
7.3758697755
 30
0.0
 11
23.7288169347
 21
7.3758697755
 31
0.0
  0
LINE
  5
1AC
330
1B
100
AcDbEntity
 67
     1
  8
SLD-0
  6
SLD-破線
 62
   179
370
    18
100
AcDbLine
 10
23.0988956747
 20
7.3292162321
 30
0.0
 11
23.7288169347
 21
7.3292162321
 31
0.0
  0
LINE
  5
1AD
330
1B
100
AcDbEntity
 67
     1
  8
SLD-0
  6
SLD-破線
 62
   179
370
    18
100
AcDbLine
 10
23.6500767772
 20
6.955200484
 30
0.0
 11
23.6107066985
 21
6.955200484
 31
0.0
  0
LINE
  5
1AE
330
1B
100
AcDbEntity
 67
     1
  8
SLD-0
  6
SLD-破線
 62
   179
370
    18
100
AcDbLine
 10
23.7288169347
 20
7.0339406415
 30
0.0
 11
23.7288169347
 21
7.742602059
 31
0.0
  0
LINE
  5
1AF
330
1B
100
AcDbEntity
 67
     1
  8
SLD-0
  6
SLD-破線
 62
   179
370
    18
100
AcDbLine
 10
18.4532263822
 20
8.1093343426
 30
0.0
 11
17.8233051222
 21
8.1093343426
 31
0.0
  0
LINE
  5
1B0
330
1B
100
AcDbEntity
 67
     1
  8
SLD-0
  6
SLD-破線
 62
   179
370
    18
100
AcDbLine
 10
18.4532263822
 20
8.1559878859
 30
0.0
 11
17.8233051222
 21
8.1559878859
 31
0.0
  0
LINE
  5
1B1
330
1B
100
AcDbEntity
 67
     1
  8
SLD-0
  6
SLD-破線
 62
   179
370
    18
100
AcDbLine
 10
18.4532263822
 20
7.3758697755
 30
0.0
 11
17.8233051222
 21
7.3758697755
 31
0.0
  0
LINE
  5
1B2
330
1B
100
AcDbEntity
 67
     1
  8
SLD-0
  6
SLD-破線
 62
   179
370
    18
100
AcDbLine
 10
18.4532263822
 20
7.3292162321
 30
0.0
 11
17.8233051222
 21
7.3292162321
 31
0.0
  0
LINE
  5
1B3
330
1B
100
AcDbEntity
 67
     1
  8
SLD-0
  6
SLD-破線
 62
   179
370
    18
100
AcDbLine
 10
17.9020452797
 20
6.955200484
 30
0.0
 11
17.9414153585
 21
6.955200484
 31
0.0
  0
LINE
  5
1B4
330
1B
100
AcDbEntity
 67
     1
  8
SLD-0
  6
SLD-破線
 62
   179
370
    18
100
AcDbLine
 10
17.8233051222
 20
7.0339406415
 30
0.0
 11
17.8233051222
 21
7.742602059
 31
0.0
  0
LINE
  5
1B5
330
1B
100
AcDbEntity
 67
     1
  8
SLD-0
  6
SLD-破線
 62
   179
370
    18
100
AcDbLine
 10
17.8233051222
 20
8.4512634765
 30
0.0
 11
17.8233051222
 21
7.742602059
 31
0.0
  0
LINE
  5
1B6
330
1B
100
AcDbEntity
 67
     1
  8
SLD-0
  6
SLD-破線
 62
   179
370
    18
100
AcDbLine
 10
17.9020452797
 20
8.530003634
 30
0.0
 11
17.9414153585
 21
8.530003634
 31
0.0
  0
LINE
  5
1B7
330
1B
100
AcDbEntity
 67
     1
  8
SLD-0
  6
SLD-実線
 62
   179
370
    18
100
AcDbLine
 10
18.3744862247
 20
21.9930031649
 30
0.0
 11
18.3678454373
 21
21.9536330862
 31
0.0
  0
LINE
  5
1B8
330
1B
100
AcDbEntity
 67
     1
  8
SLD-0
  6
SLD-実線
 62
   179
370
    18
100
AcDbLine
 10
22.0555885879
 20
18.2134756049
 30
0.0
 11
23.8075570922
 21
18.2134756049
 31
0.0
  0
LINE
  5
1B9
330
1B
100
AcDbEntity
 67
     1
  8
SLD-0
  6
SLD-実線
 62
   179
370
    18
100
AcDbLine
 10
18.2957460672
 20
21.9536330862
 30
0.0
 11
18.2957460672
 21
19.1097252115
 31
0.0
  0
LINE
  5
1BA
330
1B
100
AcDbEntity
 67
     1
  8
SLD-0
  6
SLD-実線
 62
   179
370
    18
100
AcDbLine
 10
18.0240925239
 20
21.9536330862
 30
0.0
 11
18.0240925239
 21
18.7252866287
 31
0.0
  0
LINE
  5
1BB
330
1B
100
AcDbEntity
 67
     1
  8
SLD-0
  6
SLD-実線
 62
   179
370
    18
100
AcDbLine
 10
23.1776358322
 20
22.3473338737
 30
0.0
 11
23.1776358322
 21
21.9930031649
 31
0.0
  0
LINE
  5
1BC
330
1B
100
AcDbEntity
 67
     1
  8
SLD-0
  6
SLD-実線
 62
   179
370
    18
100
AcDbLine
 10
23.5283174071
 20
22.4654441099
 30
0.0
 11
23.5283174071
 21
21.9930031649
 31
0.0
  0
LINE
  5
1BD
330
1B
100
AcDbEntity
 67
     1
  8
SLD-0
  6
SLD-実線
 62
   179
370
    18
100
AcDbLine
 10
23.5283174071
 20
22.4654441099
 30
0.0
 11
23.3842326827
 21
22.6330430076
 31
0.0
  0
LINE
  5
1BE
330
1B
100
AcDbEntity
 67
     1
  8
SLD-0
  6
SLD-実線
 62
   179
370
    18
100
AcDbLine
 10
20.7760610285
 20
21.9930031649
 30
0.0
 11
18.0238044924
 21
21.9930031649
 31
0.0
  0
LINE
  5
1BF
330
1B
100
AcDbEntity
 67
     1
  8
SLD-0
  6
SLD-実線
 62
   179
370
    18
100
AcDbLine
 10
23.1776358322
 20
22.1504834799
 30
0.0
 11
23.3738493756
 21
22.263767417
 31
0.0
  0
LINE
  5
1C0
330
1B
100
AcDbEntity
 67
     1
  8
SLD-0
  6
SLD-実線
 62
   179
370
    18
100
AcDbLine
 10
18.492596461
 20
21.9930031649
 30
0.0
 11
18.3744862247
 21
21.9930031649
 31
0.0
  0
LINE
  5
1C1
330
1B
100
AcDbEntity
 67
     1
  8
SLD-0
  6
SLD-実線
 62
   179
370
    18
100
AcDbLine
 10
20.7760610285
 20
21.9930031649
 30
0.0
 11
23.5283174071
 21
21.9930031649
 31
0.0
  0
LINE
  5
1C2
330
1B
100
AcDbEntity
 67
     1
  8
SLD-0
  6
SLD-実線
 62
   179
370
    18
100
AcDbLine
 10
23.5283174071
 20
21.9536330862
 30
0.0
 11
23.5283174071
 21
21.7961527712
 31
0.0
  0
LINE
  5
1C3
330
1B
100
AcDbEntity
 67
     1
  8
SLD-0
  6
SLD-実線
 62
   179
370
    18
100
AcDbLine
 10
22.8218744148
 20
19.9821008022
 30
0.0
 11
22.8004033912
 21
19.9821008022
 31
0.0
  0
LINE
  5
1C4
330
1B
100
AcDbEntity
 67
     1
  8
SLD-0
  6
SLD-実線
 62
   179
370
    18
100
AcDbLine
 10
18.7302476422
 20
19.9821008022
 30
0.0
 11
18.7517185083
 21
19.9821008022
 31
0.0
  0
LINE
  5
1C5
330
1B
100
AcDbEntity
 67
     1
  8
SLD-0
  6
SLD-実線
 62
   179
370
    18
100
AcDbLine
 10
23.1776358322
 20
21.9930031649
 30
0.0
 11
23.689446856
 21
18.7252866287
 31
0.0
  0
LINE
  5
1C6
330
1B
100
AcDbEntity
 67
     1
  8
SLD-0
  6
SLD-実線
 62
   179
370
    18
100
AcDbLine
 10
18.7171739414
 20
21.9536330862
 30
0.0
 11
18.2387775633
 21
18.7252866287
 31
0.0
  0
LINE
  5
1C7
330
1B
100
AcDbEntity
 67
     1
  8
SLD-0
  6
SLD-実線
 62
   179
370
    18
100
AcDbLine
 10
18.0240925239
 20
19.755874188
 30
0.0
 11
17.862675201
 21
18.7252866287
 31
0.0
  0
LINE
  5
1C8
330
1B
100
AcDbEntity
 67
     1
  8
SLD-0
  6
SLD-鎖線
 62
   179
370
    18
100
AcDbLine
 10
18.8578309493
 20
9.6608319808
 30
0.0
 11
18.2999323665
 21
10.2187307211
 31
0.0
  0
LINE
  5
1C9
330
1B
100
AcDbEntity
 67
     1
  8
SLD-0
  6
SLD-鎖線
 62
   179
370
    18
100
AcDbLine
 10
18.8578309493
 20
5.8243721373
 30
0.0
 11
18.2999323665
 21
5.2664735545
 31
0.0
  0
LINE
  5
1CA
330
1B
100
AcDbEntity
 67
     1
  8
SLD-0
  6
SLD-鎖線
 62
   179
370
    18
100
AcDbLine
 10
20.4109152016
 20
20.6937905662
 30
0.0
 11
21.1412068554
 21
20.6937905662
 31
0.0
  0
LINE
  5
1CB
330
1B
100
AcDbEntity
 67
     1
  8
SLD-0
  6
SLD-鎖線
 62
   179
370
    18
100
AcDbLine
 10
22.9932150448
 20
20.6937905662
 30
0.0
 11
23.9344988246
 21
20.6937905662
 31
0.0
  0
ARC
  5
1CC
330
1B
100
AcDbEntity
 67
     1
  8
SLD-0
  6
SLD-実線
 62
   179
370
    18
100
AcDbCircle
 10
20.7760610285
 20
10.9763088315
 30
0.0
 40
0.433070866250014
100
AcDbArc
 50
332.165263
 51
207.834737
  0
ARC
  5
1CD
330
1B
100
AcDbEntity
 67
     1
  8
SLD-0
  6
SLD-実線
 62
   179
370
    18
100
AcDbCircle
 10
18.2951192956
 20
25.7932672604
 30
0.0
 40
0.0393700787499997
100
AcDbArc
 50
120.0
 51
178.40776
  0
ARC
  5
1CE
330
1B
100
AcDbEntity
 67
     1
  8
SLD-0
  6
SLD-実線
 62
   179
370
    18
100
AcDbCircle
 10
22.8498766196
 20
25.7769919848
 30
0.0
 40
0.0393700787500005
100
AcDbArc
 50
0.0
 51
47.612009
  0
ARC
  5
1CF
330
1B
100
AcDbEntity
 67
     1
  8
SLD-0
  6
SLD-実線
 62
   179
370
    18
100
AcDbCircle
 10
23.0645763047
 20
25.7752815911
 30
0.0
 40
0.0393700787499967
100
AcDbArc
 50
0.0
 51
51.711897
  0
ARC
  5
1D0
330
1B
100
AcDbEntity
 67
     1
  8
SLD-0
  6
SLD-実線
 62
   179
370
    18
100
AcDbCircle
 10
23.2570026039
 20
25.7932672604
 30
0.0
 40
0.0393700787499997
100
AcDbArc
 50
1.59224
 51
60.0
  0
ARC
  5
1D1
330
1B
100
AcDbEntity
 67
     1
  8
SLD-0
  6
SLD-実線
 62
   179
370
    18
100
AcDbCircle
 10
23.1382657535
 20
25.9527414337
 30
0.0
 40
0.0393700787500144
100
AcDbArc
 50
180.0
 51
240.0
  0
ARC
  5
1D2
330
1B
100
AcDbEntity
 67
     1
  8
SLD-0
  6
SLD-実線
 62
   179
370
    18
100
AcDbCircle
 10
22.7831934699
 20
25.9444642683
 30
0.0
 40
0.0393700787499931
100
AcDbArc
 50
180.0
 51
227.612009
  0
ARC
  5
1D3
330
1B
100
AcDbEntity
 67
     1
  8
SLD-0
  6
SLD-実線
 62
   179
370
    18
100
AcDbCircle
 10
22.9751745723
 20
25.946174662
 30
0.0
 40
0.0393700617881024
100
AcDbArc
 50
180.0
 51
231.7118628475
  0
ARC
  5
1D4
330
1B
100
AcDbEntity
 67
     1
  8
SLD-0
  6
SLD-実線
 62
   179
370
    18
100
AcDbCircle
 10
18.4138563035
 20
25.9527414337
 30
0.0
 40
0.0393700548186538
100
AcDbArc
 50
300.0000402155
 51
0.0
  0
ARC
  5
1D5
330
1B
100
AcDbEntity
 67
     1
  8
SLD-0
  6
SLD-実線
 62
   179
370
    18
100
AcDbCircle
 10
22.6650832337
 20
26.2048633235
 30
0.0
 40
0.0787401575000111
100
AcDbArc
 50
0.0
 51
90.0
  0
ARC
  5
1D6
330
1B
100
AcDbEntity
 67
     1
  8
SLD-0
  6
SLD-実線
 62
   179
370
    18
100
AcDbCircle
 10
23.0201555172
 20
26.2056015912
 30
0.0
 40
0.0787401574999964
100
AcDbArc
 50
0.0
 51
82.14773
  0
ARC
  5
1D7
330
1B
100
AcDbEntity
 67
     1
  8
SLD-0
  6
SLD-実線
 62
   179
370
    18
100
AcDbCircle
 10
22.8570643361
 20
26.2048633235
 30
0.0
 40
0.0787401575000111
100
AcDbArc
 50
0.0
 51
90.0
  0
ARC
  5
1D8
330
1B
100
AcDbEntity
 67
     1
  8
SLD-0
  6
SLD-実線
 62
   179
370
    18
100
AcDbCircle
 10
21.9177933122
 20
26.7961527724
 30
0.0
 40
0.0393700787499967
100
AcDbArc
 50
0.0
 51
90.0
  0
ARC
  5
1D9
330
1B
100
AcDbEntity
 67
     1
  8
SLD-0
  6
SLD-実線
 62
   179
370
    18
100
AcDbCircle
 10
21.9965334697
 20
26.793344426
 30
0.0
 40
0.0393700840276452
100
AcDbArc
 50
180.0
 51
265.7635882708
  0
ARC
  5
1DA
330
1B
100
AcDbEntity
 67
     1
  8
SLD-0
  6
SLD-実線
 62
   179
370
    18
100
AcDbCircle
 10
22.9433843361
 20
26.6047734023
 30
0.0
 40
0.0787401575000119
100
AcDbArc
 50
1.562225
 51
85.763605
  0
ARC
  5
1DB
330
1B
100
AcDbEntity
 67
     1
  8
SLD-0
  6
SLD-実線
 62
   179
370
    18
100
AcDbCircle
 10
18.5319665397
 20
26.2056015912
 30
0.0
 40
0.0787401574999988
100
AcDbArc
 50
97.85227
 51
180.0
  0
ARC
  5
1DC
330
1B
100
AcDbEntity
 67
     1
  8
SLD-0
  6
SLD-実線
 62
   179
370
    18
100
AcDbCircle
 10
18.6087377209
 20
26.6047734023
 30
0.0
 40
0.0787401575000003
100
AcDbArc
 50
94.236395
 51
178.437775
  0
ARC
  5
1DD
330
1B
100
AcDbEntity
 67
     1
  8
SLD-0
  6
SLD-実線
 62
   179
370
    18
100
AcDbCircle
 10
19.5555885872
 20
26.793344426
 30
0.0
 40
0.0393700840276317
100
AcDbArc
 50
274.2364117292
 51
0.0
  0
ARC
  5
1DE
330
1B
100
AcDbEntity
 67
     1
  8
SLD-0
  6
SLD-実線
 62
   179
370
    18
100
AcDbCircle
 10
19.6343287447
 20
26.7961527724
 30
0.0
 40
0.0393700787499967
100
AcDbArc
 50
90.0
 51
180.0
  0
ARC
  5
1DF
330
1B
100
AcDbEntity
 67
     1
  8
SLD-0
  6
SLD-実線
 62
   179
370
    18
100
AcDbCircle
 10
21.5437775641
 20
23.4969401732
 30
0.0
 40
0.196850393750001
100
AcDbArc
 50
270.0
 51
0.0
  0
ARC
  5
1E0
330
1B
100
AcDbEntity
 67
     1
  8
SLD-0
  6
SLD-実線
 62
   179
370
    18
100
AcDbCircle
 10
20.0083444929
 20
23.4969401732
 30
0.0
 40
0.196850393750001
100
AcDbArc
 50
180.0
 51
270.0
  0
ARC
  5
1E1
330
1B
100
AcDbEntity
 67
     1
  8
SLD-0
  6
SLD-実線
 62
   179
370
    18
100
AcDbCircle
 10
21.5437775641
 20
26.1368927723
 30
0.0
 40
0.196850393750001
100
AcDbArc
 50
0.0
 51
90.0
  0
ARC
  5
1E2
330
1B
100
AcDbEntity
 67
     1
  8
SLD-0
  6
SLD-実線
 62
   179
370
    18
100
AcDbCircle
 10
20.0083444929
 20
26.1368927723
 30
0.0
 40
0.196850393750001
100
AcDbArc
 50
90.0
 51
180.0
  0
ARC
  5
1E3
330
1B
100
AcDbEntity
 67
     1
  8
SLD-0
  6
SLD-破線
 62
   179
370
    18
100
AcDbCircle
 10
20.7760610285
 20
10.9763088315
 30
0.0
 40
0.433070866250014
100
AcDbArc
 50
207.834737
 51
332.165263
  0
ARC
  5
1E4
330
1B
100
AcDbEntity
 67
     1
  8
SLD-0
  6
SLD-実線
 62
   179
370
    18
100
AcDbCircle
 10
21.6618878004
 20
11.8489012726
 30
0.0
 40
0.1259842519999974
100
AcDbArc
 50
22.999613
 51
90.0
  0
ARC
  5
1E5
330
1B
100
AcDbEntity
 67
     1
  8
SLD-0
  6
SLD-実線
 62
   179
370
    18
100
AcDbCircle
 10
22.0752736272
 20
11.8115122963
 30
0.0
 40
0.0866141732500019
100
AcDbArc
 50
0.0
 51
90.0
  0
ARC
  5
1E6
330
1B
100
AcDbEntity
 67
     1
  8
SLD-0
  6
SLD-実線
 62
   179
370
    18
100
AcDbCircle
 10
19.8902342566
 20
11.8489012726
 30
0.0
 40
0.1259842520000007
100
AcDbArc
 50
90.0
 51
157.000387
  0
ARC
  5
1E7
330
1B
100
AcDbEntity
 67
     1
  8
SLD-0
  6
SLD-実線
 62
   179
370
    18
100
AcDbCircle
 10
19.4768484297
 20
11.8115122963
 30
0.0
 40
0.0866141732500001
100
AcDbArc
 50
90.0
 51
180.0
  0
ARC
  5
1E8
330
1B
100
AcDbEntity
 67
     1
  8
SLD-0
  6
SLD-実線
 62
   179
370
    18
100
AcDbCircle
 10
23.1382657535
 20
25.9527414337
 30
0.0
 40
0.0393700787500144
100
AcDbArc
 50
180.0
 51
240.0
  0
ARC
  5
1E9
330
1B
100
AcDbEntity
 67
     1
  8
SLD-0
  6
SLD-実線
 62
   179
370
    18
100
AcDbCircle
 10
23.0645763047
 20
25.7752815911
 30
0.0
 40
0.0393700787499967
100
AcDbArc
 50
0.0
 51
51.711897
  0
ARC
  5
1EA
330
1B
100
AcDbEntity
 67
     1
  8
SLD-0
  6
SLD-実線
 62
   179
370
    18
100
AcDbCircle
 10
22.8498766196
 20
25.7769919848
 30
0.0
 40
0.0393700787500005
100
AcDbArc
 50
0.0
 51
47.612009
  0
ARC
  5
1EB
330
1B
100
AcDbEntity
 67
     1
  8
SLD-0
  6
SLD-実線
 62
   179
370
    18
100
AcDbCircle
 10
22.7831934699
 20
25.9444642683
 30
0.0
 40
0.0393700787499931
100
AcDbArc
 50
180.0
 51
227.612009
  0
ARC
  5
1EC
330
1B
100
AcDbEntity
 67
     1
  8
SLD-0
  6
SLD-実線
 62
   179
370
    18
100
AcDbCircle
 10
22.9751745723
 20
25.946174662
 30
0.0
 40
0.0393700617881024
100
AcDbArc
 50
180.0
 51
231.7118628475
  0
ARC
  5
1ED
330
1B
100
AcDbEntity
 67
     1
  8
SLD-0
  6
SLD-実線
 62
   179
370
    18
100
AcDbCircle
 10
18.1025446499
 20
22.4353886769
 30
0.0
 40
0.0787401575000111
100
AcDbArc
 50
138.215806
 51
180.0
  0
ARC
  5
1EE
330
1B
100
AcDbEntity
 67
     1
  8
SLD-0
  6
SLD-実線
 62
   179
370
    18
100
AcDbCircle
 10
18.3737375633
 20
22.4353886769
 30
0.0
 40
0.0787401575000093
100
AcDbArc
 50
138.215806
 51
180.0
  0
ARC
  5
1EF
330
1B
100
AcDbEntity
 67
     1
  8
SLD-0
  6
SLD-実線
 62
   179
370
    18
100
AcDbCircle
 10
18.2951192956
 20
25.7932672604
 30
0.0
 40
0.0393700787499997
100
AcDbArc
 50
120.0
 51
178.40776
  0
ARC
  5
1F0
330
1B
100
AcDbEntity
 67
     1
  8
SLD-0
  6
SLD-実線
 62
   179
370
    18
100
AcDbCircle
 10
18.4138563035
 20
25.9527414337
 30
0.0
 40
0.0393700548186538
100
AcDbArc
 50
300.0000402155
 51
0.0
  0
ARC
  5
1F1
330
1B
100
AcDbEntity
 67
     1
  8
SLD-0
  6
SLD-実線
 62
   179
370
    18
100
AcDbCircle
 10
23.2570026039
 20
25.7932672604
 30
0.0
 40
0.0393700787499997
100
AcDbArc
 50
1.59224
 51
60.0
  0
ARC
  5
1F2
330
1B
100
AcDbEntity
 67
     1
  8
SLD-0
  6
SLD-実線
 62
   179
370
    18
100
AcDbCircle
 10
23.3541643362
 20
22.2978630075
 30
0.0
 40
0.0393700787500132
100
AcDbArc
 50
300.0
 51
1.59224
  0
ARC
  5
1F3
330
1B
100
AcDbEntity
 67
     1
  8
SLD-0
  6
SLD-実線
 62
   179
370
    18
100
AcDbCircle
 10
23.1382657535
 20
25.9527414337
 30
0.0
 40
0.0393700787500144
100
AcDbArc
 50
180.0
 51
240.0
  0
ARC
  5
1F4
330
1B
100
AcDbEntity
 67
     1
  8
SLD-0
  6
SLD-実線
 62
   179
370
    18
100
AcDbCircle
 10
22.7831934699
 20
25.9444642683
 30
0.0
 40
0.0393700787499931
100
AcDbArc
 50
180.0
 51
227.612009
  0
ARC
  5
1F5
330
1B
100
AcDbEntity
 67
     1
  8
SLD-0
  6
SLD-実線
 62
   179
370
    18
100
AcDbCircle
 10
22.8498766196
 20
25.7769919848
 30
0.0
 40
0.0393700787500005
100
AcDbArc
 50
0.0
 51
47.612009
  0
ARC
  5
1F6
330
1B
100
AcDbEntity
 67
     1
  8
SLD-0
  6
SLD-実線
 62
   179
370
    18
100
AcDbCircle
 10
22.9751745723
 20
25.946174662
 30
0.0
 40
0.0393700617881024
100
AcDbArc
 50
180.0
 51
231.7118628475
  0
ARC
  5
1F7
330
1B
100
AcDbEntity
 67
     1
  8
SLD-0
  6
SLD-実線
 62
   179
370
    18
100
AcDbCircle
 10
23.0645763047
 20
25.7752815911
 30
0.0
 40
0.0393700787499967
100
AcDbArc
 50
0.0
 51
51.711897
  0
ARC
  5
1F8
330
1B
100
AcDbEntity
 67
     1
  8
1
  6
SLD-実線
 62
   179
370
    18
100
AcDbCircle
 10
19.7721240204
 20
23.2797141889
 30
0.0
 40
0.3818897638750087
100
AcDbArc
 50
180.0
 51
270.0
  0
ARC
  5
1F9
330
1B
100
AcDbEntity
 67
     1
  8
1
  6
SLD-実線
 62
   179
370
    18
100
AcDbCircle
 10
21.7799980366
 20
23.2797141889
 30
0.0
 40
0.3818897638750087
100
AcDbArc
 50
270.0
 51
0.0
  0
ARC
  5
1FA
330
1B
100
AcDbEntity
 67
     1
  8
1
  6
SLD-実線
 62
   179
370
    18
100
AcDbCircle
 10
21.7799980366
 20
26.3541187566
 30
0.0
 40
0.3818897638750087
100
AcDbArc
 50
0.0
 51
90.0
  0
ARC
  5
1FB
330
1B
100
AcDbEntity
 67
     1
  8
1
  6
SLD-実線
 62
   179
370
    18
100
AcDbCircle
 10
19.7721240204
 20
26.3541187566
 30
0.0
 40
0.381889763874991
100
AcDbArc
 50
90.0
 51
180.0
  0
CIRCLE
  5
1FC
330
1B
100
AcDbEntity
 67
     1
  8
SLD-0
  6
SLD-実線
 62
   179
370
    18
100
AcDbCircle
 10
22.7209766195
 20
22.7016645824
 30
0.0
 40
0.0885826771874925
  0
ARC
  5
1FD
330
1B
100
AcDbEntity
 67
     1
  8
SLD-0
  6
SLD-実線
 62
   179
370
    18
100
AcDbCircle
 10
20.7760610285
 20
7.742602059
 30
0.0
 40
1.476377953124988
100
AcDbArc
 50
83.160986
 51
115.882921
  0
ARC
  5
1FE
330
1B
100
AcDbEntity
 67
     1
  8
SLD-0
  6
SLD-実線
 62
   179
370
    18
100
AcDbCircle
 10
20.7760610285
 20
7.742602059
 30
0.0
 40
1.968503937499988
100
AcDbArc
 50
80.569467
 51
123.659338
  0
ARC
  5
1FF
330
1B
100
AcDbEntity
 67
     1
  8
SLD-0
  6
SLD-実線
 62
   179
370
    18
100
AcDbCircle
 10
20.7760610285
 20
7.742602059
 30
0.0
 40
2.204724409999991
100
AcDbArc
 50
77.873051
 51
128.203219
  0
ARC
  5
200
330
1B
100
AcDbEntity
 67
     1
  8
SLD-0
  6
SLD-実線
 62
   179
370
    18
100
AcDbCircle
 10
20.7760610285
 20
7.742602059
 30
0.0
 40
1.476377953125003
100
AcDbArc
 50
149.354806
 51
54.735186
  0
ARC
  5
201
330
1B
100
AcDbEntity
 67
     1
  8
SLD-0
  6
SLD-実線
 62
   179
370
    18
100
AcDbCircle
 10
20.7760610285
 20
7.742602059
 30
0.0
 40
1.968503937499997
100
AcDbArc
 50
148.882515
 51
56.101416
  0
ARC
  5
202
330
1B
100
AcDbEntity
 67
     1
  8
SLD-0
  6
SLD-実線
 62
   179
370
    18
100
AcDbCircle
 10
20.7760610285
 20
7.742602059
 30
0.0
 40
2.204724409999999
100
AcDbArc
 50
148.709436
 51
55.929174
  0
CIRCLE
  5
203
330
1B
100
AcDbEntity
 67
     1
  8
SLD-0
  6
SLD-実線
 62
   179
370
    18
100
AcDbCircle
 10
20.7760610285
 20
7.742602059
 30
0.0
 40
2.913385827499987
  0
CIRCLE
  5
204
330
1B
100
AcDbEntity
 67
     1
  8
SLD-0
  6
SLD-実線
 62
   179
370
    18
100
AcDbCircle
 10
20.7760610285
 20
7.742602059
 30
0.0
 40
0.4921259843749901
  0
ARC
  5
205
330
1B
100
AcDbEntity
 67
     1
  8
SLD-0
  6
SLD-鎖線
 62
   179
370
    18
100
AcDbCircle
 10
20.7760610285
 20
7.742602059
 30
0.0
 40
2.716535433749986
100
AcDbArc
 50
85.84449
 51
94.15551
  0
CIRCLE
  5
206
330
1B
100
AcDbEntity
 67
     1
  8
SLD-0
  6
SLD-実線
 62
   179
370
    18
100
AcDbCircle
 10
20.7760610285
 20
10.4591374928
 30
0.0
 40
0.1082677165624908
  0
ARC
  5
207
330
1B
100
AcDbEntity
 67
     1
  8
SLD-0
  6
SLD-鎖線
 62
   179
370
    18
100
AcDbCircle
 10
20.7760610285
 20
7.742602059
 30
0.0
 40
2.716535433750016
100
AcDbArc
 50
157.84449
 51
166.15551
  0
CIRCLE
  5
208
330
1B
100
AcDbEntity
 67
     1
  8
SLD-0
  6
SLD-実線
 62
   179
370
    18
100
AcDbCircle
 10
18.1924822877
 20
8.5820576498
 30
0.0
 40
0.1082677165624908
  0
ARC
  5
209
330
1B
100
AcDbEntity
 67
     1
  8
SLD-0
  6
SLD-鎖線
 62
   179
370
    18
100
AcDbCircle
 10
20.7760610285
 20
7.742602059
 30
0.0
 40
2.716535433750006
100
AcDbArc
 50
229.84449
 51
238.15551
  0
CIRCLE
  5
20A
330
1B
100
AcDbEntity
 67
     1
  8
SLD-0
  6
SLD-実線
 62
   179
370
    18
100
AcDbCircle
 10
19.1793215005
 20
5.5448787514
 30
0.0
 40
0.1082677165624908
  0
ARC
  5
20B
330
1B
100
AcDbEntity
 67
     1
  8
SLD-0
  6
SLD-鎖線
 62
   179
370
    18
100
AcDbCircle
 10
20.7760610285
 20
7.742602059
 30
0.0
 40
2.716535433749997
100
AcDbArc
 50
301.84449
 51
310.15551
  0
CIRCLE
  5
20C
330
1B
100
AcDbEntity
 67
     1
  8
SLD-0
  6
SLD-実線
 62
   179
370
    18
100
AcDbCircle
 10
22.372800399
 20
5.5448787514
 30
0.0
 40
0.1082677165625086
  0
ARC
  5
20D
330
1B
100
AcDbEntity
 67
     1
  8
SLD-0
  6
SLD-鎖線
 62
   179
370
    18
100
AcDbCircle
 10
20.7760610285
 20
7.742602059
 30
0.0
 40
2.716535433749991
100
AcDbArc
 50
13.84449
 51
22.15551
  0
CIRCLE
  5
20E
330
1B
100
AcDbEntity
 67
     1
  8
SLD-0
  6
SLD-実線
 62
   179
370
    18
100
AcDbCircle
 10
23.3596397693
 20
8.5820576498
 30
0.0
 40
0.1082677165624908
  0
ARC
  5
20F
330
1B
100
AcDbEntity
 67
     1
  8
SLD-0
  6
SLD-実線
 62
   179
370
    18
100
AcDbCircle
 10
20.7760610285
 20
7.742602059
 30
0.0
 40
2.913385827500005
100
AcDbArc
 50
13.84449
 51
22.15551
  0
ARC
  5
210
330
1B
100
AcDbEntity
 67
     1
  8
SLD-0
  6
SLD-実線
 62
   179
370
    18
100
AcDbCircle
 10
20.7760610285
 20
7.742602059
 30
0.0
 40
3.582677195374304
100
AcDbArc
 50
212.2042282435
 51
237.7957717565
  0
ARC
  5
211
330
1B
100
AcDbEntity
 67
     1
  8
SLD-0
  6
SLD-鎖線
 62
   179
370
    18
100
AcDbCircle
 10
20.7760610285
 20
7.742602059
 30
0.0
 40
3.149606299999999
100
AcDbArc
 50
127.819244
 51
142.180756
  0
CIRCLE
  5
212
330
1B
100
AcDbEntity
 67
     1
  8
SLD-0
  6
SLD-実線
 62
   179
370
    18
100
AcDbCircle
 10
18.5489529964
 20
9.9697100911
 30
0.0
 40
0.1968503937500188
  0
ARC
  5
213
330
1B
100
AcDbEntity
 67
     1
  8
SLD-0
  6
SLD-鎖線
 62
   179
370
    18
100
AcDbCircle
 10
20.7760610285
 20
7.742602059
 30
0.0
 40
3.228346457500011
100
AcDbArc
 50
217.995274
 51
232.004726
  0
CIRCLE
  5
214
330
1B
100
AcDbEntity
 67
     1
  8
SLD-0
  6
SLD-実線
 62
   179
370
    18
100
AcDbCircle
 10
18.4932753586
 20
5.4598163892
 30
0.0
 40
0.196850393750001
  0
ARC
  5
215
330
1B
100
AcDbEntity
 67
     1
  8
SLD-0
  6
SLD-鎖線
 62
   179
370
    18
100
AcDbCircle
 10
20.7760610285
 20
7.742602059
 30
0.0
 40
3.228346457499986
100
AcDbArc
 50
37.995274
 51
52.004726
  0
CIRCLE
  5
216
330
1B
100
AcDbEntity
 67
     1
  8
SLD-0
  6
SLD-実線
 62
   179
370
    18
100
AcDbCircle
 10
23.0588466984
 20
10.0253877289
 30
0.0
 40
0.1968503937499975
  0
ARC
  5
217
330
1B
100
AcDbEntity
 67
     1
  8
SLD-0
  6
SLD-鎖線
 62
   179
370
    18
100
AcDbCircle
 10
20.7760610285
 20
7.742602059
 30
0.0
 40
3.149606299999996
100
AcDbArc
 50
307.819244
 51
322.180756
  0
CIRCLE
  5
218
330
1B
100
AcDbEntity
 67
     1
  8
SLD-0
  6
SLD-実線
 62
   179
370
    18
100
AcDbCircle
 10
23.0031689031
 20
5.515494027
 30
0.0
 40
0.1968503937499833
  0
ARC
  5
219
330
1B
100
AcDbEntity
 67
     1
  8
SLD-0
  6
SLD-実線
 62
   179
370
    18
100
AcDbCircle
 10
18.4932753586
 20
5.4598163892
 30
0.0
 40
0.2362204725000019
100
AcDbArc
 50
175.266328
 51
274.733672
  0
ARC
  5
21A
330
1B
100
AcDbEntity
 67
     1
  8
SLD-0
  6
SLD-実線
 62
   179
370
    18
100
AcDbCircle
 10
20.7760610285
 20
7.742602059
 30
0.0
 40
3.385826769525253
100
AcDbArc
 50
228.0516366054
 51
236.8465916207
  0
ARC
  5
21B
330
1B
100
AcDbEntity
 67
     1
  8
SLD-0
  6
SLD-実線
 62
   179
370
    18
100
AcDbCircle
 10
20.7760610285
 20
7.742602059
 30
0.0
 40
3.385826770227363
100
AcDbArc
 50
213.153408
 51
221.9483633946
  0
ARC
  5
21C
330
1B
100
AcDbEntity
 67
     1
  8
SLD-0
  6
SLD-実線
 62
   179
370
    18
100
AcDbCircle
 10
20.7760610285
 20
7.742602059
 30
0.0
 40
3.385826772499988
100
AcDbArc
 50
318.051637
 51
326.846592
  0
ARC
  5
21D
330
1B
100
AcDbEntity
 67
     1
  8
SLD-0
  6
SLD-実線
 62
   179
370
    18
100
AcDbCircle
 10
20.7760610285
 20
7.742602059
 30
0.0
 40
3.582677180812148
100
AcDbArc
 50
302.204228
 51
327.7957717565
  0
ARC
  5
21E
330
1B
100
AcDbEntity
 67
     1
  8
SLD-0
  6
SLD-実線
 62
   179
370
    18
100
AcDbCircle
 10
20.7760610285
 20
7.742602059
 30
0.0
 40
3.385826772500002
100
AcDbArc
 50
303.153408
 51
311.948363
  0
ARC
  5
21F
330
1B
100
AcDbEntity
 67
     1
  8
SLD-0
  6
SLD-実線
 62
   179
370
    18
100
AcDbCircle
 10
23.0588466984
 20
5.4598163892
 30
0.0
 40
0.2362204925851123
100
AcDbArc
 50
265.2663249216
 51
4.7336750784
  0
ARC
  5
220
330
1B
100
AcDbEntity
 67
     1
  8
SLD-0
  6
SLD-実線
 62
   179
370
    18
100
AcDbCircle
 10
20.7760610285
 20
7.742602059
 30
0.0
 40
3.385826772499991
100
AcDbArc
 50
48.051637
 51
56.846592
  0
ARC
  5
221
330
1B
100
AcDbEntity
 67
     1
  8
SLD-0
  6
SLD-実線
 62
   179
370
    18
100
AcDbCircle
 10
20.7760610285
 20
7.742602059
 30
0.0
 40
3.582677166249994
100
AcDbArc
 50
32.204228
 51
57.795772
  0
ARC
  5
222
330
1B
100
AcDbEntity
 67
     1
  8
SLD-0
  6
SLD-実線
 62
   179
370
    18
100
AcDbCircle
 10
20.7760610285
 20
7.742602059
 30
0.0
 40
3.385826772499976
100
AcDbArc
 50
33.153408
 51
41.948363
  0
ARC
  5
223
330
1B
100
AcDbEntity
 67
     1
  8
SLD-0
  6
SLD-実線
 62
   179
370
    18
100
AcDbCircle
 10
23.0588466984
 20
10.0253877289
 30
0.0
 40
0.2362204925851132
100
AcDbArc
 50
355.2663249216
 51
94.7336750784
  0
ARC
  5
224
330
1B
100
AcDbEntity
 67
     1
  8
SLD-0
  6
SLD-実線
 62
   179
370
    18
100
AcDbCircle
 10
20.7760610285
 20
7.742602059
 30
0.0
 40
3.385826772499993
100
AcDbArc
 50
138.051637
 51
146.846592
  0
ARC
  5
225
330
1B
100
AcDbEntity
 67
     1
  8
SLD-0
  6
SLD-実線
 62
   179
370
    18
100
AcDbCircle
 10
20.7760610285
 20
7.742602059
 30
0.0
 40
3.582677180812145
100
AcDbArc
 50
122.204228
 51
147.7957717565
  0
ARC
  5
226
330
1B
100
AcDbEntity
 67
     1
  8
SLD-0
  6
SLD-実線
 62
   179
370
    18
100
AcDbCircle
 10
20.7760610285
 20
7.742602059
 30
0.0
 40
3.385826772499996
100
AcDbArc
 50
123.153408
 51
131.948363
  0
ARC
  5
227
330
1B
100
AcDbEntity
 67
     1
  8
SLD-0
  6
SLD-実線
 62
   179
370
    18
100
AcDbCircle
 10
18.4932753586
 20
10.0253877289
 30
0.0
 40
0.2362204925851147
100
AcDbArc
 50
85.2663249216
 51
184.7336750784
  0
ARC
  5
228
330
1B
100
AcDbEntity
 67
     1
  8
SLD-0
  6
SLD-破線
 62
   179
370
    18
100
AcDbCircle
 10
23.6500767772
 20
8.4512634765
 30
0.0
 40
0.0787401575000111
100
AcDbArc
 50
0.0
 51
90.0
  0
ARC
  5
229
330
1B
100
AcDbEntity
 67
     1
  8
SLD-0
  6
SLD-破線
 62
   179
370
    18
100
AcDbCircle
 10
23.6500767772
 20
7.0339406415
 30
0.0
 40
0.0787401574999933
100
AcDbArc
 50
270.0
 51
0.0
  0
ARC
  5
22A
330
1B
100
AcDbEntity
 67
     1
  8
SLD-0
  6
SLD-破線
 62
   179
370
    18
100
AcDbCircle
 10
17.9020452797
 20
7.0339406415
 30
0.0
 40
0.0787401574999933
100
AcDbArc
 50
180.0
 51
270.0
  0
ARC
  5
22B
330
1B
100
AcDbEntity
 67
     1
  8
SLD-0
  6
SLD-破線
 62
   179
370
    18
100
AcDbCircle
 10
17.9020452797
 20
8.4512634765
 30
0.0
 40
0.0787401575000111
100
AcDbArc
 50
90.0
 51
180.0
  0
CIRCLE
  5
22C
330
1B
100
AcDbEntity
 67
     1
  8
SLD-0
  6
SLD-破線
 62
   179
370
    18
100
AcDbCircle
 10
20.7760610285
 20
20.6937905662
 30
0.0
 40
0.1574803149999866
  0
ARC
  5
22D
330
1B
100
AcDbEntity
 67
     1
  8
SLD-0
  6
SLD-実線
 62
   179
370
    18
100
AcDbCircle
 10
23.3541643362
 20
22.2978630075
 30
0.0
 40
0.0393700787500132
100
AcDbArc
 50
300.0
 51
1.59224
  0
ARC
  5
22E
330
1B
100
AcDbEntity
 67
     1
  8
SLD-0
  6
SLD-実線
 62
   179
370
    18
100
AcDbCircle
 10
27.3587285892
 20
18.4693811168
 30
0.0
 40
4.829890552388593
100
AcDbArc
 50
162.088043
 51
176.962835
  0
ARC
  5
22F
330
1B
100
AcDbEntity
 67
     1
  8
SLD-0
  6
SLD-実線
 62
   179
370
    18
100
AcDbCircle
 10
22.8004033912
 20
19.9427307235
 30
0.0
 40
0.0393700787500144
100
AcDbArc
 50
90.0
 51
162.088043
  0
ARC
  5
230
330
1B
100
AcDbEntity
 67
     1
  8
SLD-0
  6
SLD-実線
 62
   179
370
    18
100
AcDbCircle
 10
18.0809455947
 20
18.4355017467
 30
0.0
 40
5.014120788655124
100
AcDbArc
 50
3.313186
 51
17.636423
  0
ARC
  5
231
330
1B
100
AcDbEntity
 67
     1
  8
SLD-0
  6
SLD-実線
 62
   179
370
    18
100
AcDbCircle
 10
22.8218744148
 20
19.9427307235
 30
0.0
 40
0.0393700465996503
100
AcDbArc
 50
17.6364080155
 51
90.0
  0
ARC
  5
232
330
1B
100
AcDbEntity
 67
     1
  8
SLD-0
  6
SLD-実線
 62
   179
370
    18
100
AcDbCircle
 10
14.1933933103
 20
18.4693811168
 30
0.0
 40
4.829890552388593
100
AcDbArc
 50
3.037165
 51
17.911957
  0
ARC
  5
233
330
1B
100
AcDbEntity
 67
     1
  8
SLD-0
  6
SLD-実線
 62
   179
370
    18
100
AcDbCircle
 10
18.7517185083
 20
19.9427307235
 30
0.0
 40
0.0393700787500144
100
AcDbArc
 50
17.911957
 51
90.0
  0
ARC
  5
234
330
1B
100
AcDbEntity
 67
     1
  8
SLD-0
  6
SLD-実線
 62
   179
370
    18
100
AcDbCircle
 10
23.4711763048
 20
18.4355017467
 30
0.0
 40
5.014120788655124
100
AcDbArc
 50
162.363577
 51
176.686814
  0
ARC
  5
235
330
1B
100
AcDbEntity
 67
     1
  8
SLD-0
  6
SLD-実線
 62
   179
370
    18
100
AcDbCircle
 10
18.7302476422
 20
19.9427307235
 30
0.0
 40
0.0393700787500144
100
AcDbArc
 50
90.0
 51
162.363577
  0
ENDSEC
  0
SECTION
  2
OBJECTS
  0
DICTIONARY
  5
C
330
0
100
AcDbDictionary
281
     1
  3
ACAD_GROUP
350
D
  3
ACAD_LAYOUT
350
1A
  3
ACAD_MLINESTYLE
350
17
  3
ACAD_PLOTSETTINGS
350
19
  3
ACAD_PLOTSTYLENAME
350
E
  3
ACAD_SCALELIST
350
47
  0
DICTIONARY
  5
D
102
{ACAD_REACTORS
330
C
102
}
330
C
100
AcDbDictionary
281
     1
  0
DICTIONARY
  5
1A
102
{ACAD_REACTORS
330
C
102
}
330
C
100
AcDbDictionary
281
     1
  3
Model
350
22
  3
SW_Model_2
350
1E
  0
DICTIONARY
  5
17
102
{ACAD_REACTORS
330
C
102
}
330
C
100
AcDbDictionary
281
     1
  3
Standard
350
18
  0
DICTIONARY
  5
19
102
{ACAD_REACTORS
330
C
102
}
330
C
100
AcDbDictionary
281
     1
  0
ACDBDICTIONARYWDFLT
  5
E
102
{ACAD_REACTORS
330
C
102
}
330
C
100
AcDbDictionary
281
     1
  3
Normal
350
F
100
AcDbDictionaryWithDefault
340
F
  0
DICTIONARY
  5
47
102
{ACAD_REACTORS
330
C
102
}
330
C
100
AcDbDictionary
281
     1
  3
A0
350
48
  3
A1
350
49
  3
A2
350
4A
  3
A3
350
4B
  3
A4
350
4C
  3
A5
350
4D
  3
A6
350
4E
  3
A7
350
4F
  3
A8
350
50
  3
A9
350
51
  3
B0
350
52
  3
B1
350
53
  3
B2
350
54
  3
B3
350
55
  3
B4
350
56
  3
B5
350
57
  3
B6
350
58
  3
B7
350
59
  3
B8
350
5A
  3
B9
350
5B
  3
C0
350
5C
  3
C1
350
5D
  3
C2
350
5E
  3
C3
350
5F
  3
C4
350
60
  3
C5
350
61
  3
C6
350
62
  3
C7
350
63
  3
C8
350
64
  3
C9
350
65
  3
D0
350
66
  3
D1
350
67
  3
D2
350
68
  0
LAYOUT
  5
22
102
{ACAD_REACTORS
330
1A
102
}
330
1A
100
AcDbPlotSettings
  1

  2
none_device
  4
Letter_(8.50_x_11.00_Inches)
  6

 40
6.35
 41
6.35
 42
6.35000508
 43
6.35000508
 44
215.9
 45
279.4
 46
0.0
 47
0.0
 48
0.0
 49
0.0
140
0.0
141
0.0
142
1.0
143
1.0
 70
  1712
 72
     0
 73
     0
 74
     0
  7

 75
     0
147
1.0
148
0.0
149
0.0
100
AcDbLayout
  1
Model
 70
     1
 71
     0
 10
0.0
 20
0.0
 11
44.0
 21
34.0
 12
0.0
 22
0.0
 32
0.0
 14
0.0
 24
0.0
 34
0.0
 15
44.0
 25
34.0
 35
0.0
146
0.0
 13
0.0
 23
0.0
 33
0.0
 16
1.0
 26
0.0
 36
0.0
 17
0.0
 27
1.0
 37
0.0
 76
     0
330
1F
331
29
  0
LAYOUT
  5
1E
102
{ACAD_REACTORS
330
1A
102
}
330
1A
100
AcDbPlotSettings
  1

  2
none_device
  4
ANSI_E_(44.00_x_34.00_Inches)
  6

 40
6.35
 41
19.05
 42
6.3499746
 43
19.0499873
 44
1117.6
 45
863.6
 46
0.0
 47
0.0
 48
0.0
 49
0.0
140
0.0
141
0.0
142
1.0
143
1.0
 70
  4832
 72
     0
 73
     0
 74
     1
  7

 75
     0
147
1.0
148
0.0
149
0.0
100
AcDbLayout
  1
SW_Model_2
 70
     1
 71
     1
 10
0.0
 20
0.0
 11
44.0
 21
34.0
 12
0.0
 22
0.0
 32
0.0
 14
0.0
 24
0.0
 34
0.0
 15
44.0
 25
34.0
 35
0.0
146
0.0
 13
0.0
 23
0.0
 33
0.0
 16
1.0
 26
0.0
 36
0.0
 17
0.0
 27
1.0
 37
0.0
 76
     0
330
1B
331
107
  0
MLINESTYLE
  5
18
102
{ACAD_REACTORS
330
17
102
}
330
17
100
AcDbMlineStyle
  2
Standard
 70
     0
  3

 62
   256
 51
90.0
 52
90.0
 71
     2
 49
0.5
 62
   256
  6
BYLAYER
 49
-0.5
 62
   256
  6
BYLAYER
  0
ACDBPLACEHOLDER
  5
F
102
{ACAD_REACTORS
330
E
102
}
330
E
  0
SCALE
  5
48
102
{ACAD_REACTORS
330
47
102
}
330
47
100
AcDbScale
 70
     0
300
1:1
140
1.0
141
1.0
290
     1
  0
SCALE
  5
49
102
{ACAD_REACTORS
330
47
102
}
330
47
100
AcDbScale
 70
     0
300
1:2
140
1.0
141
2.0
290
     0
  0
SCALE
  5
4A
102
{ACAD_REACTORS
330
47
102
}
330
47
100
AcDbScale
 70
     0
300
1:4
140
1.0
141
4.0
290
     0
  0
SCALE
  5
4B
102
{ACAD_REACTORS
330
47
102
}
330
47
100
AcDbScale
 70
     0
300
1:5
140
1.0
141
5.0
290
     0
  0
SCALE
  5
4C
102
{ACAD_REACTORS
330
47
102
}
330
47
100
AcDbScale
 70
     0
300
1:8
140
1.0
141
8.0
290
     0
  0
SCALE
  5
4D
102
{ACAD_REACTORS
330
47
102
}
330
47
100
AcDbScale
 70
     0
300
1:10
140
1.0
141
10.0
290
     0
  0
SCALE
  5
4E
102
{ACAD_REACTORS
330
47
102
}
330
47
100
AcDbScale
 70
     0
300
1:16
140
1.0
141
16.0
290
     0
  0
SCALE
  5
4F
102
{ACAD_REACTORS
330
47
102
}
330
47
100
AcDbScale
 70
     0
300
1:20
140
1.0
141
20.0
290
     0
  0
SCALE
  5
50
102
{ACAD_REACTORS
330
47
102
}
330
47
100
AcDbScale
 70
     0
300
1:30
140
1.0
141
30.0
290
     0
  0
SCALE
  5
51
102
{ACAD_REACTORS
330
47
102
}
330
47
100
AcDbScale
 70
     0
300
1:40
140
1.0
141
40.0
290
     0
  0
SCALE
  5
52
102
{ACAD_REACTORS
330
47
102
}
330
47
100
AcDbScale
 70
     0
300
1:50
140
1.0
141
50.0
290
     0
  0
SCALE
  5
53
102
{ACAD_REACTORS
330
47
102
}
330
47
100
AcDbScale
 70
     0
300
1:100
140
1.0
141
100.0
290
     0
  0
SCALE
  5
54
102
{ACAD_REACTORS
330
47
102
}
330
47
100
AcDbScale
 70
     0
300
2:1
140
2.0
141
1.0
290
     0
  0
SCALE
  5
55
102
{ACAD_REACTORS
330
47
102
}
330
47
100
AcDbScale
 70
     0
300
4:1
140
4.0
141
1.0
290
     0
  0
SCALE
  5
56
102
{ACAD_REACTORS
330
47
102
}
330
47
100
AcDbScale
 70
     0
300
8:1
140
8.0
141
1.0
290
     0
  0
SCALE
  5
57
102
{ACAD_REACTORS
330
47
102
}
330
47
100
AcDbScale
 70
     0
300
10:1
140
10.0
141
1.0
290
     0
  0
SCALE
  5
58
102
{ACAD_REACTORS
330
47
102
}
330
47
100
AcDbScale
 70
     0
300
100:1
140
100.0
141
1.0
290
     0
  0
SCALE
  5
59
102
{ACAD_REACTORS
330
47
102
}
330
47
100
AcDbScale
 70
     0
300
1/128" = 1'-0"
140
0.0078125
141
12.0
290
     0
  0
SCALE
  5
5A
102
{ACAD_REACTORS
330
47
102
}
330
47
100
AcDbScale
 70
     0
300
1/64" = 1'-0"
140
0.015625
141
12.0
290
     0
  0
SCALE
  5
5B
102
{ACAD_REACTORS
330
47
102
}
330
47
100
AcDbScale
 70
     0
300
1/32" = 1'-0"
140
0.03125
141
12.0
290
     0
  0
SCALE
  5
5C
102
{ACAD_REACTORS
330
47
102
}
330
47
100
AcDbScale
 70
     0
300
1/16" = 1'-0"
140
0.0625
141
12.0
290
     0
  0
SCALE
  5
5D
102
{ACAD_REACTORS
330
47
102
}
330
47
100
AcDbScale
 70
     0
300
3/32" = 1'-0"
140
0.09375
141
12.0
290
     0
  0
SCALE
  5
5E
102
{ACAD_REACTORS
330
47
102
}
330
47
100
AcDbScale
 70
     0
300
1/8" = 1'-0"
140
0.125
141
12.0
290
     0
  0
SCALE
  5
5F
102
{ACAD_REACTORS
330
47
102
}
330
47
100
AcDbScale
 70
     0
300
3/16" = 1'-0"
140
0.1875
141
12.0
290
     0
  0
SCALE
  5
60
102
{ACAD_REACTORS
330
47
102
}
330
47
100
AcDbScale
 70
     0
300
1/4" = 1'-0"
140
0.25
141
12.0
290
     0
  0
SCALE
  5
61
102
{ACAD_REACTORS
330
47
102
}
330
47
100
AcDbScale
 70
     0
300
3/8" = 1'-0"
140
0.375
141
12.0
290
     0
  0
SCALE
  5
62
102
{ACAD_REACTORS
330
47
102
}
330
47
100
AcDbScale
 70
     0
300
1/2" = 1'-0"
140
0.5
141
12.0
290
     0
  0
SCALE
  5
63
102
{ACAD_REACTORS
330
47
102
}
330
47
100
AcDbScale
 70
     0
300
3/4" = 1'-0"
140
0.75
141
12.0
290
     0
  0
SCALE
  5
64
102
{ACAD_REACTORS
330
47
102
}
330
47
100
AcDbScale
 70
     0
300
1" = 1'-0"
140
1.0
141
12.0
290
     0
  0
SCALE
  5
65
102
{ACAD_REACTORS
330
47
102
}
330
47
100
AcDbScale
 70
     0
300
1-1/2" = 1'-0"
140
1.5
141
12.0
290
     0
  0
SCALE
  5
66
102
{ACAD_REACTORS
330
47
102
}
330
47
100
AcDbScale
 70
     0
300
3" = 1'-0"
140
3.0
141
12.0
290
     0
  0
SCALE
  5
67
102
{ACAD_REACTORS
330
47
102
}
330
47
100
AcDbScale
 70
     0
300
6" = 1'-0"
140
6.0
141
12.0
290
     0
  0
SCALE
  5
68
102
{ACAD_REACTORS
330
47
102
}
330
47
100
AcDbScale
 70
     0
300
1'-0" = 1'-0"
140
12.0
141
12.0
290
     0
  0
ENDSEC
  0
EOF
