  0
SECTION
  2
HEADER
  9
$ACADVER
  1
AC1015
  9
$ACADMAINTVER
 70
     6
  9
$DWGCODEPAGE
  3
DOS932
  9
$INSBASE
 10
0.0
 20
0.0
 30
0.0
  9
$EXTMIN
 10
0.0
 20
0.0
 30
0.0
  9
$EXTMAX
 10
44.0
 20
34.0
 30
0.0
  9
$LIMMIN
 10
0.0
 20
0.0
  9
$LIMMAX
 10
132.0
 20
102.0
  9
$ORTHOMODE
 70
     0
  9
$REGENMODE
 70
     1
  9
$FILLMODE
 70
     1
  9
$QTEXTMODE
 70
     0
  9
$MIRRTEXT
 70
     1
  9
$LTSCALE
 40
1.0
  9
$ATTMODE
 70
     1
  9
$TEXTSIZE
 40
0.4133858268
  9
$TRACEWID
 40
0.05
  9
$TEXTSTYLE
  7
STANDARD
  9
$CLAYER
  8
0
  9
$CELTYPE
  6
ByLayer
  9
$CECOLOR
 62
   256
  9
$CELTSCALE
 40
1.0
  9
$DISPSILH
 70
     0
  9
$DIMSCALE
 40
1.0
  9
$DIMASZ
 40
0.42
  9
$DIMEXO
 40
0.1181102362
  9
$DIMDLI
 40
0.38
  9
$DIMRND
 40
0.0
  9
$DIMDLE
 40
0.0
  9
$DIMEXE
 40
0.1181102362
  9
$DIMTP
 40
0.0
  9
$DIMTM
 40
0.0
  9
$DIMTXT
 40
0.4133858268
  9
$DIMCEN
 40
0.09
  9
$DIMTSZ
 40
0.0
  9
$DIMTOL
 70
     0
  9
$DIMLIM
 70
     0
  9
$DIMTIH
 70
     1
  9
$DIMTOH
 70
     1
  9
$DIMSE1
 70
     0
  9
$DIMSE2
 70
     0
  9
$DIMTAD
 70
     1
  9
$DIMZIN
 70
     1
  9
$DIMBLK
  1

  9
$DIMASO
 70
     1
  9
$DIMSHO
 70
     1
  9
$DIMPOST
  1

  9
$DIMAPOST
  1

  9
$DIMALT
 70
     0
  9
$DIMALTD
 70
     2
  9
$DIMALTF
 40
25.4
  9
$DIMLFAC
 40
1.0
  9
$DIMTOFL
 70
     0
  9
$DIMTVP
 40
0.0
  9
$DIMTIX
 70
     0
  9
$DIMSOXD
 70
     0
  9
$DIMSAH
 70
     0
  9
$DIMBLK1
  1

  9
$DIMBLK2
  1

  9
$DIMSTYLE
  2
Standard
  9
$DIMCLRD
 70
     0
  9
$DIMCLRE
 70
     0
  9
$DIMCLRT
 70
     0
  9
$DIMTFAC
 40
1.0
  9
$DIMGAP
 40
0.18
  9
$DIMJUST
 70
     0
  9
$DIMSD1
 70
     0
  9
$DIMSD2
 70
     0
  9
$DIMTOLJ
 70
     1
  9
$DIMTZIN
 70
     1
  9
$DIMALTZ
 70
     0
  9
$DIMALTTZ
 70
     0
  9
$DIMUPT
 70
     0
  9
$DIMDEC
 70
     0
  9
$DIMTDEC
 70
     4
  9
$DIMALTU
 70
     2
  9
$DIMALTTD
 70
     2
  9
$DIMTXSTY
  7
STANDARD
  9
$DIMAUNIT
 70
     0
  9
$DIMADEC
 70
     0
  9
$DIMALTRND
 40
0.0
  9
$DIMAZIN
 70
     0
  9
$DIMDSEP
 70
    46
  9
$DIMATFIT
 70
     3
  9
$DIMFRAC
 70
     0
  9
$DIMLDRBLK
  1

  9
$DIMLUNIT
 70
     2
  9
$DIMLWD
 70
    -2
  9
$DIMLWE
 70
    -2
  9
$DIMTMOVE
 70
     0
  9
$LUNITS
 70
     2
  9
$LUPREC
 70
     3
  9
$SKETCHINC
 40
0.1
  9
$FILLETRAD
 40
0.5
  9
$AUNITS
 70
     0
  9
$AUPREC
 70
     0
  9
$MENU
  1
.
  9
$ELEVATION
 40
0.0
  9
$PELEVATION
 40
0.0
  9
$THICKNESS
 40
0.0
  9
$LIMCHECK
 70
     0
  9
$CHAMFERA
 40
0.0
  9
$CHAMFERB
 40
0.0
  9
$CHAMFERC
 40
0.0
  9
$CHAMFERD
 40
0.0
  9
$SKPOLY
 70
     0
  9
$TDCREATE
 40
2460020.30827419
  9
$TDUCREATE
 40
2460019.93327419
  9
$TDUPDATE
 40
2460020.308276227
  9
$TDUUPDATE
 40
2460019.933276227
  9
$TDINDWG
 40
0.0000000116
  9
$TDUSRTIMER
 40
0.0000000116
  9
$USRTIMER
 70
     1
  9
$ANGBASE
 50
0.0
  9
$ANGDIR
 70
     0
  9
$PDMODE
 70
     0
  9
$PDSIZE
 40
-1.0
  9
$PLINEWID
 40
0.0
  9
$SPLFRAME
 70
     0
  9
$SPLINETYPE
 70
     6
  9
$SPLINESEGS
 70
     8
  9
$HANDSEED
  5
18E
  9
$SURFTAB1
 70
     6
  9
$SURFTAB2
 70
     6
  9
$SURFTYPE
 70
     6
  9
$SURFU
 70
     6
  9
$SURFV
 70
     6
  9
$UCSBASE
  2

  9
$UCSNAME
  2

  9
$UCSORG
 10
0.0
 20
0.0
 30
0.0
  9
$UCSXDIR
 10
1.0
 20
0.0
 30
0.0
  9
$UCSYDIR
 10
0.0
 20
1.0
 30
0.0
  9
$UCSORTHOREF
  2

  9
$UCSORTHOVIEW
 70
     0
  9
$UCSORGTOP
 10
0.0
 20
0.0
 30
0.0
  9
$UCSORGBOTTOM
 10
0.0
 20
0.0
 30
0.0
  9
$UCSORGLEFT
 10
0.0
 20
0.0
 30
0.0
  9
$UCSORGRIGHT
 10
0.0
 20
0.0
 30
0.0
  9
$UCSORGFRONT
 10
0.0
 20
0.0
 30
0.0
  9
$UCSORGBACK
 10
0.0
 20
0.0
 30
0.0
  9
$PUCSBASE
  2

  9
$PUCSNAME
  2

  9
$PUCSORG
 10
0.0
 20
0.0
 30
0.0
  9
$PUCSXDIR
 10
1.0
 20
0.0
 30
0.0
  9
$PUCSYDIR
 10
0.0
 20
1.0
 30
0.0
  9
$PUCSORTHOREF
  2

  9
$PUCSORTHOVIEW
 70
     0
  9
$PUCSORGTOP
 10
0.0
 20
0.0
 30
0.0
  9
$PUCSORGBOTTOM
 10
0.0
 20
0.0
 30
0.0
  9
$PUCSORGLEFT
 10
0.0
 20
0.0
 30
0.0
  9
$PUCSORGRIGHT
 10
0.0
 20
0.0
 30
0.0
  9
$PUCSORGFRONT
 10
0.0
 20
0.0
 30
0.0
  9
$PUCSORGBACK
 10
0.0
 20
0.0
 30
0.0
  9
$USERI1
 70
     0
  9
$USERI2
 70
     0
  9
$USERI3
 70
     0
  9
$USERI4
 70
     0
  9
$USERI5
 70
     0
  9
$USERR1
 40
0.0
  9
$USERR2
 40
0.0
  9
$USERR3
 40
0.0
  9
$USERR4
 40
0.0
  9
$USERR5
 40
0.0
  9
$WORLDVIEW
 70
     1
  9
$SHADEDGE
 70
     3
  9
$SHADEDIF
 70
    70
  9
$TILEMODE
 70
     0
  9
$MAXACTVP
 70
    64
  9
$PINSBASE
 10
0.0
 20
0.0
 30
0.0
  9
$PLIMCHECK
 70
     0
  9
$PEXTMIN
 10
0.0
 20
0.0
 30
0.0
  9
$PEXTMAX
 10
44.0
 20
34.0
 30
0.0
  9
$PLIMMIN
 10
0.0
 20
0.0
  9
$PLIMMAX
 10
44.0
 20
34.0
  9
$UNITMODE
 70
     0
  9
$VISRETAIN
 70
     1
  9
$PLINEGEN
 70
     0
  9
$PSLTSCALE
 70
     1
  9
$TREEDEPTH
 70
  3020
  9
$CMLSTYLE
  2
Standard
  9
$CMLJUST
 70
     0
  9
$CMLSCALE
 40
1.0
  9
$PROXYGRAPHICS
 70
     1
  9
$MEASUREMENT
 70
     0
  9
$CELWEIGHT
370
    -1
  9
$ENDCAPS
280
     0
  9
$JOINSTYLE
280
     0
  9
$LWDISPLAY
290
     1
  9
$INSUNITS
 70
     1
  9
$HYPERLINKBASE
  1

  9
$STYLESHEET
  1

  9
$XEDIT
290
     1
  9
$CEPSNTYPE
380
     0
  9
$PSTYLEMODE
290
     1
  9
$FINGERPRINTGUID
  2
{8ba564b0-13dc-4b9a-ae44-2681ea0ec418}
  9
$VERSIONGUID
  2
{FAEB1C32-E019-11D5-929B-00C0DF256EC4}
  9
$EXTNAMES
290
     1
  9
$PSVPSCALE
 40
0.0
  9
$OLESTARTUP
290
     0
  0
ENDSEC
  0
SECTION
  2
CLASSES
  0
CLASS
  1
ACDBDICTIONARYWDFLT
  2
AcDbDictionaryWithDefault
  3
ObjectDBX Classes
 90
        0
280
     0
281
     0
  0
CLASS
  1
VISUALSTYLE
  2
AcDbVisualStyle
  3
ObjectDBX Classes
 90
     4095
280
     0
281
     0
  0
CLASS
  1
MATERIAL
  2
AcDbMaterial
  3
ObjectDBX Classes
 90
     1153
280
     0
281
     0
  0
CLASS
  1
SCALE
  2
AcDbScale
  3
ObjectDBX Classes
 90
     1153
280
     0
281
     0
  0
CLASS
  1
TABLESTYLE
  2
AcDbTableStyle
  3
ObjectDBX Classes
 90
     4095
280
     0
281
     0
  0
CLASS
  1
MLEADERSTYLE
  2
AcDbMLeaderStyle
  3
ACDB_MLEADERSTYLE_CLASS
 90
     4095
280
     0
281
     0
  0
CLASS
  1
SUN
  2
AcDbSun
  3
SCENEOE
 90
     1153
280
     0
281
     0
  0
CLASS
  1
ACDBPLACEHOLDER
  2
AcDbPlaceHolder
  3
ObjectDBX Classes
 90
        0
280
     0
281
     0
  0
CLASS
  1
LAYOUT
  2
AcDbLayout
  3
ObjectDBX Classes
 90
        0
280
     0
281
     0
  0
ENDSEC
  0
SECTION
  2
TABLES
  0
TABLE
  2
VPORT
  5
8
330
0
100
AcDbSymbolTable
 70
     1
  0
VPORT
  5
29
330
8
100
AcDbSymbolTableRecord
100
AcDbViewportTableRecord
  2
*Active
 70
     0
 10
0.0
 20
0.0
 11
1.0
 21
1.0
 12
22.0
 22
17.0
 13
0.0
 23
0.0
 14
0.5
 24
0.5
 15
0.5
 25
0.5
 16
0.0
 26
0.0
 36
1.0
 17
0.0
 27
0.0
 37
0.0
 40
34.0
 41
1.2941176471
 42
50.0
 43
0.0
 44
0.0
 50
0.0
 51
0.0
 71
     0
 72
  2000
 73
     1
 74
     3
 75
     0
 76
     0
 77
     0
 78
     0
281
     0
 65
     1
110
0.0
120
0.0
130
0.0
111
1.0
121
0.0
131
0.0
112
0.0
122
1.0
132
0.0
 79
     0
146
0.0
  0
ENDTAB
  0
TABLE
  2
LTYPE
  5
5
330
0
100
AcDbSymbolTable
 70
     8
  0
LTYPE
  5
14
330
5
100
AcDbSymbolTableRecord
100
AcDbLinetypeTableRecord
  2
ByBlock
 70
     0
  3

 72
    65
 73
     0
 40
0.0
  0
LTYPE
  5
15
330
5
100
AcDbSymbolTableRecord
100
AcDbLinetypeTableRecord
  2
ByLayer
 70
     0
  3

 72
    65
 73
     0
 40
0.0
  0
LTYPE
  5
16
330
5
100
AcDbSymbolTableRecord
100
AcDbLinetypeTableRecord
  2
Continuous
 70
     0
  3
Solid line
 72
    65
 73
     0
 40
0.0
  0
LTYPE
  5
6E
330
5
100
AcDbSymbolTableRecord
100
AcDbLinetypeTableRecord
  2
SLD-実線
 70
     0
  3
SolidWorks Line Style
 72
    65
 73
     0
 40
0.0
  0
LTYPE
  5
6F
330
5
100
AcDbSymbolTableRecord
100
AcDbLinetypeTableRecord
  2
SLD-破線
 70
     0
  3
SolidWorks Line Style
 72
    65
 73
     2
 40
0.075
 49
0.05
 74
     0
 49
-0.025
 74
     0
  0
LTYPE
  5
70
330
5
100
AcDbSymbolTableRecord
100
AcDbLinetypeTableRecord
  2
SLD-2点鎖線
 70
     0
  3
SolidWorks Line Style
 72
    65
 73
     6
 40
0.5
 49
0.25
 74
     0
 49
-0.05
 74
     0
 49
0.05
 74
     0
 49
-0.05
 74
     0
 49
0.05
 74
     0
 49
-0.05
 74
     0
  0
LTYPE
  5
71
330
5
100
AcDbSymbolTableRecord
100
AcDbLinetypeTableRecord
  2
SLD-鎖線
 70
     0
  3
SolidWorks Line Style
 72
    65
 73
     4
 40
0.4
 49
0.25
 74
     0
 49
-0.05
 74
     0
 49
0.05
 74
     0
 49
-0.05
 74
     0
  0
LTYPE
  5
72
330
5
100
AcDbSymbolTableRecord
100
AcDbLinetypeTableRecord
  2
SLD-1点鎖線(中心線)
 70
     0
  3
SolidWorks Line Style
 72
    65
 73
     4
 40
1.35
 49
1.2
 74
     0
 49
-0.05
 74
     0
 49
0.05
 74
     0
 49
-0.05
 74
     0
  0
LTYPE
  5
73
330
5
100
AcDbSymbolTableRecord
100
AcDbLinetypeTableRecord
  2
SLD-点線
 70
     0
  3
SolidWorks Line Style
 72
    65
 73
     2
 40
0.025
 49
0.0
 74
     0
 49
-0.025
 74
     0
  0
LTYPE
  5
74
330
5
100
AcDbSymbolTableRecord
100
AcDbLinetypeTableRecord
  2
SLD-細-太鎖線(切断面)
 70
     0
  3
SolidWorks Line Style
 72
    65
 73
     4
 40
0.4
 49
0.25
 74
     0
 49
-0.05
 74
     0
 49
0.05
 74
     0
 49
-0.05
 74
     0
  0
ENDTAB
  0
TABLE
  2
LAYER
  5
2
330
0
100
AcDbSymbolTable
 70
     4
  0
LAYER
  5
10
330
2
100
AcDbSymbolTableRecord
100
AcDbLayerTableRecord
  2
0
 70
     0
 62
     7
  6
Continuous
370
    -3
390
F
  0
LAYER
  5
75
330
2
100
AcDbSymbolTableRecord
100
AcDbLayerTableRecord
  2
SLD-0
 70
     0
 62
   179
  6
SLD-実線
370
    -3
390
F
  0
LAYER
  5
76
330
2
100
AcDbSymbolTableRecord
100
AcDbLayerTableRecord
  2
100
 70
     0
 62
   179
  6
SLD-実線
370
    -3
390
F
  0
LAYER
  5
77
330
2
100
AcDbSymbolTableRecord
100
AcDbLayerTableRecord
  2
1
 70
     0
 62
   179
  6
SLD-実線
370
    -3
390
F
  0
ENDTAB
  0
TABLE
  2
STYLE
  5
3
330
0
100
AcDbSymbolTable
 70
     1
  0
STYLE
  5
11
330
3
100
AcDbSymbolTableRecord
100
AcDbTextStyleTableRecord
  2
STANDARD
 70
     0
 40
0.0
 41
1.0
 50
0.0
 71
     0
 42
0.4133858268
  3
GOTHIC.TTF
  4

1001
ACAD
1000
CENTURY GOTHIC
1071
       34
  0
ENDTAB
  0
TABLE
  2
VIEW
  5
6
330
0
100
AcDbSymbolTable
 70
     0
  0
ENDTAB
  0
TABLE
  2
UCS
  5
7
330
0
100
AcDbSymbolTable
 70
     0
  0
ENDTAB
  0
TABLE
  2
APPID
  5
9
330
0
100
AcDbSymbolTable
 70
     1
  0
APPID
  5
12
330
9
100
AcDbSymbolTableRecord
100
AcDbRegAppTableRecord
  2
ACAD
 70
     0
  0
ENDTAB
  0
TABLE
  2
DIMSTYLE
  5
A
330
0
100
AcDbSymbolTable
 70
     1
100
AcDbDimStyleTable
  0
DIMSTYLE
105
27
330
A
100
AcDbSymbolTableRecord
100
AcDbDimStyleTableRecord
  2
Standard
 70
     0
178
     0
340
11
  0
ENDTAB
  0
TABLE
  2
BLOCK_RECORD
  5
1
330
0
100
AcDbSymbolTable
 70
     0
  0
BLOCK_RECORD
  5
1F
330
1
100
AcDbSymbolTableRecord
100
AcDbBlockTableRecord
  2
*Model_Space
340
22
  0
BLOCK_RECORD
  5
1B
330
1
100
AcDbSymbolTableRecord
100
AcDbBlockTableRecord
  2
*Paper_Space
340
1E
  0
ENDTAB
  0
ENDSEC
  0
SECTION
  2
BLOCKS
  0
BLOCK
  5
20
330
1F
100
AcDbEntity
  8
0
100
AcDbBlockBegin
  2
*Model_Space
 70
     0
 10
0.0
 20
0.0
 30
0.0
  3
*Model_Space
  1

  0
ENDBLK
  5
21
330
1F
100
AcDbEntity
  8
0
100
AcDbBlockEnd
  0
BLOCK
  5
1C
330
1B
100
AcDbEntity
 67
     1
  8
0
100
AcDbBlockBegin
  2
*Paper_Space
 70
     0
 10
0.0
 20
0.0
 30
0.0
  3
*Paper_Space
  1

  0
ENDBLK
  5
1D
330
1B
100
AcDbEntity
 67
     1
  8
0
100
AcDbBlockEnd
  0
ENDSEC
  0
SECTION
  2
ENTITIES
  0
VIEWPORT
  5
78
330
1B
100
AcDbEntity
 67
     1
  8
0
100
AcDbViewport
 10
22.0
 20
17.0
 30
0.0
 40
46.552
 41
35.972
 68
     1
 69
     1
 12
22.0
 22
17.0
 13
0.0
 23
0.0
 14
0.5
 24
0.5
 15
0.5
 25
0.5
 16
0.0
 26
0.0
 36
1.0
 17
0.0
 27
0.0
 37
0.0
 42
50.0
 43
0.0
 44
0.0
 45
35.972
 50
0.0
 51
0.0
 72
   100
 90
   557152
  1

281
     0
 71
     1
 74
     0
110
0.0
120
0.0
130
0.0
111
1.0
121
0.0
131
0.0
112
0.0
122
1.0
132
0.0
 79
     0
146
0.0
  0
LINE
  5
7A
330
1B
100
AcDbEntity
 67
     1
  8
SLD-0
 62
     7
100
AcDbLine
 10
21.6108903478
 20
19.2143082449
 30
0.0
 11
21.6108903478
 21
20.1825315844
 31
0.0
  0
LINE
  5
7B
330
1B
100
AcDbEntity
 67
     1
  8
SLD-0
 62
     7
100
AcDbLine
 10
21.9258509712
 20
20.1721983825
 30
0.0
 11
21.9258509712
 21
19.1833086392
 31
0.0
  0
LINE
  5
7C
330
1B
100
AcDbEntity
 67
     1
  8
SLD-0
  6
SLD-実線
 62
     7
370
    18
100
AcDbLine
 10
21.8182704365
 20
22.9050510051
 30
0.0
 11
22.8340184469
 21
22.9050510051
 31
0.0
  0
LINE
  5
7D
330
1B
100
AcDbEntity
 67
     1
  8
SLD-0
  6
SLD-実線
 62
     7
370
    18
100
AcDbLine
 10
21.8182704365
 20
22.9050510051
 30
0.0
 11
22.8340184469
 21
22.9050510051
 31
0.0
  0
LINE
  5
7E
330
1B
100
AcDbEntity
 67
     1
  8
SLD-0
  6
SLD-実線
 62
     7
370
    18
100
AcDbLine
 10
21.8182704365
 20
22.5507203037
 30
0.0
 11
23.184700067
 21
22.5507203037
 31
0.0
  0
LINE
  5
7F
330
1B
100
AcDbEntity
 67
     1
  8
SLD-0
  6
SLD-実線
 62
     7
370
    18
100
AcDbLine
 10
19.0466169507
 20
22.5507203037
 30
0.0
 11
17.680187189
 21
22.5507203037
 31
0.0
  0
LINE
  5
80
330
1B
100
AcDbEntity
 67
     1
  8
SLD-0
  6
SLD-実線
 62
     7
370
    18
100
AcDbLine
 10
19.0466169507
 20
22.9050510051
 30
0.0
 11
18.0308689403
 21
22.9050510051
 31
0.0
  0
LINE
  5
81
330
1B
100
AcDbEntity
 67
     1
  8
SLD-0
  6
SLD-実線
 62
     7
370
    18
100
AcDbLine
 10
22.8340184469
 20
22.9050510051
 30
0.0
 11
22.8340184469
 21
21.2908778102
 31
0.0
  0
LINE
  5
82
330
1B
100
AcDbEntity
 67
     1
  8
SLD-0
  6
SLD-実線
 62
     7
370
    18
100
AcDbLine
 10
22.6784777677
 20
25.9047945124
 30
0.0
 11
22.6993251426
 21
25.1403932159
 31
0.0
  0
LINE
  5
83
330
1B
100
AcDbEntity
 67
     1
  8
SLD-0
  6
SLD-実線
 62
     7
370
    18
100
AcDbLine
 10
18.1489791741
 20
22.5507203037
 30
0.0
 11
18.0308689403
 21
22.5507203037
 31
0.0
  0
LINE
  5
84
330
1B
100
AcDbEntity
 67
     1
  8
SLD-0
  6
SLD-実線
 62
     7
370
    18
100
AcDbLine
 10
20.4324436936
 20
15.664893675
 30
0.0
 11
22.4009475898
 21
15.664893675
 31
0.0
  0
LINE
  5
85
330
1B
100
AcDbEntity
 67
     1
  8
SLD-0
  6
SLD-実線
 62
     7
370
    18
100
AcDbLine
 10
20.0977980313
 20
20.5428463297
 30
0.0
 11
20.4324436936
 21
20.5428463297
 31
0.0
  0
LINE
  5
86
330
1B
100
AcDbEntity
 67
     1
  8
SLD-0
  6
SLD-実線
 62
     7
370
    18
100
AcDbLine
 10
20.0977980313
 20
16.1373346101
 30
0.0
 11
20.0977980313
 21
20.5428463297
 31
0.0
  0
LINE
  5
87
330
1B
100
AcDbEntity
 67
     1
  8
SLD-0
  6
SLD-実線
 62
     7
370
    18
100
AcDbLine
 10
20.4324436936
 20
16.1373346101
 30
0.0
 11
22.282837356
 21
16.1373346101
 31
0.0
  0
LINE
  5
88
330
1B
100
AcDbEntity
 67
     1
  8
SLD-0
  6
SLD-実線
 62
     7
370
    18
100
AcDbLine
 10
20.767089356
 20
16.1373346101
 30
0.0
 11
20.767089356
 21
20.5428463297
 31
0.0
  0
LINE
  5
89
330
1B
100
AcDbEntity
 67
     1
  8
SLD-0
  6
SLD-実線
 62
     7
370
    18
100
AcDbLine
 10
20.7572468365
 20
20.5428463297
 30
0.0
 11
20.7572468365
 21
20.5822164076
 31
0.0
  0
LINE
  5
8A
330
1B
100
AcDbEntity
 67
     1
  8
SLD-0
  6
SLD-実線
 62
     7
370
    18
100
AcDbLine
 10
20.767089356
 20
20.7790667972
 30
0.0
 11
20.767089356
 21
20.857806953
 31
0.0
  0
LINE
  5
8B
330
1B
100
AcDbEntity
 67
     1
  8
SLD-0
  6
SLD-実線
 62
     7
370
    18
100
AcDbLine
 10
20.767089356
 20
20.7790667972
 30
0.0
 11
20.4324436936
 21
20.7790667972
 31
0.0
  0
LINE
  5
8C
330
1B
100
AcDbEntity
 67
     1
  8
SLD-0
  6
SLD-実線
 62
     7
370
    18
100
AcDbLine
 10
20.767089356
 20
20.5428463297
 30
0.0
 11
20.4324436936
 21
20.5428463297
 31
0.0
  0
LINE
  5
8D
330
1B
100
AcDbEntity
 67
     1
  8
SLD-0
  6
SLD-実線
 62
     7
370
    18
100
AcDbLine
 10
21.1607901352
 20
16.1373346101
 30
0.0
 11
21.1607901352
 21
16.2554448438
 31
0.0
  0
LINE
  5
8E
330
1B
100
AcDbEntity
 67
     1
  8
SLD-0
  6
SLD-実線
 62
     7
370
    18
100
AcDbLine
 10
21.1607901352
 20
16.2554448438
 30
0.0
 11
21.3576405248
 21
16.2554448438
 31
0.0
  0
LINE
  5
8F
330
1B
100
AcDbEntity
 67
     1
  8
SLD-0
  6
SLD-実線
 62
     7
370
    18
100
AcDbLine
 10
21.3576405248
 20
16.176704688
 30
0.0
 11
21.3576405248
 21
16.2554448438
 31
0.0
  0
LINE
  5
90
330
1B
100
AcDbEntity
 67
     1
  8
SLD-0
  6
SLD-実線
 62
     7
370
    18
100
AcDbLine
 10
22.8340184469
 20
22.7082006154
 30
0.0
 11
23.0302319599
 21
22.8214844714
 31
0.0
  0
LINE
  5
91
330
1B
100
AcDbEntity
 67
     1
  8
SLD-0
  6
SLD-実線
 62
     7
370
    18
100
AcDbLine
 10
22.7552782911
 20
25.250615917
 30
0.0
 11
22.7552782911
 21
25.2672556804
 31
0.0
  0
LINE
  5
92
330
1B
100
AcDbEntity
 67
     1
  8
SLD-0
  6
SLD-実線
 62
     7
370
    18
100
AcDbLine
 10
22.7749633301
 20
25.2165204294
 30
0.0
 11
22.9330702822
 21
25.1252373107
 31
0.0
  0
LINE
  5
93
330
1B
100
AcDbEntity
 67
     1
  8
SLD-0
  6
SLD-実線
 62
     7
370
    18
100
AcDbLine
 10
22.952740098
 20
25.0922357366
 30
0.0
 11
23.0499017758
 21
22.8566739719
 31
0.0
  0
LINE
  5
94
330
1B
100
AcDbEntity
 67
     1
  8
SLD-0
  6
SLD-実線
 62
     7
370
    18
100
AcDbLine
 10
20.8851995897
 20
20.5822164076
 30
0.0
 11
20.8851995897
 21
20.6806416024
 31
0.0
  0
LINE
  5
95
330
1B
100
AcDbEntity
 67
     1
  8
SLD-0
  6
SLD-実線
 62
     7
370
    18
100
AcDbLine
 10
20.8851995897
 20
20.5822164076
 30
0.0
 11
20.4324436936
 21
20.5822164076
 31
0.0
  0
LINE
  5
96
330
1B
100
AcDbEntity
 67
     1
  8
SLD-0
  6
SLD-実線
 62
     7
370
    18
100
AcDbLine
 10
21.0229948625
 20
20.6806416024
 30
0.0
 11
21.0229948625
 21
20.7396967193
 31
0.0
  0
LINE
  5
97
330
1B
100
AcDbEntity
 67
     1
  8
SLD-0
  6
SLD-実線
 62
     7
370
    18
100
AcDbLine
 10
21.0229948625
 20
20.6806416024
 30
0.0
 11
20.4324436936
 21
20.6806416024
 31
0.0
  0
LINE
  5
98
330
1B
100
AcDbEntity
 67
     1
  8
SLD-0
  6
SLD-実線
 62
     7
370
    18
100
AcDbLine
 10
21.0229948625
 20
20.7396967193
 30
0.0
 11
20.4324436936
 21
20.7396967193
 31
0.0
  0
LINE
  5
99
330
1B
100
AcDbEntity
 67
     1
  8
SLD-0
  6
SLD-実線
 62
     7
370
    18
100
AcDbLine
 10
20.7572468365
 20
20.7396967193
 30
0.0
 11
20.7572468365
 21
20.7790667972
 31
0.0
  0
LINE
  5
9A
330
1B
100
AcDbEntity
 67
     1
  8
SLD-0
  6
SLD-実線
 62
     7
370
    18
100
AcDbLine
 10
20.4324436936
 20
15.2593818724
 30
0.0
 11
22.4796877456
 21
15.2593818724
 31
0.0
  0
LINE
  5
9B
330
1B
100
AcDbEntity
 67
     1
  8
SLD-0
  6
SLD-実線
 62
     7
370
    18
100
AcDbLine
 10
20.8951480147
 20
15.1019015607
 30
0.0
 11
20.4324436936
 21
15.1019015607
 31
0.0
  0
LINE
  5
9C
330
1B
100
AcDbEntity
 67
     1
  8
SLD-0
  6
SLD-実線
 62
     7
370
    18
100
AcDbLine
 10
20.8951480147
 20
15.1019015607
 30
0.0
 11
21.0526283264
 21
15.2593818724
 31
0.0
  0
LINE
  5
9D
330
1B
100
AcDbEntity
 67
     1
  8
SLD-0
  6
SLD-実線
 62
     7
370
    18
100
AcDbLine
 10
18.0899240572
 20
25.2165203797
 30
0.0
 11
17.9318169739
 21
25.125237261
 31
0.0
  0
LINE
  5
9E
330
1B
100
AcDbEntity
 67
     1
  8
SLD-0
  6
SLD-実線
 62
     7
370
    18
100
AcDbLine
 10
17.9121471362
 20
25.0922357203
 30
0.0
 11
17.8240896795
 21
23.1841966686
 31
0.0
  0
LINE
  5
9F
330
1B
100
AcDbEntity
 67
     1
  8
SLD-0
  6
SLD-実線
 62
     7
370
    18
100
AcDbLine
 10
20.1076405508
 20
20.7396967193
 30
0.0
 11
20.1076405508
 21
20.7790667972
 31
0.0
  0
LINE
  5
A0
330
1B
100
AcDbEntity
 67
     1
  8
SLD-0
  6
SLD-実線
 62
     7
370
    18
100
AcDbLine
 10
19.8418925248
 20
20.7396967193
 30
0.0
 11
20.4324436936
 21
20.7396967193
 31
0.0
  0
LINE
  5
A1
330
1B
100
AcDbEntity
 67
     1
  8
SLD-0
  6
SLD-実線
 62
     7
370
    18
100
AcDbLine
 10
19.8418925248
 20
20.6806416024
 30
0.0
 11
20.4324436936
 21
20.6806416024
 31
0.0
  0
LINE
  5
A2
330
1B
100
AcDbEntity
 67
     1
  8
SLD-0
  6
SLD-実線
 62
     7
370
    18
100
AcDbLine
 10
19.8418925248
 20
20.6806416024
 30
0.0
 11
19.8418925248
 21
20.7396967193
 31
0.0
  0
LINE
  5
A3
330
1B
100
AcDbEntity
 67
     1
  8
SLD-0
  6
SLD-実線
 62
     7
370
    18
100
AcDbLine
 10
19.9796877975
 20
20.5822164076
 30
0.0
 11
20.4324436936
 21
20.5822164076
 31
0.0
  0
LINE
  5
A4
330
1B
100
AcDbEntity
 67
     1
  8
SLD-0
  6
SLD-実線
 62
     7
370
    18
100
AcDbLine
 10
19.9796877975
 20
20.5822164076
 30
0.0
 11
19.9796877975
 21
20.6806416024
 31
0.0
  0
LINE
  5
A5
330
1B
100
AcDbEntity
 67
     1
  8
SLD-0
  6
SLD-実線
 62
     7
370
    18
100
AcDbLine
 10
20.0977980313
 20
20.7790667972
 30
0.0
 11
20.4324436936
 21
20.7790667972
 31
0.0
  0
LINE
  5
A6
330
1B
100
AcDbEntity
 67
     1
  8
SLD-0
  6
SLD-実線
 62
     7
370
    18
100
AcDbLine
 10
20.0977980313
 20
20.7790667972
 30
0.0
 11
20.0977980313
 21
20.857806953
 31
0.0
  0
LINE
  5
A7
330
1B
100
AcDbEntity
 67
     1
  8
SLD-0
  6
SLD-実線
 62
     7
370
    18
100
AcDbLine
 10
20.1076405508
 20
20.5428463297
 30
0.0
 11
20.1076405508
 21
20.5822164076
 31
0.0
  0
LINE
  5
A8
330
1B
100
AcDbEntity
 67
     1
  8
SLD-0
  6
SLD-実線
 62
     7
370
    18
100
AcDbLine
 10
20.4324436936
 20
20.9759171868
 30
0.0
 11
17.9718138234
 21
20.9759171868
 31
0.0
  0
LINE
  5
A9
330
1B
100
AcDbEntity
 67
     1
  8
SLD-0
  6
SLD-実線
 62
     7
370
    18
100
AcDbLine
 10
20.4324436936
 20
20.857806953
 30
0.0
 11
18.3261445247
 21
20.857806953
 31
0.0
  0
LINE
  5
AA
330
1B
100
AcDbEntity
 67
     1
  8
SLD-0
  6
SLD-実線
 62
     7
370
    18
100
AcDbLine
 10
20.4324436936
 20
20.857806953
 30
0.0
 11
22.5387428625
 21
20.857806953
 31
0.0
  0
LINE
  5
AB
330
1B
100
AcDbEntity
 67
     1
  8
SLD-0
  6
SLD-実線
 62
     7
370
    18
100
AcDbLine
 10
20.4324436936
 20
15.3499330516
 30
0.0
 11
22.4796877456
 21
15.3499330516
 31
0.0
  0
LINE
  5
AC
330
1B
100
AcDbEntity
 67
     1
  8
SLD-0
  6
SLD-実線
 62
     7
370
    18
100
AcDbLine
 10
22.4796877456
 20
15.2593818724
 30
0.0
 11
22.4796877456
 21
15.9404842204
 31
0.0
  0
LINE
  5
AD
330
1B
100
AcDbEntity
 67
     1
  8
SLD-0
  6
SLD-鎖線
 62
     7
370
    18
100
AcDbLine
 10
20.4324436936
 20
4.5213693655
 30
0.0
 11
20.4324436936
 21
11.5199165956
 31
0.0
  0
LINE
  5
AE
330
1B
100
AcDbEntity
 67
     1
  8
SLD-0
  6
SLD-鎖線
 62
     7
370
    18
100
AcDbLine
 10
22.6562953535
 20
5.1213910066
 30
0.0
 11
22.0818800111
 21
5.695806349
 31
0.0
  0
LINE
  5
AF
330
1B
100
AcDbEntity
 67
     1
  8
SLD-0
  6
SLD-実線
 62
     7
370
    18
100
AcDbLine
 10
17.9573420389
 20
23.0231612388
 30
0.0
 11
17.6861489999
 21
23.0231612388
 31
0.0
  0
LINE
  5
B0
330
1B
100
AcDbEntity
 67
     1
  8
SLD-0
  6
SLD-実線
 62
     7
370
    18
100
AcDbLine
 10
18.3735565972
 20
22.5684153165
 30
0.0
 11
18.3735565972
 21
22.0389092907
 31
0.0
  0
LINE
  5
B1
330
1B
100
AcDbEntity
 67
     1
  8
SLD-0
  6
SLD-実線
 62
     7
370
    18
100
AcDbLine
 10
17.951380228
 20
22.9931057276
 30
0.0
 11
17.951380228
 21
22.0389092907
 31
0.0
  0
LINE
  5
B2
330
1B
100
AcDbEntity
 67
     1
  8
SLD-0
  6
SLD-実線
 62
     7
370
    18
100
AcDbLine
 10
17.680187189
 20
22.9931057276
 30
0.0
 11
17.680187189
 21
22.1176494466
 31
0.0
  0
LINE
  5
B3
330
1B
100
AcDbEntity
 67
     1
  8
SLD-0
  6
SLD-実線
 62
     7
370
    18
100
AcDbLine
 10
18.3735565972
 20
23.4956021739
 30
0.0
 11
17.9714069993
 21
23.0455723932
 31
0.0
  0
LINE
  5
B4
330
1B
100
AcDbEntity
 67
     1
  8
SLD-0
  6
SLD-実線
 62
     7
370
    18
100
AcDbLine
 10
18.0858405927
 20
23.4771118856
 30
0.0
 11
17.7002139603
 21
23.0455723932
 31
0.0
  0
LINE
  5
B5
330
1B
100
AcDbEntity
 67
     1
  8
SLD-0
  6
SLD-実線
 62
     7
370
    18
100
AcDbLine
 10
23.184700067
 20
23.0231612388
 30
0.0
 11
23.184700067
 21
22.1176494466
 31
0.0
  0
LINE
  5
B6
330
1B
100
AcDbEntity
 67
     1
  8
SLD-0
  6
SLD-実線
 62
     7
370
    18
100
AcDbLine
 10
23.184700067
 20
23.0231612388
 30
0.0
 11
23.0406151618
 21
23.1907600542
 31
0.0
  0
LINE
  5
B7
330
1B
100
AcDbEntity
 67
     1
  8
SLD-0
  6
SLD-実線
 62
     7
370
    18
100
AcDbLine
 10
18.3735565972
 20
22.0389092907
 30
0.0
 11
17.7589273449
 21
22.0389092907
 31
0.0
  0
LINE
  5
B8
330
1B
100
AcDbEntity
 67
     1
  8
SLD-0
  6
SLD-実線
 62
     7
370
    18
100
AcDbLine
 10
22.8340184469
 20
22.0389092907
 30
0.0
 11
23.1059599111
 21
22.0389092907
 31
0.0
  0
LINE
  5
B9
330
1B
100
AcDbEntity
 67
     1
  8
SLD-0
  6
SLD-実線
 62
     7
370
    18
100
AcDbLine
 10
22.0649504839
 20
15.0822165217
 30
0.0
 11
22.3405410294
 21
15.0822165217
 31
0.0
  0
LINE
  5
BA
330
1B
100
AcDbEntity
 67
     1
  8
SLD-0
  6
SLD-実線
 62
     7
370
    18
100
AcDbLine
 10
22.3405410294
 20
15.0822165217
 30
0.0
 11
22.3405410294
 21
15.2593818724
 31
0.0
  0
LINE
  5
BB
330
1B
100
AcDbEntity
 67
     1
  8
SLD-0
  6
SLD-実線
 62
     7
370
    18
100
AcDbLine
 10
22.0649504839
 20
15.0822165217
 30
0.0
 11
22.0649504839
 21
15.2593818724
 31
0.0
  0
LINE
  5
BC
330
1B
100
AcDbEntity
 67
     1
  8
SLD-0
  6
SLD-鎖線
 62
     7
370
    18
100
AcDbLine
 10
22.2027457566
 20
14.9969536626
 30
0.0
 11
22.2027457566
 21
15.4328052283
 31
0.0
  0
LINE
  5
BD
330
1B
100
AcDbEntity
 67
     1
  8
SLD-0
  6
SLD-鎖線
 62
     7
370
    18
100
AcDbLine
 10
17.2250566211
 20
7.3452426665
 30
0.0
 11
23.176955054
 21
7.3452426665
 31
0.0
  0
LINE
  5
BE
330
1B
100
AcDbEntity
 67
     1
  8
SLD-0
  6
SLD-実線
 62
     7
370
    18
100
AcDbLine
 10
21.6135460313
 20
16.3341849997
 30
0.0
 11
21.6135460313
 21
19.2172554123
 31
0.0
  0
LINE
  5
BF
330
1B
100
AcDbEntity
 67
     1
  8
SLD-0
  6
SLD-実線
 62
     7
370
    18
100
AcDbLine
 10
21.9285066547
 20
16.3341849997
 30
0.0
 11
21.9285066547
 21
19.1862558066
 31
0.0
  0
LINE
  5
C0
330
1B
100
AcDbEntity
 67
     1
  8
SLD-0
  6
SLD-実線
 62
     7
370
    18
100
AcDbLine
 10
20.4324436936
 20
26.1333973948
 30
0.0
 11
21.5741759534
 21
26.1333973948
 31
0.0
  0
LINE
  5
C1
330
1B
100
AcDbEntity
 67
     1
  8
SLD-0
  6
SLD-実線
 62
     7
370
    18
100
AcDbLine
 10
20.4324436936
 20
26.0546572389
 30
0.0
 11
21.6383129599
 21
26.0546572389
 31
0.0
  0
LINE
  5
C2
330
1B
100
AcDbEntity
 67
     1
  8
SLD-0
  6
SLD-実線
 62
     7
370
    18
100
AcDbLine
 10
21.6135460313
 20
26.0912187867
 30
0.0
 11
21.6135460313
 21
26.0940273168
 31
0.0
  0
LINE
  5
C3
330
1B
100
AcDbEntity
 67
     1
  8
SLD-0
  6
SLD-実線
 62
     7
370
    18
100
AcDbLine
 10
22.6055835435
 20
25.9811729885
 30
0.0
 11
21.6500077103
 21
26.0519563203
 31
0.0
  0
LINE
  5
C4
330
1B
100
AcDbEntity
 67
     1
  8
SLD-0
  6
SLD-実線
 62
     7
370
    18
100
AcDbLine
 10
18.2593037107
 20
25.9811729429
 30
0.0
 11
19.2148795457
 21
26.0519563203
 31
0.0
  0
LINE
  5
C5
330
1B
100
AcDbEntity
 67
     1
  8
SLD-0
  6
SLD-実線
 62
     7
370
    18
100
AcDbLine
 10
20.4324436936
 20
26.0546572389
 30
0.0
 11
19.2265742961
 21
26.0546572389
 31
0.0
  0
LINE
  5
C6
330
1B
100
AcDbEntity
 67
     1
  8
SLD-0
  6
SLD-実線
 62
     7
370
    18
100
AcDbLine
 10
19.2513413559
 20
26.0912187867
 30
0.0
 11
19.2513413559
 21
26.0940273168
 31
0.0
  0
LINE
  5
C7
330
1B
100
AcDbEntity
 67
     1
  8
SLD-0
  6
SLD-実線
 62
     7
370
    18
100
AcDbLine
 10
20.4324436936
 20
26.1333973948
 30
0.0
 11
19.2907114338
 21
26.1333973948
 31
0.0
  0
LINE
  5
C8
330
1B
100
AcDbEntity
 67
     1
  8
SLD-0
  6
SLD-実線
 62
     7
370
    18
100
AcDbLine
 10
18.1864094883
 20
25.9047945124
 30
0.0
 11
18.0858405927
 21
23.4771118856
 31
0.0
  0
LINE
  5
C9
330
1B
100
AcDbEntity
 67
     1
  8
SLD-0
  6
SLD-実線
 62
     7
370
    18
100
AcDbLine
 10
18.1096090961
 20
25.250615917
 30
0.0
 11
18.1096090961
 21
25.503476148
 31
0.0
  0
LINE
  5
CA
330
1B
100
AcDbEntity
 67
     1
  8
SLD-0
  6
SLD-実線
 62
     7
370
    18
100
AcDbLine
 10
22.7552782911
 20
25.250615917
 30
0.0
 11
22.7552782911
 21
25.503476148
 31
0.0
  0
LINE
  5
CB
330
1B
100
AcDbEntity
 67
     1
  8
SLD-0
  6
SLD-実線
 62
     7
370
    18
100
AcDbLine
 10
22.7749633301
 20
25.2165204294
 30
0.0
 11
22.9330702822
 21
25.1252373107
 31
0.0
  0
LINE
  5
CC
330
1B
100
AcDbEntity
 67
     1
  8
SLD-0
  6
SLD-実線
 62
     7
370
    18
100
AcDbLine
 10
21.6493129597
 20
25.5814779836
 30
0.0
 11
21.6214583671
 21
25.5814779836
 31
0.0
  0
LINE
  5
CD
330
1B
100
AcDbEntity
 67
     1
  8
SLD-0
  6
SLD-実線
 62
     7
370
    18
100
AcDbLine
 10
22.2271583545
 20
26.009204484
 30
0.0
 11
22.2271583545
 21
22.9050510051
 31
0.0
  0
LINE
  5
CE
330
1B
100
AcDbEntity
 67
     1
  8
SLD-0
  6
SLD-実線
 62
     7
370
    18
100
AcDbLine
 10
22.1158029763
 20
26.0174530402
 30
0.0
 11
22.1158029763
 21
22.9050510051
 31
0.0
  0
LINE
  5
CF
330
1B
100
AcDbEntity
 67
     1
  8
SLD-0
  6
SLD-実線
 62
     7
370
    18
100
AcDbLine
 10
21.9626032419
 20
26.0288010715
 30
0.0
 11
21.9626032419
 21
22.9050510051
 31
0.0
  0
LINE
  5
D0
330
1B
100
AcDbEntity
 67
     1
  8
SLD-0
  6
SLD-実線
 62
     7
370
    18
100
AcDbLine
 10
22.5456292141
 20
25.0748665768
 30
0.0
 11
22.5456292141
 21
22.9050510051
 31
0.0
  0
LINE
  5
D1
330
1B
100
AcDbEntity
 67
     1
  8
SLD-0
  6
SLD-実線
 62
     7
370
    18
100
AcDbLine
 10
22.2927674083
 20
25.5814779836
 30
0.0
 11
22.2927674083
 21
22.9050510051
 31
0.0
  0
LINE
  5
D2
330
1B
100
AcDbEntity
 67
     1
  8
SLD-0
  6
SLD-実線
 62
     7
370
    18
100
AcDbLine
 10
22.3214659641
 20
25.5814779836
 30
0.0
 11
22.2927674083
 21
25.5814779836
 31
0.0
  0
LINE
  5
D3
330
1B
100
AcDbEntity
 67
     1
  8
SLD-0
  6
SLD-実線
 62
     7
370
    18
100
AcDbLine
 10
22.40020612
 20
25.2423387518
 30
0.0
 11
22.40020612
 21
25.5027378278
 31
0.0
  0
LINE
  5
D4
330
1B
100
AcDbEntity
 67
     1
  8
SLD-0
  6
SLD-実線
 62
     7
370
    18
100
AcDbLine
 10
18.7490842797
 20
26.0174530402
 30
0.0
 11
18.7490842797
 21
22.9050510051
 31
0.0
  0
LINE
  5
D5
330
1B
100
AcDbEntity
 67
     1
  8
SLD-0
  6
SLD-実線
 62
     7
370
    18
100
AcDbLine
 10
18.6377289015
 20
26.009204484
 30
0.0
 11
18.6377289015
 21
22.9050510051
 31
0.0
  0
LINE
  5
D6
330
1B
100
AcDbEntity
 67
     1
  8
SLD-0
  6
SLD-実線
 62
     7
370
    18
100
AcDbLine
 10
18.9022840141
 20
26.0288010715
 30
0.0
 11
18.9022840141
 21
22.9050510051
 31
0.0
  0
LINE
  5
D7
330
1B
100
AcDbEntity
 67
     1
  8
SLD-0
  6
SLD-実線
 62
     7
370
    18
100
AcDbLine
 10
22.7603290784
 20
22.9050510051
 30
0.0
 11
22.7603290784
 21
25.0731560782
 31
0.0
  0
LINE
  5
D8
330
1B
100
AcDbEntity
 67
     1
  8
SLD-0
  6
SLD-実線
 62
     7
370
    18
100
AcDbLine
 10
22.4903311837
 20
25.5814779836
 30
0.0
 11
22.4903311837
 21
25.1427085702
 31
0.0
  0
LINE
  5
D9
330
1B
100
AcDbEntity
 67
     1
  8
SLD-0
  6
SLD-実線
 62
     7
370
    18
100
AcDbLine
 10
22.5921872184
 20
25.2440491193
 30
0.0
 11
22.5921872184
 21
25.5027378278
 31
0.0
  0
LINE
  5
DA
330
1B
100
AcDbEntity
 67
     1
  8
SLD-0
  6
SLD-実線
 62
     7
370
    18
100
AcDbLine
 10
22.4903311837
 20
25.5814779836
 30
0.0
 11
22.5134470625
 21
25.5814779836
 31
0.0
  0
LINE
  5
DB
330
1B
100
AcDbEntity
 67
     1
  8
SLD-0
  6
SLD-実線
 62
     7
370
    18
100
AcDbLine
 10
22.6071629398
 20
25.2131474139
 30
0.0
 11
22.7453532257
 21
25.1040577836
 31
0.0
  0
LINE
  5
DC
330
1B
100
AcDbEntity
 67
     1
  8
SLD-0
  6
SLD-実線
 62
     7
370
    18
100
AcDbLine
 10
22.5328004742
 20
25.1039451852
 30
0.0
 11
22.4130348599
 21
25.2132601435
 31
0.0
  0
LINE
  5
DD
330
1B
100
AcDbEntity
 67
     1
  8
SLD-0
  6
SLD-鎖線
 62
     7
370
    18
100
AcDbLine
 10
19.7350923958
 20
10.5460300017
 30
0.0
 11
21.1486312116
 21
10.5460300017
 31
0.0
  0
LINE
  5
DE
330
1B
100
AcDbEntity
 67
     1
  8
SLD-0
  6
SLD-実線
 62
     7
370
    18
100
AcDbLine
 10
17.6371681611
 20
21.1333974985
 30
0.0
 11
17.6371681611
 21
22.0782793687
 31
0.0
  0
LINE
  5
DF
330
1B
100
AcDbEntity
 67
     1
  8
SLD-0
  6
SLD-実線
 62
     7
370
    18
100
AcDbLine
 10
20.4324436936
 20
21.2515077323
 30
0.0
 11
18.0111839013
 21
21.2515077323
 31
0.0
  0
LINE
  5
E0
330
1B
100
AcDbEntity
 67
     1
  8
SLD-0
  6
SLD-実線
 62
     7
370
    18
100
AcDbLine
 10
17.9718138234
 20
20.9759171868
 30
0.0
 11
17.9718138234
 21
21.2121376544
 31
0.0
  0
LINE
  5
E1
330
1B
100
AcDbEntity
 67
     1
  8
SLD-0
  6
SLD-実線
 62
     7
370
    18
100
AcDbLine
 10
18.3261445247
 20
20.857806953
 30
0.0
 11
18.3261445247
 21
20.9759171868
 31
0.0
  0
LINE
  5
E2
330
1B
100
AcDbEntity
 67
     1
  8
SLD-0
  6
SLD-実線
 62
     7
370
    18
100
AcDbLine
 10
18.0308689403
 20
22.1570195245
 30
0.0
 11
17.7159083169
 21
22.1570195245
 31
0.0
  0
LINE
  5
E3
330
1B
100
AcDbEntity
 67
     1
  8
SLD-0
  6
SLD-実線
 62
     7
370
    18
100
AcDbLine
 10
18.0308689403
 20
21.2515077323
 30
0.0
 11
18.0308689403
 21
22.9050510051
 31
0.0
  0
LINE
  5
E4
330
1B
100
AcDbEntity
 67
     1
  8
SLD-0
  6
SLD-実線
 62
     7
370
    18
100
AcDbLine
 10
17.9718138234
 20
21.0546573427
 30
0.0
 11
17.7159083169
 21
21.0546573427
 31
0.0
  0
LINE
  5
E5
330
1B
100
AcDbEntity
 67
     1
  8
SLD-0
  6
SLD-鎖線
 62
     7
370
    18
100
AcDbLine
 10
18.5467273285
 20
21.5664683557
 30
0.0
 11
17.4378684277
 21
21.5664683557
 31
0.0
  0
LINE
  5
E6
330
1B
100
AcDbEntity
 67
     1
  8
SLD-0
  6
SLD-破線
 62
     7
370
    18
100
AcDbLine
 10
18.0308689403
 20
21.901114018
 30
0.0
 11
17.6371681611
 21
21.901114018
 31
0.0
  0
LINE
  5
E7
330
1B
100
AcDbEntity
 67
     1
  8
SLD-0
  6
SLD-破線
 62
     7
370
    18
100
AcDbLine
 10
18.0308689403
 20
21.8420589011
 30
0.0
 11
17.6371681611
 21
21.8420589011
 31
0.0
  0
LINE
  5
E8
330
1B
100
AcDbEntity
 67
     1
  8
SLD-0
  6
SLD-破線
 62
     7
370
    18
100
AcDbLine
 10
18.0308689403
 20
21.2908778102
 30
0.0
 11
17.6371681611
 21
21.2908778102
 31
0.0
  0
LINE
  5
E9
330
1B
100
AcDbEntity
 67
     1
  8
SLD-0
  6
SLD-破線
 62
     7
370
    18
100
AcDbLine
 10
18.0308689403
 20
21.2318226933
 30
0.0
 11
17.6371681611
 21
21.2318226933
 31
0.0
  0
LINE
  5
EA
330
1B
100
AcDbEntity
 67
     1
  8
SLD-0
  6
SLD-実線
 62
     7
370
    18
100
AcDbLine
 10
22.8340184469
 20
21.2515077323
 30
0.0
 11
22.8340184469
 21
22.9050510051
 31
0.0
  0
LINE
  5
EB
330
1B
100
AcDbEntity
 67
     1
  8
SLD-0
  6
SLD-実線
 62
     7
370
    18
100
AcDbLine
 10
22.8930735638
 20
20.9759171868
 30
0.0
 11
22.8930735638
 21
21.2121376544
 31
0.0
  0
LINE
  5
EC
330
1B
100
AcDbEntity
 67
     1
  8
SLD-0
  6
SLD-実線
 62
     7
370
    18
100
AcDbLine
 10
20.4324436936
 20
20.9759171868
 30
0.0
 11
22.8930735638
 21
20.9759171868
 31
0.0
  0
LINE
  5
ED
330
1B
100
AcDbEntity
 67
     1
  8
SLD-0
  6
SLD-実線
 62
     7
370
    18
100
AcDbLine
 10
20.4324436936
 20
21.2515077323
 30
0.0
 11
22.8537034859
 21
21.2515077323
 31
0.0
  0
LINE
  5
EE
330
1B
100
AcDbEntity
 67
     1
  8
SLD-0
  6
SLD-実線
 62
     7
370
    18
100
AcDbLine
 10
22.5387428625
 20
20.857806953
 30
0.0
 11
22.5387428625
 21
20.9759171868
 31
0.0
  0
LINE
  5
EF
330
1B
100
AcDbEntity
 67
     1
  8
SLD-0
  6
SLD-実線
 62
     7
370
    18
100
AcDbLine
 10
22.4796877456
 20
15.9404842204
 30
0.0
 11
22.4796877456
 21
20.8184368751
 31
0.0
  0
LINE
  5
F0
330
1B
100
AcDbEntity
 67
     1
  8
SLD-0
  6
SLD-実線
 62
     7
370
    18
100
AcDbLine
 10
20.4324436936
 20
15.2593818724
 30
0.0
 11
18.3851996416
 21
15.2593818724
 31
0.0
  0
LINE
  5
F1
330
1B
100
AcDbEntity
 67
     1
  8
SLD-0
  6
SLD-実線
 62
     7
370
    18
100
AcDbLine
 10
20.4324436936
 20
15.3499330516
 30
0.0
 11
18.3851996416
 21
15.3499330516
 31
0.0
  0
LINE
  5
F2
330
1B
100
AcDbEntity
 67
     1
  8
SLD-0
  6
SLD-実線
 62
     7
370
    18
100
AcDbLine
 10
20.4324436936
 20
15.664893675
 30
0.0
 11
18.4639397975
 21
15.664893675
 31
0.0
  0
LINE
  5
F3
330
1B
100
AcDbEntity
 67
     1
  8
SLD-0
  6
SLD-実線
 62
     7
370
    18
100
AcDbLine
 10
18.3851996416
 20
15.9404842204
 30
0.0
 11
18.3851996416
 21
20.8184368751
 31
0.0
  0
LINE
  5
F4
330
1B
100
AcDbEntity
 67
     1
  8
SLD-0
  6
SLD-実線
 62
     7
370
    18
100
AcDbLine
 10
18.3851996416
 20
15.2593818724
 30
0.0
 11
18.3851996416
 21
15.9404842204
 31
0.0
  0
LINE
  5
F5
330
1B
100
AcDbEntity
 67
     1
  8
SLD-0
  6
SLD-実線
 62
     7
370
    18
100
AcDbLine
 10
20.4324436936
 20
16.1373346101
 30
0.0
 11
18.5820500312
 21
16.1373346101
 31
0.0
  0
LINE
  5
F6
330
1B
100
AcDbEntity
 67
     1
  8
SLD-0
  6
SLD-鎖線
 62
     7
370
    18
100
AcDbLine
 10
18.6621414994
 20
14.9969536626
 30
0.0
 11
18.6621414994
 21
15.4328052283
 31
0.0
  0
LINE
  5
F7
330
1B
100
AcDbEntity
 67
     1
  8
SLD-0
  6
SLD-実線
 62
     7
370
    18
100
AcDbLine
 10
18.7999367721
 20
15.0822165217
 30
0.0
 11
18.7999367721
 21
15.2593818724
 31
0.0
  0
LINE
  5
F8
330
1B
100
AcDbEntity
 67
     1
  8
SLD-0
  6
SLD-実線
 62
     7
370
    18
100
AcDbLine
 10
18.5243462267
 20
15.0822165217
 30
0.0
 11
18.5243462267
 21
15.2593818724
 31
0.0
  0
LINE
  5
F9
330
1B
100
AcDbEntity
 67
     1
  8
SLD-0
  6
SLD-実線
 62
     7
370
    18
100
AcDbLine
 10
18.7999367721
 20
15.0822165217
 30
0.0
 11
18.5243462267
 21
15.0822165217
 31
0.0
  0
LINE
  5
FA
330
1B
100
AcDbEntity
 67
     1
  8
SLD-0
  6
SLD-実線
 62
     7
370
    18
100
AcDbLine
 10
19.2513413559
 20
16.3341849997
 30
0.0
 11
19.2513413559
 21
20.6609565634
 31
0.0
  0
LINE
  5
FB
330
1B
100
AcDbEntity
 67
     1
  8
SLD-0
  6
SLD-実線
 62
     7
370
    18
100
AcDbLine
 10
18.9363807325
 20
16.3341849997
 30
0.0
 11
18.9363807325
 21
20.6609565634
 31
0.0
  0
LINE
  5
FC
330
1B
100
AcDbEntity
 67
     1
  8
SLD-0
  6
SLD-実線
 62
     7
370
    18
100
AcDbLine
 10
19.9697392413
 20
15.1019015607
 30
0.0
 11
19.8122589296
 21
15.2593818724
 31
0.0
  0
LINE
  5
FD
330
1B
100
AcDbEntity
 67
     1
  8
SLD-0
  6
SLD-実線
 62
     7
370
    18
100
AcDbLine
 10
19.9697392413
 20
15.1019015607
 30
0.0
 11
20.4324436936
 21
15.1019015607
 31
0.0
  0
LINE
  5
FE
330
1B
100
AcDbEntity
 67
     1
  8
SLD-0
  6
SLD-実線
 62
     7
370
    18
100
AcDbLine
 10
19.5072468624
 20
16.176704688
 30
0.0
 11
19.5072468624
 21
16.2554448438
 31
0.0
  0
LINE
  5
FF
330
1B
100
AcDbEntity
 67
     1
  8
SLD-0
  6
SLD-実線
 62
     7
370
    18
100
AcDbLine
 10
19.704097252
 20
16.2554448438
 30
0.0
 11
19.5072468624
 21
16.2554448438
 31
0.0
  0
LINE
  5
100
330
1B
100
AcDbEntity
 67
     1
  8
SLD-0
  6
SLD-実線
 62
     7
370
    18
100
AcDbLine
 10
19.704097252
 20
16.1373346101
 30
0.0
 11
19.704097252
 21
16.2554448438
 31
0.0
  0
LINE
  5
101
330
1B
100
AcDbEntity
 67
     1
  8
SLD-0
  6
SLD-鎖線
 62
     7
370
    18
100
AcDbLine
 10
18.3307828448
 20
6.782104358
 30
0.0
 11
18.9399093414
 21
6.9453193152
 31
0.0
  0
LINE
  5
102
330
1B
100
AcDbEntity
 67
     1
  8
SLD-0
  6
SLD-鎖線
 62
     7
370
    18
100
AcDbLine
 10
21.9709661026
 20
5.8067202575
 30
0.0
 11
21.5250545633
 21
6.2526317968
 31
0.0
  0
LINE
  5
103
330
1B
100
AcDbEntity
 67
     1
  8
SLD-0
  6
SLD-鎖線
 62
     7
370
    18
100
AcDbLine
 10
20.9955820021
 20
9.4469035153
 30
0.0
 11
20.8323670449
 21
8.8377770187
 31
0.0
  0
LINE
  5
104
330
1B
100
AcDbEntity
 67
     1
  8
SLD-0
  6
SLD-実線
 62
     7
370
    18
100
AcDbLine
 10
22.8930735638
 20
5.7130454563
 30
0.0
 11
22.8930735638
 21
8.9774398767
 31
0.0
  0
LINE
  5
105
330
1B
100
AcDbEntity
 67
     1
  8
SLD-0
  6
SLD-実線
 62
     7
370
    18
100
AcDbLine
 10
17.9718138234
 20
5.7130454563
 30
0.0
 11
17.9718138234
 21
8.9774398767
 31
0.0
  0
LINE
  5
106
330
1B
100
AcDbEntity
 67
     1
  8
SLD-0
  6
SLD-実線
 62
     7
370
    18
100
AcDbLine
 10
18.8002464834
 20
9.8058725367
 30
0.0
 11
22.0646407726
 21
9.8058725367
 31
0.0
  0
LINE
  5
107
330
1B
100
AcDbEntity
 67
     1
  8
SLD-0
  6
SLD-実線
 62
     7
370
    18
100
AcDbLine
 10
18.8002464834
 20
4.8846127963
 30
0.0
 11
22.0646407726
 21
4.8846127963
 31
0.0
  0
LINE
  5
108
330
1B
100
AcDbEntity
 67
     1
  8
SLD-0
  6
SLD-実線
 62
     7
370
    18
100
AcDbLine
 10
17.6371681611
 20
6.8334316535
 30
0.0
 11
17.6371681611
 21
7.8570536795
 31
0.0
  0
LINE
  5
109
330
1B
100
AcDbEntity
 67
     1
  8
SLD-0
  6
SLD-実線
 62
     7
370
    18
100
AcDbLine
 10
17.7159083169
 20
7.9357938354
 30
0.0
 11
17.8537035896
 21
7.9357938354
 31
0.0
  0
LINE
  5
10A
330
1B
100
AcDbEntity
 67
     1
  8
SLD-0
  6
SLD-実線
 62
     7
370
    18
100
AcDbLine
 10
17.7159083169
 20
6.7546914977
 30
0.0
 11
17.8537035896
 21
6.7546914977
 31
0.0
  0
LINE
  5
10B
330
1B
100
AcDbEntity
 67
     1
  8
SLD-0
  6
SLD-鎖線
 62
     7
370
    18
100
AcDbLine
 10
22.0106251569
 20
8.9234242611
 30
0.0
 11
22.6104893177
 21
9.5232884218
 31
0.0
  0
LINE
  5
10C
330
1B
100
AcDbEntity
 67
     1
  8
SLD-0
  6
SLD-鎖線
 62
     7
370
    18
100
AcDbLine
 10
18.8542620991
 20
5.7670612032
 30
0.0
 11
18.2543979383
 21
5.1671970424
 31
0.0
  0
LINE
  5
10D
330
1B
100
AcDbEntity
 67
     1
  8
SLD-0
  6
SLD-鎖線
 62
     7
370
    18
100
AcDbLine
 10
18.2085919025
 20
9.5690944576
 30
0.0
 11
18.7830072449
 21
8.9946791152
 31
0.0
  0
LINE
  5
10E
330
1B
100
AcDbEntity
 67
     1
  8
SLD-0
  6
SLD-実線
 62
     7
370
    18
100
AcDbLine
 10
19.7631523689
 20
16.8066259347
 30
0.0
 11
19.7631523689
 21
16.9641062464
 31
0.0
  0
LINE
  5
10F
330
1B
100
AcDbEntity
 67
     1
  8
SLD-0
  6
SLD-実線
 62
     7
370
    18
100
AcDbLine
 10
19.7631523689
 20
16.8066259347
 30
0.0
 11
19.2513413559
 21
16.8066259347
 31
0.0
  0
LINE
  5
110
330
1B
100
AcDbEntity
 67
     1
  8
SLD-0
  6
SLD-実線
 62
     7
370
    18
100
AcDbLine
 10
19.4481917455
 20
17.2790668698
 30
0.0
 11
19.2513413559
 21
17.2790668698
 31
0.0
  0
LINE
  5
111
330
1B
100
AcDbEntity
 67
     1
  8
SLD-0
  6
SLD-実線
 62
     7
370
    18
100
AcDbLine
 10
19.7631523689
 20
16.9641062464
 30
0.0
 11
19.4481917455
 21
17.2790668698
 31
0.0
  0
LINE
  5
112
330
1B
100
AcDbEntity
 67
     1
  8
SLD-0
  6
SLD-実線
 62
     7
370
    18
100
AcDbLine
 10
21.1017350183
 20
16.8066259347
 30
0.0
 11
21.6135460313
 21
16.8066259347
 31
0.0
  0
LINE
  5
113
330
1B
100
AcDbEntity
 67
     1
  8
SLD-0
  6
SLD-実線
 62
     7
370
    18
100
AcDbLine
 10
21.4166956417
 20
17.2790668698
 30
0.0
 11
21.6135460313
 21
17.2790668698
 31
0.0
  0
LINE
  5
114
330
1B
100
AcDbEntity
 67
     1
  8
SLD-0
  6
SLD-実線
 62
     7
370
    18
100
AcDbLine
 10
21.1017350183
 20
16.9641062464
 30
0.0
 11
21.4166956417
 21
17.2790668698
 31
0.0
  0
LINE
  5
115
330
1B
100
AcDbEntity
 67
     1
  8
SLD-0
  6
SLD-実線
 62
     7
370
    18
100
AcDbLine
 10
21.1017350183
 20
16.8066259347
 30
0.0
 11
21.1017350183
 21
16.9641062464
 31
0.0
  0
LINE
  5
116
330
1B
100
AcDbEntity
 67
     1
  8
SLD-0
  6
SLD-鎖線
 62
     7
370
    18
100
AcDbLine
 10
20.4324436936
 20
14.8985390977
 30
0.0
 11
20.4324436936
 21
26.4135055254
 31
0.0
  0
LINE
  5
117
330
1B
100
AcDbEntity
 67
     1
  8
SLD-0
  6
SLD-実線
 62
     7
370
    18
100
AcDbLine
 10
21.6135460313
 20
20.1854787518
 30
0.0
 11
21.6135460313
 21
20.6609565634
 31
0.0
  0
LINE
  5
118
330
1B
100
AcDbEntity
 67
     1
  8
SLD-0
  6
SLD-実線
 62
     7
370
    18
100
AcDbLine
 10
21.9285066547
 20
20.1751455499
 30
0.0
 11
21.9285066547
 21
20.6609565634
 31
0.0
  0
LINE
  5
119
330
1B
100
AcDbEntity
 67
     1
  8
SLD-0
  6
SLD-破線
 62
     7
370
    18
100
AcDbLine
 10
17.9718138234
 20
7.6798883289
 30
0.0
 11
17.6371681611
 21
7.6798883289
 31
0.0
  0
LINE
  5
11A
330
1B
100
AcDbEntity
 67
     1
  8
SLD-0
  6
SLD-破線
 62
     7
370
    18
100
AcDbLine
 10
17.9718138234
 20
7.620833212
 30
0.0
 11
17.6371681611
 21
7.620833212
 31
0.0
  0
LINE
  5
11B
330
1B
100
AcDbEntity
 67
     1
  8
SLD-0
  6
SLD-破線
 62
     7
370
    18
100
AcDbLine
 10
17.9718138234
 20
7.069652121
 30
0.0
 11
17.6371681611
 21
7.069652121
 31
0.0
  0
LINE
  5
11C
330
1B
100
AcDbEntity
 67
     1
  8
SLD-0
  6
SLD-破線
 62
     7
370
    18
100
AcDbLine
 10
17.9718138234
 20
7.0105970042
 30
0.0
 11
17.6371681611
 21
7.0105970042
 31
0.0
  0
LINE
  5
11D
330
1B
100
AcDbEntity
 67
     1
  8
1
  6
SLD-実線
 62
     7
370
    18
100
AcDbLine
 10
19.0466169507
 20
22.5775886759
 30
0.0
 11
19.0466169507
 21
25.6519932053
 31
0.0
  0
LINE
  5
11E
330
1B
100
AcDbEntity
 67
     1
  8
1
  6
SLD-実線
 62
     7
370
    18
100
AcDbLine
 10
19.4285067066
 20
26.0338829611
 30
0.0
 11
21.4363806807
 21
26.0338829611
 31
0.0
  0
LINE
  5
11F
330
1B
100
AcDbEntity
 67
     1
  8
1
  6
SLD-実線
 62
     7
370
    18
100
AcDbLine
 10
21.8182704365
 20
22.5775886759
 30
0.0
 11
21.8182704365
 21
25.6519932053
 31
0.0
  0
LINE
  5
120
330
1B
100
AcDbEntity
 67
     1
  8
1
  6
SLD-実線
 62
     7
370
    18
100
AcDbLine
 10
19.4285067066
 20
22.19569892
 30
0.0
 11
21.4363806807
 21
22.19569892
 31
0.0
  0
LINE
  5
121
330
1B
100
AcDbEntity
 67
     1
  8
SLD-0
  6
SLD-実線
 62
     7
370
    18
100
AcDbLine
 10
19.0466169507
 20
9.8058725367
 30
0.0
 11
19.0466169507
 21
11.4141528183
 31
0.0
  0
LINE
  5
122
330
1B
100
AcDbEntity
 67
     1
  8
SLD-0
  6
SLD-実線
 62
     7
370
    18
100
AcDbLine
 10
19.1332311222
 20
11.5007669897
 30
0.0
 11
20.4324436936
 21
11.5007669897
 31
0.0
  0
LINE
  5
123
330
1B
100
AcDbEntity
 67
     1
  8
SLD-0
  6
SLD-実線
 62
     7
370
    18
100
AcDbLine
 10
20.4324436936
 20
11.5775260433
 30
0.0
 11
19.5466169403
 21
11.5775260433
 31
0.0
  0
LINE
  5
124
330
1B
100
AcDbEntity
 67
     1
  8
SLD-0
  6
SLD-実線
 62
     7
370
    18
100
AcDbLine
 10
19.420632691
 20
11.3084162063
 30
0.0
 11
19.420632691
 21
9.8058725367
 31
0.0
  0
LINE
  5
125
330
1B
100
AcDbEntity
 67
     1
  8
SLD-0
  6
SLD-実線
 62
     7
370
    18
100
AcDbLine
 10
19.420632691
 20
11.3084162063
 30
0.0
 11
20.4324436936
 21
11.3084162063
 31
0.0
  0
LINE
  5
126
330
1B
100
AcDbEntity
 67
     1
  8
SLD-0
  6
SLD-実線
 62
     7
370
    18
100
AcDbLine
 10
21.8182704365
 20
9.8058725367
 30
0.0
 11
21.8182704365
 21
11.4141528183
 31
0.0
  0
LINE
  5
127
330
1B
100
AcDbEntity
 67
     1
  8
SLD-0
  6
SLD-実線
 62
     7
370
    18
100
AcDbLine
 10
21.7316562651
 20
11.5007669897
 30
0.0
 11
20.4324436936
 21
11.5007669897
 31
0.0
  0
LINE
  5
128
330
1B
100
AcDbEntity
 67
     1
  8
SLD-0
  6
SLD-実線
 62
     7
370
    18
100
AcDbLine
 10
20.4324436936
 20
11.5775260433
 30
0.0
 11
21.3182704469
 21
11.5775260433
 31
0.0
  0
LINE
  5
129
330
1B
100
AcDbEntity
 67
     1
  8
SLD-0
  6
SLD-実線
 62
     7
370
    18
100
AcDbLine
 10
21.4442546962
 20
11.3084162063
 30
0.0
 11
21.4442546962
 21
9.8058725367
 31
0.0
  0
LINE
  5
12A
330
1B
100
AcDbEntity
 67
     1
  8
SLD-0
  6
SLD-実線
 62
     7
370
    18
100
AcDbLine
 10
21.4442546962
 20
11.3084162063
 30
0.0
 11
20.4324436936
 21
11.3084162063
 31
0.0
  0
LINE
  5
12B
330
1B
100
AcDbEntity
 67
     1
  8
SLD-0
  6
SLD-鎖線
 62
     7
370
    18
100
AcDbLine
 10
19.5122752088
 20
25.7241071145
 30
0.0
 11
19.2415161593
 21
25.7241071145
 31
0.0
  0
LINE
  5
12C
330
1B
100
AcDbEntity
 67
     1
  8
SLD-0
  6
SLD-鎖線
 62
     7
370
    18
100
AcDbLine
 10
19.3694515897
 20
25.5692457004
 30
0.0
 11
19.3694515897
 21
25.8700451693
 31
0.0
  0
LINE
  5
12D
330
1B
100
AcDbEntity
 67
     1
  8
SLD-0
  6
SLD-実線
 62
     7
370
    18
100
AcDbLine
 10
19.4678767845
 20
22.7948147869
 30
0.0
 11
19.4678767845
 21
25.4347672255
 31
0.0
  0
LINE
  5
12E
330
1B
100
AcDbEntity
 67
     1
  8
SLD-0
  6
SLD-実線
 62
     7
370
    18
100
AcDbLine
 10
21.2001602131
 20
25.6316176151
 30
0.0
 11
19.6647271741
 21
25.6316176151
 31
0.0
  0
LINE
  5
12F
330
1B
100
AcDbEntity
 67
     1
  8
SLD-0
  6
SLD-鎖線
 62
     7
370
    18
100
AcDbLine
 10
21.6382594166
 20
25.7241071145
 30
0.0
 11
21.3675003671
 21
25.7241071145
 31
0.0
  0
LINE
  5
130
330
1B
100
AcDbEntity
 67
     1
  8
SLD-0
  6
SLD-鎖線
 62
     7
370
    18
100
AcDbLine
 10
21.4954357975
 20
25.5692457004
 30
0.0
 11
21.4954357975
 21
25.8700451693
 31
0.0
  0
LINE
  5
131
330
1B
100
AcDbEntity
 67
     1
  8
SLD-0
  6
SLD-実線
 62
     7
370
    18
100
AcDbLine
 10
21.3970106027
 20
22.7948147869
 30
0.0
 11
21.3970106027
 21
25.4347672255
 31
0.0
  0
LINE
  5
132
330
1B
100
AcDbEntity
 67
     1
  8
SLD-0
  6
SLD-実線
 62
     7
370
    18
100
AcDbLine
 10
19.6647271741
 20
22.5979643973
 30
0.0
 11
21.2001602131
 21
22.5979643973
 31
0.0
  0
LINE
  5
133
330
1B
100
AcDbEntity
 67
     1
  8
SLD-0
  6
SLD-鎖線
 62
     7
370
    18
100
AcDbLine
 10
19.3694515897
 20
22.3321157151
 30
0.0
 11
19.3694515897
 21
22.6329151839
 31
0.0
  0
LINE
  5
134
330
1B
100
AcDbEntity
 67
     1
  8
SLD-0
  6
SLD-鎖線
 62
     7
370
    18
100
AcDbLine
 10
19.5122752088
 20
22.486976998
 30
0.0
 11
19.2415161593
 21
22.486976998
 31
0.0
  0
LINE
  5
135
330
1B
100
AcDbEntity
 67
     1
  8
SLD-0
  6
SLD-鎖線
 62
     7
370
    18
100
AcDbLine
 10
21.4954357975
 20
22.3321157151
 30
0.0
 11
21.4954357975
 21
22.6329151839
 31
0.0
  0
LINE
  5
136
330
1B
100
AcDbEntity
 67
     1
  8
SLD-0
  6
SLD-鎖線
 62
     7
370
    18
100
AcDbLine
 10
21.6382594166
 20
22.486976998
 30
0.0
 11
21.3675003671
 21
22.486976998
 31
0.0
  0
LINE
  5
137
330
1B
100
AcDbEntity
 67
     1
  8
SLD-0
  6
SLD-破線
 62
     7
370
    18
100
AcDbLine
 10
18.7747857228
 20
26.2234170779
 30
0.0
 11
18.7747857228
 21
26.2262254768
 31
0.0
  0
ARC
  5
138
330
1B
100
AcDbEntity
 67
     1
  8
SLD-0
  6
SLD-実線
 62
     7
370
    18
100
AcDbCircle
 10
21.3970106027
 20
16.176704688
 30
0.0
 40
0.0393700779232162
100
AcDbArc
 50
180.0
 51
270.0
  0
ARC
  5
139
330
1B
100
AcDbEntity
 67
     1
  8
SLD-0
  6
SLD-実線
 62
     7
370
    18
100
AcDbCircle
 10
22.9133852432
 20
25.0911417733
 30
0.0
 40
0.0393700887735931
100
AcDbArc
 50
1.5922645331
 51
60.0000361789
  0
ARC
  5
13A
330
1B
100
AcDbEntity
 67
     1
  8
SLD-0
  6
SLD-実線
 62
     7
370
    18
100
AcDbCircle
 10
23.010546921
 20
22.8555800087
 30
0.0
 40
0.0393700887735969
100
AcDbArc
 50
299.9999638211
 51
1.5922645331
  0
ARC
  5
13B
330
1B
100
AcDbEntity
 67
     1
  8
SLD-0
  6
SLD-実線
 62
     7
370
    18
100
AcDbCircle
 10
17.9515020128
 20
25.0911417733
 30
0.0
 40
0.0393700779232192
100
AcDbArc
 50
120.0
 51
178.40776
  0
ARC
  5
13C
330
1B
100
AcDbEntity
 67
     1
  8
SLD-0
  6
SLD-実線
 62
     7
370
    18
100
AcDbCircle
 10
21.4166956417
 20
20.6609565634
 30
0.0
 40
0.196850389616106
100
AcDbArc
 50
0.0
 51
90.0
  0
ARC
  5
13D
330
1B
100
AcDbEntity
 67
     1
  8
SLD-0
  6
SLD-実線
 62
     7
370
    18
100
AcDbCircle
 10
22.1253570443
 20
20.6609565634
 30
0.0
 40
0.1968503896161025
100
AcDbArc
 50
90.0
 51
180.0
  0
ARC
  5
13E
330
1B
100
AcDbEntity
 67
     1
  8
SLD-0
  6
SLD-実線
 62
     7
370
    18
100
AcDbCircle
 10
21.4166956417
 20
16.3341849997
 30
0.0
 40
0.196850389616106
100
AcDbArc
 50
270.0
 51
0.0
  0
ARC
  5
13F
330
1B
100
AcDbEntity
 67
     1
  8
SLD-0
  6
SLD-実線
 62
     7
370
    18
100
AcDbCircle
 10
22.1253570443
 20
16.3341849997
 30
0.0
 40
0.1968503896161025
100
AcDbArc
 50
180.0
 51
270.0
  0
ARC
  5
140
330
1B
100
AcDbEntity
 67
     1
  8
SLD-0
  6
SLD-実線
 62
     7
370
    18
100
AcDbCircle
 10
22.4009475898
 20
15.5861535191
 30
0.0
 40
0.0787401558464396
100
AcDbArc
 50
0.0
 51
90.0
  0
CIRCLE
  5
141
330
1B
100
AcDbEntity
 67
     1
  8
SLD-0
  6
SLD-実線
 62
     7
370
    18
100
AcDbCircle
 10
20.4324436936
 20
7.3452426665
 30
0.0
 40
0.492125974040249
  0
ARC
  5
142
330
1B
100
AcDbEntity
 67
     1
  8
SLD-0
  6
SLD-実線
 62
     7
370
    18
100
AcDbCircle
 10
17.7589273449
 20
22.1176494466
 30
0.0
 40
0.0787401558464431
100
AcDbArc
 50
180.0
 51
270.0
  0
ARC
  5
143
330
1B
100
AcDbEntity
 67
     1
  8
SLD-0
  6
SLD-実線
 62
     7
370
    18
100
AcDbCircle
 10
17.7589273449
 20
22.9931057276
 30
0.0
 40
0.0787401570730333
100
AcDbArc
 50
138.2158172913
 51
180.0
  0
ARC
  5
144
330
1B
100
AcDbEntity
 67
     1
  8
SLD-0
  6
SLD-実線
 62
     7
370
    18
100
AcDbCircle
 10
18.0301203839
 20
22.9931057276
 30
0.0
 40
0.0787401570730333
100
AcDbArc
 50
138.2158172913
 51
180.0
  0
ARC
  5
145
330
1B
100
AcDbEntity
 67
     1
  8
SLD-0
  6
SLD-実線
 62
     7
370
    18
100
AcDbCircle
 10
23.1059599111
 20
22.1176494466
 30
0.0
 40
0.0787401558464431
100
AcDbArc
 50
270.0
 51
0.0
  0
CIRCLE
  5
146
330
1B
100
AcDbEntity
 67
     1
  8
SLD-0
  6
SLD-破線
 62
     7
370
    18
100
AcDbCircle
 10
20.4324436936
 20
21.5270982777
 30
0.0
 40
0.1574803116928827
  0
ARC
  5
147
330
1B
100
AcDbEntity
 67
     1
  8
SLD-0
  6
SLD-実線
 62
     7
370
    18
100
AcDbCircle
 10
21.5741759534
 20
26.0940273168
 30
0.0
 40
0.0393700779232269
100
AcDbArc
 50
0.0
 51
90.0
  0
ARC
  5
148
330
1B
100
AcDbEntity
 67
     1
  8
SLD-0
  6
SLD-実線
 62
     7
370
    18
100
AcDbCircle
 10
21.6529161092
 20
26.0912187867
 30
0.0
 40
0.0393700779232227
100
AcDbArc
 50
180.0
 51
265.763605
  0
ARC
  5
149
330
1B
100
AcDbEntity
 67
     1
  8
SLD-0
  6
SLD-実線
 62
     7
370
    18
100
AcDbCircle
 10
22.599766877
 20
25.9026479245
 30
0.0
 40
0.0787401785197769
100
AcDbArc
 50
1.562225
 51
85.7636087281
  0
ARC
  5
14A
330
1B
100
AcDbEntity
 67
     1
  8
SLD-0
  6
SLD-実線
 62
     7
370
    18
100
AcDbCircle
 10
18.265120379
 20
25.9026479245
 30
0.0
 40
0.078740155846448
100
AcDbArc
 50
94.236395
 51
178.437775
  0
ARC
  5
14B
330
1B
100
AcDbEntity
 67
     1
  8
SLD-0
  6
SLD-実線
 62
     7
370
    18
100
AcDbCircle
 10
19.211971278
 20
26.0912187867
 30
0.0
 40
0.0393700779232245
100
AcDbArc
 50
274.236395
 51
0.0
  0
ARC
  5
14C
330
1B
100
AcDbEntity
 67
     1
  8
SLD-0
  6
SLD-実線
 62
     7
370
    18
100
AcDbCircle
 10
19.2907114338
 20
26.0940273168
 30
0.0
 40
0.0393700779232269
100
AcDbArc
 50
90.0
 51
180.0
  0
ARC
  5
14D
330
1B
100
AcDbEntity
 67
     1
  8
SLD-0
  6
SLD-実線
 62
     7
370
    18
100
AcDbCircle
 10
18.0702390182
 20
25.250615917
 30
0.0
 40
0.0393700994525182
100
AcDbArc
 50
299.9999638211
 51
0.0
  0
ARC
  5
14E
330
1B
100
AcDbEntity
 67
     1
  8
SLD-0
  6
SLD-実線
 62
     7
370
    18
100
AcDbCircle
 10
18.188349252
 20
25.503476148
 30
0.0
 40
0.0787401558464401
100
AcDbArc
 50
101.253011
 51
180.0
  0
ARC
  5
14F
330
1B
100
AcDbEntity
 67
     1
  8
SLD-0
  6
SLD-実線
 62
     7
370
    18
100
AcDbCircle
 10
22.6765381352
 20
25.503476148
 30
0.0
 40
0.07874015584644
100
AcDbArc
 50
0.0
 51
82.14773
  0
ARC
  5
150
330
1B
100
AcDbEntity
 67
     1
  8
SLD-0
  6
SLD-実線
 62
     7
370
    18
100
AcDbCircle
 10
22.794648369
 20
25.250615917
 30
0.0
 40
0.0393700779232304
100
AcDbArc
 50
180.0
 51
240.0
  0
ARC
  5
151
330
1B
100
AcDbEntity
 67
     1
  8
SLD-0
  6
SLD-実線
 62
     7
370
    18
100
AcDbCircle
 10
22.3214659641
 20
25.5027378278
 30
0.0
 40
0.0787401558464467
100
AcDbArc
 50
0.0
 51
90.0
  0
ARC
  5
152
330
1B
100
AcDbEntity
 67
     1
  8
SLD-0
  6
SLD-実線
 62
     7
370
    18
100
AcDbCircle
 10
22.5134470625
 20
25.5027378278
 30
0.0
 40
0.0787401558464396
100
AcDbArc
 50
0.0
 51
90.0
  0
ARC
  5
153
330
1B
100
AcDbEntity
 67
     1
  8
SLD-0
  6
SLD-実線
 62
     7
370
    18
100
AcDbCircle
 10
22.4395761979
 20
25.2423387518
 30
0.0
 40
0.0393700779232127
100
AcDbArc
 50
180.0
 51
227.612009
  0
ARC
  5
154
330
1B
100
AcDbEntity
 67
     1
  8
SLD-0
  6
SLD-実線
 62
     7
370
    18
100
AcDbCircle
 10
22.5062591362
 20
25.0748665768
 30
0.0
 40
0.0393700779232184
100
AcDbArc
 50
0.0
 51
47.612009
  0
ARC
  5
155
330
1B
100
AcDbEntity
 67
     1
  8
SLD-0
  6
SLD-実線
 62
     7
370
    18
100
AcDbCircle
 10
22.6315572963
 20
25.2440491193
 30
0.0
 40
0.0393700779232304
100
AcDbArc
 50
180.0
 51
231.711897
  0
ARC
  5
156
330
1B
100
AcDbEntity
 67
     1
  8
SLD-0
  6
SLD-実線
 62
     7
370
    18
100
AcDbCircle
 10
22.7209590005
 20
25.0731560782
 30
0.0
 40
0.0393700779232162
100
AcDbArc
 50
0.0
 51
51.711897
  0
ARC
  5
157
330
1B
100
AcDbEntity
 67
     1
  8
SLD-0
  6
SLD-実線
 62
     7
370
    18
100
AcDbCircle
 10
18.0111839013
 20
21.2121376544
 30
0.0
 40
0.0393700779232233
100
AcDbArc
 50
90.0
 51
180.0
  0
ARC
  5
158
330
1B
100
AcDbEntity
 67
     1
  8
SLD-0
  6
SLD-実線
 62
     7
370
    18
100
AcDbCircle
 10
17.7159083169
 20
21.1333974985
 30
0.0
 40
0.0787401558464431
100
AcDbArc
 50
180.0
 51
270.0
  0
ARC
  5
159
330
1B
100
AcDbEntity
 67
     1
  8
SLD-0
  6
SLD-実線
 62
     7
370
    18
100
AcDbCircle
 10
17.7159083169
 20
22.0782793687
 30
0.0
 40
0.0787401558464431
100
AcDbArc
 50
90.0
 51
180.0
  0
ARC
  5
15A
330
1B
100
AcDbEntity
 67
     1
  8
SLD-0
  6
SLD-実線
 62
     7
370
    18
100
AcDbCircle
 10
22.8537034859
 20
21.2121376544
 30
0.0
 40
0.0393700779232162
100
AcDbArc
 50
0.0
 51
90.0
  0
ARC
  5
15B
330
1B
100
AcDbEntity
 67
     1
  8
SLD-0
  6
SLD-実線
 62
     7
370
    18
100
AcDbCircle
 10
22.5190578236
 20
20.8184368751
 30
0.0
 40
0.0393700779232233
100
AcDbArc
 50
90.0
 51
180.0
  0
ARC
  5
15C
330
1B
100
AcDbEntity
 67
     1
  8
SLD-0
  6
SLD-実線
 62
     7
370
    18
100
AcDbCircle
 10
22.282837356
 20
15.9404842204
 30
0.0
 40
0.196850389616106
100
AcDbArc
 50
0.0
 51
90.0
  0
ARC
  5
15D
330
1B
100
AcDbEntity
 67
     1
  8
SLD-0
  6
SLD-実線
 62
     7
370
    18
100
AcDbCircle
 10
18.4639397975
 20
15.5861535191
 30
0.0
 40
0.0787401558464396
100
AcDbArc
 50
90.0
 51
180.0
  0
ARC
  5
15E
330
1B
100
AcDbEntity
 67
     1
  8
SLD-0
  6
SLD-実線
 62
     7
370
    18
100
AcDbCircle
 10
18.5820500312
 20
15.9404842204
 30
0.0
 40
0.1968503896161042
100
AcDbArc
 50
90.0
 51
180.0
  0
ARC
  5
15F
330
1B
100
AcDbEntity
 67
     1
  8
SLD-0
  6
SLD-実線
 62
     7
370
    18
100
AcDbCircle
 10
19.4481917455
 20
16.3341849997
 30
0.0
 40
0.1968503896161025
100
AcDbArc
 50
180.0
 51
270.0
  0
ARC
  5
160
330
1B
100
AcDbEntity
 67
     1
  8
SLD-0
  6
SLD-実線
 62
     7
370
    18
100
AcDbCircle
 10
18.7395303429
 20
16.3341849997
 30
0.0
 40
0.1968503896161025
100
AcDbArc
 50
270.0
 51
0.0
  0
ARC
  5
161
330
1B
100
AcDbEntity
 67
     1
  8
SLD-0
  6
SLD-実線
 62
     7
370
    18
100
AcDbCircle
 10
19.4678767845
 20
16.176704688
 30
0.0
 40
0.0393700779232233
100
AcDbArc
 50
270.0
 51
0.0
  0
ARC
  5
162
330
1B
100
AcDbEntity
 67
     1
  8
SLD-0
  6
SLD-実線
 62
     7
370
    18
100
AcDbCircle
 10
18.3458295637
 20
20.8184368751
 30
0.0
 40
0.0393700779232233
100
AcDbArc
 50
0.0
 51
90.0
  0
ARC
  5
163
330
1B
100
AcDbEntity
 67
     1
  8
SLD-0
  6
SLD-実線
 62
     7
370
    18
100
AcDbCircle
 10
18.7395303429
 20
20.6609565634
 30
0.0
 40
0.1968503896160989
100
AcDbArc
 50
0.0
 51
90.0
  0
ARC
  5
164
330
1B
100
AcDbEntity
 67
     1
  8
SLD-0
  6
SLD-実線
 62
     7
370
    18
100
AcDbCircle
 10
19.4481917455
 20
20.6609565634
 30
0.0
 40
0.1968503896161025
100
AcDbArc
 50
90.0
 51
180.0
  0
CIRCLE
  5
165
330
1B
100
AcDbEntity
 67
     1
  8
SLD-0
  6
SLD-実線
 62
     7
370
    18
100
AcDbCircle
 10
20.4324436936
 20
7.3452426665
 30
0.0
 40
2.047244052007443
  0
CIRCLE
  5
166
330
1B
100
AcDbEntity
 67
     1
  8
SLD-0
  6
SLD-実線
 62
     7
370
    18
100
AcDbCircle
 10
20.4324436936
 20
7.3452426665
 30
0.0
 40
2.106299168892281
  0
ARC
  5
167
330
1B
100
AcDbEntity
 67
     1
  8
SLD-0
  6
SLD-鎖線
 62
     7
370
    18
100
AcDbCircle
 10
20.4324436936
 20
7.3452426665
 30
0.0
 40
1.870078701352949
100
AcDbArc
 50
186.306219
 51
204.707357
  0
CIRCLE
  5
168
330
1B
100
AcDbEntity
 67
     1
  8
SLD-0
  6
SLD-実線
 62
     7
370
    18
100
AcDbCircle
 10
18.6260862508
 20
6.8612307343
 30
0.0
 40
0.1574803116928862
  0
ARC
  5
169
330
1B
100
AcDbEntity
 67
     1
  8
SLD-0
  6
SLD-鎖線
 62
     7
370
    18
100
AcDbCircle
 10
20.4324436936
 20
7.3452426665
 30
0.0
 40
1.870078701352949
100
AcDbArc
 50
306.306219
 51
324.707357
  0
CIRCLE
  5
16A
330
1B
100
AcDbEntity
 67
     1
  8
SLD-0
  6
SLD-実線
 62
     7
370
    18
100
AcDbCircle
 10
21.7547889418
 20
6.0228974184
 30
0.0
 40
0.1574803116928898
  0
ARC
  5
16B
330
1B
100
AcDbEntity
 67
     1
  8
SLD-0
  6
SLD-鎖線
 62
     7
370
    18
100
AcDbCircle
 10
20.4324436936
 20
7.3452426665
 30
0.0
 40
1.870078701352958
100
AcDbArc
 50
66.306219
 51
84.707357
  0
CIRCLE
  5
16C
330
1B
100
AcDbEntity
 67
     1
  8
SLD-0
  6
SLD-実線
 62
     7
370
    18
100
AcDbCircle
 10
20.9164556258
 20
9.1515999781
 30
0.0
 40
0.1574803116928685
  0
ARC
  5
16D
330
1B
100
AcDbEntity
 67
     1
  8
SLD-0
  6
SLD-実線
 62
     7
370
    18
100
AcDbCircle
 10
20.4324436936
 20
7.3452426665
 30
0.0
 40
2.952755845553332
100
AcDbArc
 50
33.5573098387
 51
56.44269
  0
ARC
  5
16E
330
1B
100
AcDbEntity
 67
     1
  8
SLD-0
  6
SLD-実線
 62
     7
370
    18
100
AcDbCircle
 10
20.4324436936
 20
7.3452426665
 30
0.0
 40
2.952755846865152
100
AcDbArc
 50
123.5573098387
 51
146.4426901613
  0
ARC
  5
16F
330
1B
100
AcDbEntity
 67
     1
  8
SLD-0
  6
SLD-実線
 62
     7
370
    18
100
AcDbCircle
 10
20.4324436936
 20
7.3452426665
 30
0.0
 40
2.952755846865147
100
AcDbArc
 50
213.5573098387
 51
236.4426901613
  0
ARC
  5
170
330
1B
100
AcDbEntity
 67
     1
  8
SLD-0
  6
SLD-実線
 62
     7
370
    18
100
AcDbCircle
 10
20.4324436936
 20
7.3452426665
 30
0.0
 40
2.952755845553331
100
AcDbArc
 50
303.55731
 51
326.4426901613
  0
ARC
  5
171
330
1B
100
AcDbEntity
 67
     1
  8
SLD-0
  6
SLD-実線
 62
     7
370
    18
100
AcDbCircle
 10
17.7159083169
 20
7.8570536795
 30
0.0
 40
0.0787401558464431
100
AcDbArc
 50
90.0
 51
180.0
  0
ARC
  5
172
330
1B
100
AcDbEntity
 67
     1
  8
SLD-0
  6
SLD-実線
 62
     7
370
    18
100
AcDbCircle
 10
17.7159083169
 20
6.8334316535
 30
0.0
 40
0.0787401558464431
100
AcDbArc
 50
180.0
 51
270.0
  0
ARC
  5
173
330
1B
100
AcDbEntity
 67
     1
  8
SLD-0
  6
SLD-実線
 62
     7
370
    18
100
AcDbCircle
 10
17.8537035896
 20
8.0539040691
 30
0.0
 40
0.1181102337696593
100
AcDbArc
 50
270.0
 51
0.0
  0
ARC
  5
174
330
1B
100
AcDbEntity
 67
     1
  8
SLD-0
  6
SLD-実線
 62
     7
370
    18
100
AcDbCircle
 10
17.8537035896
 20
6.6365812639
 30
0.0
 40
0.1181102337696673
100
AcDbArc
 50
0.0
 51
90.0
  0
CIRCLE
  5
175
330
1B
100
AcDbEntity
 67
     1
  8
SLD-0
  6
SLD-実線
 62
     7
370
    18
100
AcDbCircle
 10
22.2698076975
 20
5.5078786626
 30
0.0
 40
0.1377952727312639
  0
CIRCLE
  5
176
330
1B
100
AcDbEntity
 67
     1
  8
SLD-0
  6
SLD-実線
 62
     7
370
    18
100
AcDbCircle
 10
22.2419688529
 20
9.154767957
 30
0.0
 40
0.1377952727312604
  0
CIRCLE
  5
177
330
1B
100
AcDbEntity
 67
     1
  8
SLD-0
  6
SLD-実線
 62
     7
370
    18
100
AcDbCircle
 10
18.6229184031
 20
5.5357175072
 30
0.0
 40
0.1377952727312639
  0
CIRCLE
  5
178
330
1B
100
AcDbEntity
 67
     1
  8
SLD-0
  6
SLD-実線
 62
     7
370
    18
100
AcDbCircle
 10
18.5950795585
 20
9.1826068016
 30
0.0
 40
0.1377952727312675
  0
ARC
  5
179
330
1B
100
AcDbEntity
 67
     1
  8
SLD-0
  6
SLD-実線
 62
     7
370
    18
100
AcDbCircle
 10
20.4324436936
 20
7.3452426665
 30
0.0
 40
1.161417298734996
100
AcDbArc
 50
84.09078
 51
109.206351
  0
ARC
  5
17A
330
1B
100
AcDbEntity
 67
     1
  8
SLD-0
  6
SLD-実線
 62
     7
370
    18
100
AcDbCircle
 10
20.4324436936
 20
7.3452426665
 30
0.0
 40
1.67322831173686
100
AcDbArc
 50
74.114552
 51
120.992833
  0
ARC
  5
17B
330
1B
100
AcDbEntity
 67
     1
  8
SLD-0
  6
SLD-実線
 62
     7
370
    18
100
AcDbCircle
 10
20.4324436936
 20
7.3452426665
 30
0.0
 40
1.161417298734997
100
AcDbArc
 50
145.534551
 51
51.76012
  0
ARC
  5
17C
330
1B
100
AcDbEntity
 67
     1
  8
SLD-0
  6
SLD-実線
 62
     7
370
    18
100
AcDbCircle
 10
20.4324436936
 20
7.3452426665
 30
0.0
 40
1.673228311736858
100
AcDbArc
 50
145.354287
 51
53.10681
  0
ARC
  5
17D
330
1B
100
AcDbEntity
 67
     1
  8
SLD-0
  6
SLD-鎖線
 62
     7
370
    18
100
AcDbCircle
 10
20.4324436936
 20
7.3452426665
 30
0.0
 40
2.598425142932529
100
AcDbArc
 50
305.068453
 51
330.354442
  0
ARC
  5
17E
330
1B
100
AcDbEntity
 67
     1
  8
SLD-0
  6
SLD-鎖線
 62
     7
370
    18
100
AcDbCircle
 10
20.4324436936
 20
7.3452426665
 30
0.0
 40
2.598425142932521
100
AcDbArc
 50
125.006431
 51
146.04253
  0
ARC
  5
17F
330
1B
100
AcDbEntity
 67
     1
  8
SLD-0
  6
SLD-鎖線
 62
     7
370
    18
100
AcDbCircle
 10
20.4324436936
 20
7.3452426665
 30
0.0
 40
2.559055065009305
100
AcDbArc
 50
36.62946
 51
53.141769
  0
ARC
  5
180
330
1B
100
AcDbEntity
 67
     1
  8
SLD-0
  6
SLD-鎖線
 62
     7
370
    18
100
AcDbCircle
 10
20.4324436936
 20
7.3452426665
 30
0.0
 40
2.559055065009289
100
AcDbArc
 50
215.624267
 51
235.606769
  0
ARC
  5
181
330
1B
100
AcDbEntity
 67
     1
  8
1
  6
SLD-実線
 62
     7
370
    18
100
AcDbCircle
 10
19.4285067066
 20
25.6519932053
 30
0.0
 40
0.3818897558552372
100
AcDbArc
 50
90.0
 51
180.0
  0
ARC
  5
182
330
1B
100
AcDbEntity
 67
     1
  8
1
  6
SLD-実線
 62
     7
370
    18
100
AcDbCircle
 10
21.4363806807
 20
25.6519932053
 30
0.0
 40
0.3818897558552337
100
AcDbArc
 50
0.0
 51
90.0
  0
ARC
  5
183
330
1B
100
AcDbEntity
 67
     1
  8
1
  6
SLD-実線
 62
     7
370
    18
100
AcDbCircle
 10
19.4285067066
 20
22.5775886759
 30
0.0
 40
0.3818897558552372
100
AcDbArc
 50
180.0
 51
270.0
  0
ARC
  5
184
330
1B
100
AcDbEntity
 67
     1
  8
1
  6
SLD-実線
 62
     7
370
    18
100
AcDbCircle
 10
21.4363806807
 20
22.5775886759
 30
0.0
 40
0.3818897558552266
100
AcDbArc
 50
270.0
 51
0.0
  0
ARC
  5
185
330
1B
100
AcDbEntity
 67
     1
  8
SLD-0
  6
SLD-実線
 62
     7
370
    18
100
AcDbCircle
 10
19.1332311222
 20
11.4141528183
 30
0.0
 40
0.0866141714310871
100
AcDbArc
 50
90.0
 51
180.0
  0
ARC
  5
186
330
1B
100
AcDbEntity
 67
     1
  8
SLD-0
  6
SLD-実線
 62
     7
370
    18
100
AcDbCircle
 10
19.5466169403
 20
11.4515417939
 30
0.0
 40
0.1259842493543088
100
AcDbArc
 50
90.0
 51
157.000387
  0
ARC
  5
187
330
1B
100
AcDbEntity
 67
     1
  8
SLD-0
  6
SLD-実線
 62
     7
370
    18
100
AcDbCircle
 10
21.7316562651
 20
11.4141528183
 30
0.0
 40
0.0866141714310835
100
AcDbArc
 50
0.0
 51
90.0
  0
ARC
  5
188
330
1B
100
AcDbEntity
 67
     1
  8
SLD-0
  6
SLD-実線
 62
     7
370
    18
100
AcDbCircle
 10
21.3182704469
 20
11.4515417939
 30
0.0
 40
0.1259842493543154
100
AcDbArc
 50
22.999613
 51
90.0
  0
CIRCLE
  5
189
330
1B
100
AcDbEntity
 67
     1
  8
SLD-0
  6
SLD-実線
 62
     7
370
    18
100
AcDbCircle
 10
20.4324436936
 20
10.5789494236
 30
0.0
 40
0.4330708571554318
  0
ARC
  5
18A
330
1B
100
AcDbEntity
 67
     1
  8
SLD-0
  6
SLD-実線
 62
     7
370
    18
100
AcDbCircle
 10
19.6647271741
 20
25.4347672255
 30
0.0
 40
0.196850389616106
100
AcDbArc
 50
90.0
 51
180.0
  0
ARC
  5
18B
330
1B
100
AcDbEntity
 67
     1
  8
SLD-0
  6
SLD-実線
 62
     7
370
    18
100
AcDbCircle
 10
21.2001602131
 20
25.4347672255
 30
0.0
 40
0.1968503896160989
100
AcDbArc
 50
0.0
 51
90.0
  0
ARC
  5
18C
330
1B
100
AcDbEntity
 67
     1
  8
SLD-0
  6
SLD-実線
 62
     7
370
    18
100
AcDbCircle
 10
19.6647271741
 20
22.7948147869
 30
0.0
 40
0.196850389616106
100
AcDbArc
 50
180.0
 51
270.0
  0
ARC
  5
18D
330
1B
100
AcDbEntity
 67
     1
  8
SLD-0
  6
SLD-実線
 62
     7
370
    18
100
AcDbCircle
 10
21.2001602131
 20
22.7948147869
 30
0.0
 40
0.196850389616106
100
AcDbArc
 50
270.0
 51
0.0
  0
ENDSEC
  0
SECTION
  2
OBJECTS
  0
DICTIONARY
  5
C
330
0
100
AcDbDictionary
281
     1
  3
ACAD_GROUP
350
D
  3
ACAD_LAYOUT
350
1A
  3
ACAD_MLINESTYLE
350
17
  3
ACAD_PLOTSETTINGS
350
19
  3
ACAD_PLOTSTYLENAME
350
E
  3
ACAD_SCALELIST
350
47
  0
DICTIONARY
  5
D
102
{ACAD_REACTORS
330
C
102
}
330
C
100
AcDbDictionary
281
     1
  0
DICTIONARY
  5
1A
102
{ACAD_REACTORS
330
C
102
}
330
C
100
AcDbDictionary
281
     1
  3
Model
350
22
  3
SW_Model_4
350
1E
  0
DICTIONARY
  5
17
102
{ACAD_REACTORS
330
C
102
}
330
C
100
AcDbDictionary
281
     1
  3
Standard
350
18
  0
DICTIONARY
  5
19
102
{ACAD_REACTORS
330
C
102
}
330
C
100
AcDbDictionary
281
     1
  0
ACDBDICTIONARYWDFLT
  5
E
102
{ACAD_REACTORS
330
C
102
}
330
C
100
AcDbDictionary
281
     1
  3
Normal
350
F
100
AcDbDictionaryWithDefault
340
F
  0
DICTIONARY
  5
47
102
{ACAD_REACTORS
330
C
102
}
330
C
100
AcDbDictionary
281
     1
  3
A0
350
48
  3
A1
350
49
  3
A2
350
4A
  3
A3
350
4B
  3
A4
350
4C
  3
A5
350
4D
  3
A6
350
4E
  3
A7
350
4F
  3
A8
350
50
  3
A9
350
51
  3
B0
350
52
  3
B1
350
53
  3
B2
350
54
  3
B3
350
55
  3
B4
350
56
  3
B5
350
57
  3
B6
350
58
  3
B7
350
59
  3
B8
350
5A
  3
B9
350
5B
  3
C0
350
5C
  3
C1
350
5D
  3
C2
350
5E
  3
C3
350
5F
  3
C4
350
60
  3
C5
350
61
  3
C6
350
62
  3
C7
350
63
  3
C8
350
64
  3
C9
350
65
  3
D0
350
66
  3
D1
350
67
  3
D2
350
68
  0
LAYOUT
  5
22
102
{ACAD_REACTORS
330
1A
102
}
330
1A
100
AcDbPlotSettings
  1

  2
none_device
  4
Letter_(8.50_x_11.00_Inches)
  6

 40
6.35
 41
6.35
 42
6.35000508
 43
6.35000508
 44
215.9
 45
279.4
 46
0.0
 47
0.0
 48
0.0
 49
0.0
140
0.0
141
0.0
142
1.0
143
1.0
 70
  1712
 72
     0
 73
     0
 74
     0
  7

 75
     0
147
1.0
148
0.0
149
0.0
100
AcDbLayout
  1
Model
 70
     1
 71
     0
 10
0.0
 20
0.0
 11
132.0
 21
102.0
 12
0.0
 22
0.0
 32
0.0
 14
0.0
 24
0.0
 34
0.0
 15
44.0
 25
34.0
 35
0.0
146
0.0
 13
0.0
 23
0.0
 33
0.0
 16
1.0
 26
0.0
 36
0.0
 17
0.0
 27
1.0
 37
0.0
 76
     0
330
1F
331
29
  0
LAYOUT
  5
1E
102
{ACAD_REACTORS
330
1A
102
}
330
1A
100
AcDbPlotSettings
  1

  2
none_device
  4
ANSI_E_(44.00_x_34.00_Inches)
  6

 40
6.35
 41
19.05
 42
6.3499746
 43
19.0499873
 44
1117.6
 45
863.6
 46
0.0
 47
0.0
 48
0.0
 49
0.0
140
0.0
141
0.0
142
1.0
143
1.0
 70
  4832
 72
     0
 73
     0
 74
     1
  7

 75
     0
147
1.0
148
0.0
149
0.0
100
AcDbLayout
  1
SW_Model_4
 70
     1
 71
     1
 10
0.0
 20
0.0
 11
44.0
 21
34.0
 12
0.0
 22
0.0
 32
0.0
 14
0.0
 24
0.0
 34
0.0
 15
44.0
 25
34.0
 35
0.0
146
0.0
 13
0.0
 23
0.0
 33
0.0
 16
1.0
 26
0.0
 36
0.0
 17
0.0
 27
1.0
 37
0.0
 76
     0
330
1B
331
78
  0
MLINESTYLE
  5
18
102
{ACAD_REACTORS
330
17
102
}
330
17
100
AcDbMlineStyle
  2
Standard
 70
     0
  3

 62
   256
 51
90.0
 52
90.0
 71
     2
 49
0.5
 62
   256
  6
BYLAYER
 49
-0.5
 62
   256
  6
BYLAYER
  0
ACDBPLACEHOLDER
  5
F
102
{ACAD_REACTORS
330
E
102
}
330
E
  0
SCALE
  5
48
102
{ACAD_REACTORS
330
47
102
}
330
47
100
AcDbScale
 70
     0
300
1:1
140
1.0
141
1.0
290
     1
  0
SCALE
  5
49
102
{ACAD_REACTORS
330
47
102
}
330
47
100
AcDbScale
 70
     0
300
1:2
140
1.0
141
2.0
290
     0
  0
SCALE
  5
4A
102
{ACAD_REACTORS
330
47
102
}
330
47
100
AcDbScale
 70
     0
300
1:4
140
1.0
141
4.0
290
     0
  0
SCALE
  5
4B
102
{ACAD_REACTORS
330
47
102
}
330
47
100
AcDbScale
 70
     0
300
1:5
140
1.0
141
5.0
290
     0
  0
SCALE
  5
4C
102
{ACAD_REACTORS
330
47
102
}
330
47
100
AcDbScale
 70
     0
300
1:8
140
1.0
141
8.0
290
     0
  0
SCALE
  5
4D
102
{ACAD_REACTORS
330
47
102
}
330
47
100
AcDbScale
 70
     0
300
1:10
140
1.0
141
10.0
290
     0
  0
SCALE
  5
4E
102
{ACAD_REACTORS
330
47
102
}
330
47
100
AcDbScale
 70
     0
300
1:16
140
1.0
141
16.0
290
     0
  0
SCALE
  5
4F
102
{ACAD_REACTORS
330
47
102
}
330
47
100
AcDbScale
 70
     0
300
1:20
140
1.0
141
20.0
290
     0
  0
SCALE
  5
50
102
{ACAD_REACTORS
330
47
102
}
330
47
100
AcDbScale
 70
     0
300
1:30
140
1.0
141
30.0
290
     0
  0
SCALE
  5
51
102
{ACAD_REACTORS
330
47
102
}
330
47
100
AcDbScale
 70
     0
300
1:40
140
1.0
141
40.0
290
     0
  0
SCALE
  5
52
102
{ACAD_REACTORS
330
47
102
}
330
47
100
AcDbScale
 70
     0
300
1:50
140
1.0
141
50.0
290
     0
  0
SCALE
  5
53
102
{ACAD_REACTORS
330
47
102
}
330
47
100
AcDbScale
 70
     0
300
1:100
140
1.0
141
100.0
290
     0
  0
SCALE
  5
54
102
{ACAD_REACTORS
330
47
102
}
330
47
100
AcDbScale
 70
     0
300
2:1
140
2.0
141
1.0
290
     0
  0
SCALE
  5
55
102
{ACAD_REACTORS
330
47
102
}
330
47
100
AcDbScale
 70
     0
300
4:1
140
4.0
141
1.0
290
     0
  0
SCALE
  5
56
102
{ACAD_REACTORS
330
47
102
}
330
47
100
AcDbScale
 70
     0
300
8:1
140
8.0
141
1.0
290
     0
  0
SCALE
  5
57
102
{ACAD_REACTORS
330
47
102
}
330
47
100
AcDbScale
 70
     0
300
10:1
140
10.0
141
1.0
290
     0
  0
SCALE
  5
58
102
{ACAD_REACTORS
330
47
102
}
330
47
100
AcDbScale
 70
     0
300
100:1
140
100.0
141
1.0
290
     0
  0
SCALE
  5
59
102
{ACAD_REACTORS
330
47
102
}
330
47
100
AcDbScale
 70
     0
300
1/128" = 1'-0"
140
0.0078125
141
12.0
290
     0
  0
SCALE
  5
5A
102
{ACAD_REACTORS
330
47
102
}
330
47
100
AcDbScale
 70
     0
300
1/64" = 1'-0"
140
0.015625
141
12.0
290
     0
  0
SCALE
  5
5B
102
{ACAD_REACTORS
330
47
102
}
330
47
100
AcDbScale
 70
     0
300
1/32" = 1'-0"
140
0.03125
141
12.0
290
     0
  0
SCALE
  5
5C
102
{ACAD_REACTORS
330
47
102
}
330
47
100
AcDbScale
 70
     0
300
1/16" = 1'-0"
140
0.0625
141
12.0
290
     0
  0
SCALE
  5
5D
102
{ACAD_REACTORS
330
47
102
}
330
47
100
AcDbScale
 70
     0
300
3/32" = 1'-0"
140
0.09375
141
12.0
290
     0
  0
SCALE
  5
5E
102
{ACAD_REACTORS
330
47
102
}
330
47
100
AcDbScale
 70
     0
300
1/8" = 1'-0"
140
0.125
141
12.0
290
     0
  0
SCALE
  5
5F
102
{ACAD_REACTORS
330
47
102
}
330
47
100
AcDbScale
 70
     0
300
3/16" = 1'-0"
140
0.1875
141
12.0
290
     0
  0
SCALE
  5
60
102
{ACAD_REACTORS
330
47
102
}
330
47
100
AcDbScale
 70
     0
300
1/4" = 1'-0"
140
0.25
141
12.0
290
     0
  0
SCALE
  5
61
102
{ACAD_REACTORS
330
47
102
}
330
47
100
AcDbScale
 70
     0
300
3/8" = 1'-0"
140
0.375
141
12.0
290
     0
  0
SCALE
  5
62
102
{ACAD_REACTORS
330
47
102
}
330
47
100
AcDbScale
 70
     0
300
1/2" = 1'-0"
140
0.5
141
12.0
290
     0
  0
SCALE
  5
63
102
{ACAD_REACTORS
330
47
102
}
330
47
100
AcDbScale
 70
     0
300
3/4" = 1'-0"
140
0.75
141
12.0
290
     0
  0
SCALE
  5
64
102
{ACAD_REACTORS
330
47
102
}
330
47
100
AcDbScale
 70
     0
300
1" = 1'-0"
140
1.0
141
12.0
290
     0
  0
SCALE
  5
65
102
{ACAD_REACTORS
330
47
102
}
330
47
100
AcDbScale
 70
     0
300
1-1/2" = 1'-0"
140
1.5
141
12.0
290
     0
  0
SCALE
  5
66
102
{ACAD_REACTORS
330
47
102
}
330
47
100
AcDbScale
 70
     0
300
3" = 1'-0"
140
3.0
141
12.0
290
     0
  0
SCALE
  5
67
102
{ACAD_REACTORS
330
47
102
}
330
47
100
AcDbScale
 70
     0
300
6" = 1'-0"
140
6.0
141
12.0
290
     0
  0
SCALE
  5
68
102
{ACAD_REACTORS
330
47
102
}
330
47
100
AcDbScale
 70
     0
300
1'-0" = 1'-0"
140
12.0
141
12.0
290
     0
  0
ENDSEC
  0
EOF
