  0
SECTION
  2
HEADER
  9
$ACADVER
  1
AC1015
  9
$ACADMAINTVER
 70
     6
  9
$DWGCODEPAGE
  3
DOS932
  9
$INSBASE
 10
0.0
 20
0.0
 30
0.0
  9
$EXTMIN
 10
0.0
 20
0.0
 30
0.0
  9
$EXTMAX
 10
420.0
 20
297.0
 30
0.0
  9
$LIMMIN
 10
0.0
 20
0.0
  9
$LIMMAX
 10
420.0
 20
297.0
  9
$ORTHOMODE
 70
     0
  9
$REGENMODE
 70
     1
  9
$FILLMODE
 70
     1
  9
$QTEXTMODE
 70
     0
  9
$MIRRTEXT
 70
     1
  9
$LTSCALE
 40
1.0
  9
$ATTMODE
 70
     1
  9
$TEXTSIZE
 40
3.5
  9
$TRACEWID
 40
1.0
  9
$TEXTSTYLE
  7
Standard
  9
$CLAYER
  8
0
  9
$CELTYPE
  6
ByLayer
  9
$CECOLOR
 62
   256
  9
$CELTSCALE
 40
1.0
  9
$DISPSILH
 70
     0
  9
$DIMSCALE
 40
1.0
  9
$DIMASZ
 40
3.302
  9
$DIMEXO
 40
1.0
  9
$DIMDLI
 40
3.75
  9
$DIMRND
 40
0.0
  9
$DIMDLE
 40
0.0
  9
$DIMEXE
 40
1.0
  9
$DIMTP
 40
0.0
  9
$DIMTM
 40
0.0
  9
$DIMTXT
 40
3.5
  9
$DIMCEN
 40
2.5
  9
$DIMTSZ
 40
0.0
  9
$DIMTOL
 70
     0
  9
$DIMLIM
 70
     0
  9
$DIMTIH
 70
     1
  9
$DIMTOH
 70
     1
  9
$DIMSE1
 70
     0
  9
$DIMSE2
 70
     0
  9
$DIMTAD
 70
     1
  9
$DIMZIN
 70
     1
  9
$DIMBLK
  1

  9
$DIMASO
 70
     1
  9
$DIMSHO
 70
     1
  9
$DIMPOST
  1

  9
$DIMAPOST
  1

  9
$DIMALT
 70
     0
  9
$DIMALTD
 70
     3
  9
$DIMALTF
 40
0.0393700787
  9
$DIMLFAC
 40
1.0
  9
$DIMTOFL
 70
     1
  9
$DIMTVP
 40
0.0
  9
$DIMTIX
 70
     0
  9
$DIMSOXD
 70
     0
  9
$DIMSAH
 70
     0
  9
$DIMBLK1
  1

  9
$DIMBLK2
  1

  9
$DIMSTYLE
  2
ISO-25
  9
$DIMCLRD
 70
     0
  9
$DIMCLRE
 70
     0
  9
$DIMCLRT
 70
     0
  9
$DIMTFAC
 40
1.0
  9
$DIMGAP
 40
1.524
  9
$DIMJUST
 70
     0
  9
$DIMSD1
 70
     0
  9
$DIMSD2
 70
     0
  9
$DIMTOLJ
 70
     0
  9
$DIMTZIN
 70
     1
  9
$DIMALTZ
 70
     0
  9
$DIMALTTZ
 70
     0
  9
$DIMUPT
 70
     0
  9
$DIMDEC
 70
     3
  9
$DIMTDEC
 70
     3
  9
$DIMALTU
 70
     2
  9
$DIMALTTD
 70
     3
  9
$DIMTXSTY
  7
Standard
  9
$DIMAUNIT
 70
     0
  9
$DIMADEC
 70
     0
  9
$DIMALTRND
 40
0.0
  9
$DIMAZIN
 70
     0
  9
$DIMDSEP
 70
    44
  9
$DIMATFIT
 70
     3
  9
$DIMFRAC
 70
     0
  9
$DIMLDRBLK
  1

  9
$DIMLUNIT
 70
     2
  9
$DIMLWD
 70
    -2
  9
$DIMLWE
 70
    -2
  9
$DIMTMOVE
 70
     0
  9
$LUNITS
 70
     2
  9
$LUPREC
 70
     3
  9
$SKETCHINC
 40
1.0
  9
$FILLETRAD
 40
10.0
  9
$AUNITS
 70
     0
  9
$AUPREC
 70
     0
  9
$MENU
  1
.
  9
$ELEVATION
 40
0.0
  9
$PELEVATION
 40
0.0
  9
$THICKNESS
 40
0.0
  9
$LIMCHECK
 70
     0
  9
$CHAMFERA
 40
0.0
  9
$CHAMFERB
 40
0.0
  9
$CHAMFERC
 40
0.0
  9
$CHAMFERD
 40
0.0
  9
$SKPOLY
 70
     0
  9
$TDCREATE
 40
2460161.513967581
  9
$TDUCREATE
 40
2460161.138967581
  9
$TDUPDATE
 40
2460161.513968368
  9
$TDUUPDATE
 40
2460161.138968368
  9
$TDINDWG
 40
0.0000000116
  9
$TDUSRTIMER
 40
0.0000000116
  9
$USRTIMER
 70
     1
  9
$ANGBASE
 50
0.0
  9
$ANGDIR
 70
     0
  9
$PDMODE
 70
     0
  9
$PDSIZE
 40
-1.0
  9
$PLINEWID
 40
0.0
  9
$SPLFRAME
 70
     0
  9
$SPLINETYPE
 70
     6
  9
$SPLINESEGS
 70
     8
  9
$HANDSEED
  5
418
  9
$SURFTAB1
 70
     6
  9
$SURFTAB2
 70
     6
  9
$SURFTYPE
 70
     6
  9
$SURFU
 70
     6
  9
$SURFV
 70
     6
  9
$UCSBASE
  2

  9
$UCSNAME
  2

  9
$UCSORG
 10
0.0
 20
0.0
 30
0.0
  9
$UCSXDIR
 10
1.0
 20
0.0
 30
0.0
  9
$UCSYDIR
 10
0.0
 20
1.0
 30
0.0
  9
$UCSORTHOREF
  2

  9
$UCSORTHOVIEW
 70
     0
  9
$UCSORGTOP
 10
0.0
 20
0.0
 30
0.0
  9
$UCSORGBOTTOM
 10
0.0
 20
0.0
 30
0.0
  9
$UCSORGLEFT
 10
0.0
 20
0.0
 30
0.0
  9
$UCSORGRIGHT
 10
0.0
 20
0.0
 30
0.0
  9
$UCSORGFRONT
 10
0.0
 20
0.0
 30
0.0
  9
$UCSORGBACK
 10
0.0
 20
0.0
 30
0.0
  9
$PUCSBASE
  2

  9
$PUCSNAME
  2

  9
$PUCSORG
 10
0.0
 20
0.0
 30
0.0
  9
$PUCSXDIR
 10
1.0
 20
0.0
 30
0.0
  9
$PUCSYDIR
 10
0.0
 20
1.0
 30
0.0
  9
$PUCSORTHOREF
  2

  9
$PUCSORTHOVIEW
 70
     0
  9
$PUCSORGTOP
 10
0.0
 20
0.0
 30
0.0
  9
$PUCSORGBOTTOM
 10
0.0
 20
0.0
 30
0.0
  9
$PUCSORGLEFT
 10
0.0
 20
0.0
 30
0.0
  9
$PUCSORGRIGHT
 10
0.0
 20
0.0
 30
0.0
  9
$PUCSORGFRONT
 10
0.0
 20
0.0
 30
0.0
  9
$PUCSORGBACK
 10
0.0
 20
0.0
 30
0.0
  9
$USERI1
 70
     0
  9
$USERI2
 70
     0
  9
$USERI3
 70
     0
  9
$USERI4
 70
     0
  9
$USERI5
 70
     0
  9
$USERR1
 40
0.0
  9
$USERR2
 40
0.0
  9
$USERR3
 40
0.0
  9
$USERR4
 40
0.0
  9
$USERR5
 40
0.0
  9
$WORLDVIEW
 70
     1
  9
$SHADEDGE
 70
     3
  9
$SHADEDIF
 70
    70
  9
$TILEMODE
 70
     1
  9
$MAXACTVP
 70
    64
  9
$PINSBASE
 10
0.0
 20
0.0
 30
0.0
  9
$PLIMCHECK
 70
     0
  9
$PEXTMIN
 10
1.0000000000E+20
 20
1.0000000000E+20
 30
1.0000000000E+20
  9
$PEXTMAX
 10
-1.0000000000E+20
 20
-1.0000000000E+20
 30
-1.0000000000E+20
  9
$PLIMMIN
 10
0.0
 20
0.0
  9
$PLIMMAX
 10
420.0
 20
297.0
  9
$UNITMODE
 70
     0
  9
$VISRETAIN
 70
     1
  9
$PLINEGEN
 70
     0
  9
$PSLTSCALE
 70
     1
  9
$TREEDEPTH
 70
  3020
  9
$CMLSTYLE
  2
Standard
  9
$CMLJUST
 70
     0
  9
$CMLSCALE
 40
20.0
  9
$PROXYGRAPHICS
 70
     1
  9
$MEASUREMENT
 70
     1
  9
$CELWEIGHT
370
    -1
  9
$ENDCAPS
280
     0
  9
$JOINSTYLE
280
     0
  9
$LWDISPLAY
290
     1
  9
$INSUNITS
 70
     4
  9
$HYPERLINKBASE
  1

  9
$STYLESHEET
  1

  9
$XEDIT
290
     1
  9
$CEPSNTYPE
380
     0
  9
$PSTYLEMODE
290
     1
  9
$FINGERPRINTGUID
  2
{fe622140-b021-4f77-9b00-faffd29b1ff5}
  9
$VERSIONGUID
  2
{FAEB1C32-E019-11D5-929B-00C0DF256EC4}
  9
$EXTNAMES
290
     1
  9
$PSVPSCALE
 40
0.0
  9
$OLESTARTUP
290
     0
  0
ENDSEC
  0
SECTION
  2
CLASSES
  0
CLASS
  1
ACDBDICTIONARYWDFLT
  2
AcDbDictionaryWithDefault
  3
ObjectDBX Classes
 90
        0
280
     0
281
     0
  0
CLASS
  1
VISUALSTYLE
  2
AcDbVisualStyle
  3
ObjectDBX Classes
 90
     4095
280
     0
281
     0
  0
CLASS
  1
MATERIAL
  2
AcDbMaterial
  3
ObjectDBX Classes
 90
     1153
280
     0
281
     0
  0
CLASS
  1
SCALE
  2
AcDbScale
  3
ObjectDBX Classes
 90
     1153
280
     0
281
     0
  0
CLASS
  1
TABLESTYLE
  2
AcDbTableStyle
  3
ObjectDBX Classes
 90
     4095
280
     0
281
     0
  0
CLASS
  1
MLEADERSTYLE
  2
AcDbMLeaderStyle
  3
ACDB_MLEADERSTYLE_CLASS
 90
     4095
280
     0
281
     0
  0
CLASS
  1
SUN
  2
AcDbSun
  3
SCENEOE
 90
     1153
280
     0
281
     0
  0
CLASS
  1
ACDBPLACEHOLDER
  2
AcDbPlaceHolder
  3
ObjectDBX Classes
 90
        0
280
     0
281
     0
  0
CLASS
  1
LAYOUT
  2
AcDbLayout
  3
ObjectDBX Classes
 90
        0
280
     0
281
     0
  0
ENDSEC
  0
SECTION
  2
TABLES
  0
TABLE
  2
VPORT
  5
8
330
0
100
AcDbSymbolTable
 70
     1
  0
VPORT
  5
29
330
8
100
AcDbSymbolTableRecord
100
AcDbViewportTableRecord
  2
*Active
 70
     0
 10
0.0
 20
0.0
 11
1.0
 21
1.0
 12
210.0
 22
148.5
 13
0.0
 23
0.0
 14
10.0
 24
10.0
 15
10.0
 25
10.0
 16
0.0
 26
0.0
 36
1.0
 17
0.0
 27
0.0
 37
0.0
 40
297.0
 41
1.4141414141
 42
50.0
 43
0.0
 44
0.0
 50
0.0
 51
0.0
 71
     0
 72
  2000
 73
     1
 74
     3
 75
     0
 76
     0
 77
     0
 78
     0
281
     0
 65
     1
110
0.0
120
0.0
130
0.0
111
1.0
121
0.0
131
0.0
112
0.0
122
1.0
132
0.0
 79
     0
146
0.0
  0
ENDTAB
  0
TABLE
  2
LTYPE
  5
5
330
0
100
AcDbSymbolTable
 70
     6
  0
LTYPE
  5
14
330
5
100
AcDbSymbolTableRecord
100
AcDbLinetypeTableRecord
  2
ByBlock
 70
     0
  3

 72
    65
 73
     0
 40
0.0
  0
LTYPE
  5
15
330
5
100
AcDbSymbolTableRecord
100
AcDbLinetypeTableRecord
  2
ByLayer
 70
     0
  3

 72
    65
 73
     0
 40
0.0
  0
LTYPE
  5
16
330
5
100
AcDbSymbolTableRecord
100
AcDbLinetypeTableRecord
  2
Continuous
 70
     0
  3
Solid line
 72
    65
 73
     0
 40
0.0
  0
LTYPE
  5
6E
330
5
100
AcDbSymbolTableRecord
100
AcDbLinetypeTableRecord
  2
HIDDEN
 70
     0
  3
Hidden __ __ __ __ __ __ __ __ __ __ __ __ __ __
 72
    65
 73
     2
 40
1.905
 49
1.27
 74
     0
 49
-0.635
 74
     0
  0
LTYPE
  5
6F
330
5
100
AcDbSymbolTableRecord
100
AcDbLinetypeTableRecord
  2
PHANTOM
 70
     0
  3
Phantom ______  __  __  ______  __  __  ______
 72
    65
 73
     6
 40
12.7
 49
6.35
 74
     0
 49
-1.27
 74
     0
 49
1.27
 74
     0
 49
-1.27
 74
     0
 49
1.27
 74
     0
 49
-1.27
 74
     0
  0
LTYPE
  5
70
330
5
100
AcDbSymbolTableRecord
100
AcDbLinetypeTableRecord
  2
CENTER
 70
     0
  3
Center ____ _ ____ _ ____ _ ____ _ ____ _ ____
 72
    65
 73
     4
 40
10.16
 49
6.35
 74
     0
 49
-1.27
 74
     0
 49
1.27
 74
     0
 49
-1.27
 74
     0
  0
LTYPE
  5
71
330
5
100
AcDbSymbolTableRecord
100
AcDbLinetypeTableRecord
  2
CENTERX2
 70
     0
  3
Center (2x) ________  __  ________  __  _____
 72
    65
 73
     4
 40
20.32
 49
12.7
 74
     0
 49
-2.54
 74
     0
 49
2.54
 74
     0
 49
-2.54
 74
     0
  0
LTYPE
  5
72
330
5
100
AcDbSymbolTableRecord
100
AcDbLinetypeTableRecord
  2
DOT2
 70
     0
  3
Dot (.5x) ........................................
 72
    65
 73
     2
 40
0.635
 49
0.0
 74
     0
 49
-0.635
 74
     0
  0
ENDTAB
  0
TABLE
  2
LAYER
  5
2
330
0
100
AcDbSymbolTable
 70
     3
  0
LAYER
  5
10
330
2
100
AcDbSymbolTableRecord
100
AcDbLayerTableRecord
  2
0
 70
     0
 62
     7
  6
Continuous
370
    -3
390
F
  0
LAYER
  5
73
330
2
100
AcDbSymbolTableRecord
100
AcDbLayerTableRecord
  2
SLD-0_0
 70
     0
 62
     7
  6
Continuous
370
    -1
390
F
  0
LAYER
  5
74
330
2
100
AcDbSymbolTableRecord
100
AcDbLayerTableRecord
  2
SLD-0
 70
     0
 62
   179
  6
Continuous
370
    -3
390
F
  0
ENDTAB
  0
TABLE
  2
STYLE
  5
3
330
0
100
AcDbSymbolTable
 70
     1
  0
STYLE
  5
11
330
3
100
AcDbSymbolTableRecord
100
AcDbTextStyleTableRecord
  2
Standard
 70
     0
 40
0.0
 41
1.0
 50
0.0
 71
     0
 42
3.5
  3
txt
  4
bigfont
  0
ENDTAB
  0
TABLE
  2
VIEW
  5
6
330
0
100
AcDbSymbolTable
 70
     0
  0
ENDTAB
  0
TABLE
  2
UCS
  5
7
330
0
100
AcDbSymbolTable
 70
     0
  0
ENDTAB
  0
TABLE
  2
APPID
  5
9
330
0
100
AcDbSymbolTable
 70
     1
  0
APPID
  5
12
330
9
100
AcDbSymbolTableRecord
100
AcDbRegAppTableRecord
  2
ACAD
 70
     0
  0
ENDTAB
  0
TABLE
  2
DIMSTYLE
  5
A
330
0
100
AcDbSymbolTable
 70
     1
100
AcDbDimStyleTable
  0
DIMSTYLE
105
27
330
A
100
AcDbSymbolTableRecord
100
AcDbDimStyleTableRecord
  2
ISO-25
 70
     0
 41
2.5
 42
0.625
 43
3.75
 44
1.25
 73
     0
 74
     0
 77
     1
 78
     8
140
2.5
141
2.5
143
0.0393700787
147
0.625
171
     3
172
     1
178
     0
271
     2
272
     2
274
     3
278
    44
283
     0
284
     8
340
11
  0
ENDTAB
  0
TABLE
  2
BLOCK_RECORD
  5
1
330
0
100
AcDbSymbolTable
 70
     1
  0
BLOCK_RECORD
  5
1F
330
1
100
AcDbSymbolTableRecord
100
AcDbBlockTableRecord
  2
*Model_Space
340
22
  0
BLOCK_RECORD
  5
1B
330
1
100
AcDbSymbolTableRecord
100
AcDbBlockTableRecord
  2
*Paper_Space
340
1E
  0
BLOCK_RECORD
  5
23
330
1
100
AcDbSymbolTableRecord
100
AcDbBlockTableRecord
  2
*Paper_Space0
340
26
  0
ENDTAB
  0
ENDSEC
  0
SECTION
  2
BLOCKS
  0
BLOCK
  5
20
330
1F
100
AcDbEntity
  8
0
100
AcDbBlockBegin
  2
*Model_Space
 70
     0
 10
0.0
 20
0.0
 30
0.0
  3
*Model_Space
  1

  0
ENDBLK
  5
21
330
1F
100
AcDbEntity
  8
0
100
AcDbBlockEnd
  0
BLOCK
  5
1C
330
1B
100
AcDbEntity
 67
     1
  8
0
100
AcDbBlockBegin
  2
*Paper_Space
 70
     0
 10
0.0
 20
0.0
 30
0.0
  3
*Paper_Space
  1

  0
ENDBLK
  5
1D
330
1B
100
AcDbEntity
 67
     1
  8
0
100
AcDbBlockEnd
  0
BLOCK
  5
24
330
23
100
AcDbEntity
  8
0
100
AcDbBlockBegin
  2
*Paper_Space0
 70
     0
 10
0.0
 20
0.0
 30
0.0
  3
*Paper_Space0
  1

  0
ENDBLK
  5
25
330
23
100
AcDbEntity
  8
0
100
AcDbBlockEnd
  0
ENDSEC
  0
SECTION
  2
ENTITIES
  0
LINE
  5
75
330
1F
100
AcDbEntity
  8
SLD-0_0
  6
Continuous
 62
   179
370
    25
100
AcDbLine
 10
146.9828473483
 20
267.6470791523
 30
0.0
 11
146.9828473483
 21
265.347084922
 31
0.0
  0
LINE
  5
76
330
1F
100
AcDbEntity
  8
SLD-0_0
  6
Continuous
 62
   179
370
    25
100
AcDbLine
 10
279.9828486596
 20
265.347084922
 30
0.0
 11
279.9828486596
 21
267.6470791523
 31
0.0
  0
LINE
  5
77
330
1F
100
AcDbEntity
  8
SLD-0_0
  6
Continuous
 62
   179
370
    25
100
AcDbLine
 10
185.4301566337
 20
265.347084922
 30
0.0
 11
186.5301566278
 21
264.2470812027
 31
0.0
  0
LINE
  5
78
330
1F
100
AcDbEntity
  8
SLD-0_0
  6
Continuous
 62
   179
370
    25
100
AcDbLine
 10
240.4355393802
 20
264.2470812027
 30
0.0
 11
241.5355393742
 21
265.347084922
 31
0.0
  0
LINE
  5
79
330
1F
100
AcDbEntity
  8
SLD-0_0
  6
Continuous
 62
   179
370
    25
100
AcDbLine
 10
200.6159432482
 20
263.6612917371
 30
0.0
 11
202.9301567082
 21
261.3470768158
 31
0.0
  0
LINE
  5
7A
330
1F
100
AcDbEntity
  8
SLD-0_0
  6
Continuous
 62
   179
370
    25
100
AcDbLine
 10
224.0355392997
 20
261.3470768158
 30
0.0
 11
226.3497527598
 21
263.6612917371
 31
0.0
  0
LINE
  5
7B
330
1F
100
AcDbEntity
  8
SLD-0_0
  6
Continuous
 62
   179
370
    25
100
AcDbLine
 10
276.0350244199
 20
275.6470804636
 30
0.0
 11
275.4497515117
 21
275.7047181551
 31
0.0
  0
LINE
  5
7C
330
1F
100
AcDbEntity
  8
SLD-0_0
  6
Continuous
 62
   179
370
    25
100
AcDbLine
 10
275.4497515117
 20
275.7047181551
 30
0.0
 11
275.273742721
 21
275.7452791158
 31
0.0
  0
LINE
  5
7D
330
1F
100
AcDbEntity
  8
SLD-0_0
  6
Continuous
 62
   179
370
    25
100
AcDbLine
 10
145.9828453218
 20
510.5470781747
 30
0.0
 11
145.9828453218
 21
507.5470781487
 31
0.0
  0
LINE
  5
7E
330
1F
100
AcDbEntity
  8
SLD-0_0
  6
Continuous
 62
   179
370
    25
100
AcDbLine
 10
280.9828506862
 20
507.5470781487
 30
0.0
 11
280.9828506862
 21
510.5470781747
 31
0.0
  0
LINE
  5
7F
330
1F
100
AcDbEntity
  8
SLD-0_0
  6
Continuous
 62
   179
370
    25
100
AcDbLine
 10
279.9828486596
 20
267.6470791523
 30
0.0
 11
279.9828486596
 21
273.6470764104
 31
0.0
  0
LINE
  5
80
330
1F
100
AcDbEntity
  8
SLD-0_0
  6
Continuous
 62
   179
370
    25
100
AcDbLine
 10
146.9828473483
 20
275.6470804636
 30
0.0
 11
146.9828473483
 21
267.6470791523
 31
0.0
  0
LINE
  5
81
330
1F
100
AcDbEntity
  8
SLD-0_0
  6
Continuous
 62
   179
370
    25
100
AcDbLine
 10
273.0350236816
 20
278.6470781747
 30
0.0
 11
273.0350236816
 21
279.6470781747
 31
0.0
  0
LINE
  5
82
330
1F
100
AcDbEntity
  8
SLD-0_0
  6
Continuous
 62
   179
370
    25
100
AcDbLine
 10
274.482848004
 20
521.5470781747
 30
0.0
 11
274.4828486894
 21
545.5470783237
 31
0.0
  0
LINE
  5
83
330
1F
100
AcDbEntity
  8
SLD-0_0
  6
Continuous
 62
   179
370
    25
100
AcDbLine
 10
189.4828477954
 20
289.647079033
 30
0.0
 11
189.482848004
 21
288.6470781747
 31
0.0
  0
LINE
  5
84
330
1F
100
AcDbEntity
  8
SLD-0_0
  6
Continuous
 62
   179
370
    25
100
AcDbLine
 10
237.482848004
 20
288.6470781747
 30
0.0
 11
237.482848004
 21
289.6470781747
 31
0.0
  0
LINE
  5
85
330
1F
100
AcDbEntity
  8
SLD-0_0
  6
Continuous
 62
   179
370
    25
100
AcDbLine
 10
197.3002353762
 20
567.5470782045
 30
0.0
 11
197.3002353762
 21
558.547078592
 31
0.0
  0
LINE
  5
86
330
1F
100
AcDbEntity
  8
SLD-0_0
  6
Continuous
 62
   179
370
    25
100
AcDbLine
 10
186.2393492912
 20
582.0648734991
 30
0.0
 11
186.0472435211
 21
571.5470788602
 31
0.0
  0
LINE
  5
87
330
1F
100
AcDbEntity
  8
SLD-0_0
  6
Continuous
 62
   179
370
    25
100
AcDbLine
 10
176.7508970653
 20
656.5690254394
 30
0.0
 11
174.8845713292
 21
571.5470788602
 31
0.0
  0
LINE
  5
88
330
1F
100
AcDbEntity
  8
SLD-0_0
  6
Continuous
 62
   179
370
    25
100
AcDbLine
 10
265.0761144315
 20
677.9475723926
 30
0.0
 11
260.0691603576
 21
678.3184622947
 31
0.0
  0
LINE
  5
89
330
1F
100
AcDbEntity
  8
SLD-0_0
  6
Continuous
 62
   179
370
    25
100
AcDbLine
 10
182.1126142596
 20
679.4455861274
 30
0.0
 11
181.0465963637
 21
679.3666099731
 31
0.0
  0
LINE
  5
8A
330
1F
100
AcDbEntity
  8
SLD-0_0
  6
Continuous
 62
   179
370
    25
100
AcDbLine
 10
166.8984182036
 20
678.3185987374
 30
0.0
 11
161.8895791328
 21
677.9475747248
 31
0.0
  0
LINE
  5
8B
330
1F
100
AcDbEntity
  8
SLD-0_0
  6
Continuous
 62
   179
370
    25
100
AcDbLine
 10
279.9828491958
 20
568.5470765449
 30
0.0
 11
279.9828491958
 21
571.5470788993
 31
0.0
  0
LINE
  5
8C
330
1F
100
AcDbEntity
  8
SLD-0_0
  6
Continuous
 62
   179
370
    25
100
AcDbLine
 10
262.3146833931
 20
558.547078592
 30
0.0
 11
262.3146833931
 21
567.5470782045
 31
0.0
  0
LINE
  5
8D
330
1F
100
AcDbEntity
  8
SLD-0_0
  6
Continuous
 62
   179
370
    25
100
AcDbLine
 10
165.6140374099
 20
659.0594118063
 30
0.0
 11
163.4536149059
 21
571.5470788602
 31
0.0
  0
LINE
  5
8E
330
1F
100
AcDbEntity
  8
SLD-0_0
  6
Continuous
 62
   179
370
    25
100
AcDbLine
 10
263.512081102
 20
571.5470788602
 30
0.0
 11
261.3516585981
 21
659.0594118063
 31
0.0
  0
LINE
  5
8F
330
1F
100
AcDbEntity
  8
SLD-0_0
  6
Continuous
 62
   179
370
    25
100
AcDbLine
 10
166.9045860027
 20
678.5713946048
 30
0.0
 11
166.4483459746
 21
659.865028185
 31
0.0
  0
LINE
  5
90
330
1F
100
AcDbEntity
  8
SLD-0_0
  6
Continuous
 62
   179
370
    25
100
AcDbLine
 10
260.5191791509
 20
659.8630910341
 30
0.0
 11
260.0629912769
 21
678.5714691106
 31
0.0
  0
LINE
  5
91
330
1F
100
AcDbEntity
  8
SLD-0_0
  6
Continuous
 62
   179
370
    25
100
AcDbLine
 10
274.4828486894
 20
558.547078592
 30
0.0
 11
274.4828486894
 21
567.5470782045
 31
0.0
  0
LINE
  5
92
330
1F
100
AcDbEntity
  8
SLD-0_0
  6
Continuous
 62
   179
370
    25
100
AcDbLine
 10
156.3350425817
 20
672.1275460264
 30
0.0
 11
155.9506567274
 21
658.0334519569
 31
0.0
  0
LINE
  5
93
330
1F
100
AcDbEntity
  8
SLD-0_0
  6
Continuous
 62
   179
370
    25
100
AcDbLine
 10
271.0150368368
 20
658.0334496247
 30
0.0
 11
270.6306509824
 21
672.1275436941
 31
0.0
  0
LINE
  5
94
330
1F
100
AcDbEntity
  8
SLD-0_0
  6
Continuous
 62
   179
370
    25
100
AcDbLine
 10
269.0782118484
 20
571.5470782674
 30
0.0
 11
266.8202016398
 21
656.5736293054
 31
0.0
  0
LINE
  5
95
330
1F
100
AcDbEntity
  8
SLD-0_0
  6
Continuous
 62
   179
370
    25
100
AcDbLine
 10
161.0051827584
 20
584.905578715
 30
0.0
 11
149.360946015
 21
572.3019493345
 31
0.0
  0
LINE
  5
96
330
1F
100
AcDbEntity
  8
SLD-0_0
  6
Continuous
 62
   179
370
    25
100
AcDbLine
 10
243.4828486745
 20
680.4757438318
 30
0.0
 11
243.4828480039
 21
680.547079963
 31
0.0
  0
LINE
  5
97
330
1F
100
AcDbEntity
  8
SLD-0_0
  6
Continuous
 62
   179
370
    25
100
AcDbLine
 10
183.4828486745
 20
680.5470799629
 30
0.0
 11
183.482848004
 21
680.4757438318
 31
0.0
  0
LINE
  5
98
330
1F
100
AcDbEntity
  8
SLD-0_0
  6
Continuous
 62
   179
370
    25
100
AcDbLine
 10
275.0546330227
 20
571.547079581
 30
0.0
 11
272.715173067
 21
656.5745842933
 31
0.0
  0
LINE
  5
99
330
1F
100
AcDbEntity
  8
SLD-0_0
  6
Continuous
 62
   179
370
    25
100
AcDbLine
 10
143.7787777901
 20
571.5470766727
 30
0.0
 11
143.7787812523
 21
560.0470759872
 31
0.0
  0
LINE
  5
9A
330
1F
100
AcDbEntity
  8
SLD-0_0
  6
Continuous
 62
   179
370
    25
100
AcDbLine
 10
278.7032933985
 20
571.5470788602
 30
0.0
 11
276.3723248839
 21
656.5744822415
 31
0.0
  0
LINE
  5
9B
330
1F
100
AcDbEntity
  8
SLD-0_0
  6
Continuous
 62
   179
370
    25
100
AcDbLine
 10
150.382017773
 20
656.5744201845
 30
0.0
 11
148.1419932659
 21
574.6846492594
 31
0.0
  0
LINE
  5
9C
330
1F
100
AcDbEntity
  8
SLD-0_0
  6
Continuous
 62
   179
370
    25
100
AcDbLine
 10
155.7562040244
 20
657.6511477653
 30
0.0
 11
155.7343030428
 21
657.6351886217
 31
0.0
  0
LINE
  5
9D
330
1F
100
AcDbEntity
  8
SLD-0_0
  6
Continuous
 62
   179
370
    25
100
AcDbLine
 10
276.6498537813
 20
558.547078592
 30
0.0
 11
276.6498537813
 21
567.5470782045
 31
0.0
  0
LINE
  5
9E
330
1F
100
AcDbEntity
  8
SLD-0_0
  6
Continuous
 62
   179
370
    25
100
AcDbLine
 10
283.1869157653
 20
560.0470782138
 30
0.0
 11
283.1869192275
 21
571.5470788993
 31
0.0
  0
LINE
  5
9F
330
1F
100
AcDbEntity
  8
SLD-0_0
  6
Continuous
 62
   179
370
    25
100
AcDbLine
 10
158.5869515394
 20
264.3470828954
 30
0.0
 11
158.5869515394
 21
265.347084922
 31
0.0
  0
LINE
  5
A0
330
1F
100
AcDbEntity
  8
SLD-0_0
  6
Continuous
 62
   179
370
    25
100
AcDbLine
 10
149.7969539915
 20
265.347084922
 30
0.0
 11
149.7969539915
 21
264.3470828954
 31
0.0
  0
LINE
  5
A1
330
1F
100
AcDbEntity
  8
SLD-0_0
  6
Continuous
 62
   179
370
    25
100
AcDbLine
 10
199.7508021151
 20
264.3470828954
 30
0.0
 11
199.7508021151
 21
265.347084922
 31
0.0
  0
LINE
  5
A2
330
1F
100
AcDbEntity
  8
SLD-0_0
  6
Continuous
 62
   179
370
    25
100
AcDbLine
 10
190.9608027046
 20
265.347084922
 30
0.0
 11
190.9608027046
 21
264.3470828954
 31
0.0
  0
LINE
  5
A3
330
1F
100
AcDbEntity
  8
SLD-0_0
  6
Continuous
 62
   179
370
    25
100
AcDbLine
 10
277.1687420164
 20
264.3470828954
 30
0.0
 11
277.1687420164
 21
265.347084922
 31
0.0
  0
LINE
  5
A4
330
1F
100
AcDbEntity
  8
SLD-0_0
  6
Continuous
 62
   179
370
    25
100
AcDbLine
 10
268.3787444686
 20
265.347084922
 30
0.0
 11
268.3787444686
 21
264.3470828954
 31
0.0
  0
LINE
  5
A5
330
1F
100
AcDbEntity
  8
SLD-0_0
  6
Continuous
 62
   179
370
    25
100
AcDbLine
 10
275.273742721
 20
275.6470804636
 30
0.0
 11
275.273742721
 21
276.3470774118
 31
0.0
  0
LINE
  5
A6
330
1F
100
AcDbEntity
  8
SLD-0_0
  6
Continuous
 62
   179
370
    25
100
AcDbLine
 10
238.4828483765
 20
590.1333903495
 30
0.0
 11
238.4828483765
 21
589.5672579829
 31
0.0
  0
LINE
  5
A7
330
1F
100
AcDbEntity
  8
SLD-0_0
  6
Continuous
 62
   179
370
    25
100
AcDbLine
 10
246.4828478252
 20
589.5672579829
 30
0.0
 11
246.4828478252
 21
590.1333903495
 31
0.0
  0
LINE
  5
A8
330
1F
100
AcDbEntity
  8
SLD-0_0
  6
Continuous
 62
   179
370
    25
100
AcDbLine
 10
180.4828481828
 20
590.1333903495
 30
0.0
 11
180.4828481828
 21
589.5672579829
 31
0.0
  0
LINE
  5
A9
330
1F
100
AcDbEntity
  8
SLD-0_0
  6
Continuous
 62
   179
370
    25
100
AcDbLine
 10
188.4828476314
 20
589.5672579829
 30
0.0
 11
188.4828476314
 21
590.1333903495
 31
0.0
  0
LINE
  5
AA
330
1F
100
AcDbEntity
  8
SLD-0_0
  6
Continuous
 62
   179
370
    25
100
AcDbLine
 10
238.4828483765
 20
674.8013859216
 30
0.0
 11
238.4828483765
 21
674.2352610055
 31
0.0
  0
LINE
  5
AB
330
1F
100
AcDbEntity
  8
SLD-0_0
  6
Continuous
 62
   179
370
    25
100
AcDbLine
 10
246.4828478252
 20
674.2352610055
 30
0.0
 11
246.4828478252
 21
674.8013859216
 31
0.0
  0
LINE
  5
AC
330
1F
100
AcDbEntity
  8
SLD-0_0
  6
Continuous
 62
   179
370
    25
100
AcDbLine
 10
180.4828481828
 20
674.8013859216
 30
0.0
 11
180.4828481828
 21
674.2352610055
 31
0.0
  0
LINE
  5
AD
330
1F
100
AcDbEntity
  8
SLD-0_0
  6
Continuous
 62
   179
370
    25
100
AcDbLine
 10
188.4828476314
 20
674.2352610055
 30
0.0
 11
188.4828476314
 21
674.8013859216
 31
0.0
  0
LINE
  5
AE
330
1F
100
AcDbEntity
  8
SLD-0_0
  6
Continuous
 62
   179
370
    25
100
AcDbLine
 10
234.6828473811
 20
672.1102511112
 30
0.0
 11
193.2828487908
 21
672.1102511112
 31
0.0
  0
LINE
  5
AF
330
1F
100
AcDbEntity
  8
SLD-0_0
  6
Continuous
 62
   179
370
    25
100
AcDbLine
 10
243.4828473334
 20
679.9642955485
 30
0.0
 11
184.4828488384
 21
679.9642955485
 31
0.0
  0
LINE
  5
B0
330
1F
100
AcDbEntity
  8
SLD-0_0
  6
Continuous
 62
   179
370
    25
100
AcDbLine
 10
147.5448595439
 20
573.6470808808
 30
0.0
 11
147.5448595439
 21
571.5470788602
 31
0.0
  0
LINE
  5
B1
330
1F
100
AcDbEntity
  8
SLD-0_0
  6
Continuous
 62
   179
370
    25
100
AcDbLine
 10
149.5448561464
 20
559.5470768932
 30
0.0
 11
149.5448561464
 21
557.5470765654
 31
0.0
  0
LINE
  5
B2
330
1F
100
AcDbEntity
  8
SLD-0_0
  6
Continuous
 62
   179
370
    25
100
AcDbLine
 10
154.5448588287
 20
557.5470765654
 30
0.0
 11
154.5448588287
 21
559.5470768932
 31
0.0
  0
LINE
  5
B3
330
1F
100
AcDbEntity
  8
SLD-0_0
  6
Continuous
 62
   179
370
    25
100
AcDbLine
 10
277.4208398615
 20
557.5470765654
 30
0.0
 11
277.4208398615
 21
559.5470768932
 31
0.0
  0
LINE
  5
B4
330
1F
100
AcDbEntity
  8
SLD-0_0
  6
Continuous
 62
   179
370
    25
100
AcDbLine
 10
228.9828477507
 20
681.5470819894
 30
0.0
 11
228.9828477507
 21
682.7470725004
 31
0.0
  0
LINE
  5
B5
330
1F
100
AcDbEntity
  8
SLD-0_0
  6
Continuous
 62
   179
370
    25
100
AcDbLine
 10
197.9828482573
 20
682.7470725004
 30
0.0
 11
197.9828482573
 21
681.5470819894
 31
0.0
  0
LINE
  5
B6
330
1F
100
AcDbEntity
  8
SLD-0_0
  6
Continuous
 62
   179
370
    25
100
AcDbLine
 10
199.4828475718
 20
504.1470783364
 30
0.0
 11
202.8040239667
 21
503.8565126781
 31
0.0
  0
LINE
  5
B7
330
1F
100
AcDbEntity
  8
SLD-0_0
  6
Continuous
 62
   179
370
    25
100
AcDbLine
 10
224.1616720413
 20
503.8565126781
 30
0.0
 11
227.4828484361
 21
504.1470783364
 31
0.0
  0
LINE
  5
B8
330
1F
100
AcDbEntity
  8
SLD-0_0
  6
Continuous
 62
   179
370
    25
100
AcDbLine
 10
199.4828475718
 20
505.6470781166
 30
0.0
 11
199.4828475718
 21
504.1470783364
 31
0.0
  0
LINE
  5
B9
330
1F
100
AcDbEntity
  8
SLD-0_0
  6
Continuous
 62
   179
370
    25
100
AcDbLine
 10
227.4828484361
 20
504.1470783364
 30
0.0
 11
227.4828484361
 21
505.6470781166
 31
0.0
  0
LINE
  5
BA
330
1F
100
AcDbEntity
  8
SLD-0_0
  6
Continuous
 62
   179
370
    25
100
AcDbLine
 10
204.0998753723
 20
502.8257461773
 30
0.0
 11
204.482848262
 21
501.6470782296
 31
0.0
  0
LINE
  5
BB
330
1F
100
AcDbEntity
  8
SLD-0_0
  6
Continuous
 62
   179
370
    25
100
AcDbLine
 10
222.4828474871
 20
501.6470782296
 30
0.0
 11
222.8658203768
 21
502.8257461773
 31
0.0
  0
LINE
  5
BC
330
1F
100
AcDbEntity
  8
SLD-0_0
  6
Continuous
 62
   179
370
    25
100
AcDbLine
 10
204.982847542
 20
507.5470781487
 30
0.0
 11
204.982847542
 21
505.6470781166
 31
0.0
  0
LINE
  5
BD
330
1F
100
AcDbEntity
  8
SLD-0_0
  6
Continuous
 62
   179
370
    25
100
AcDbLine
 10
221.9828484659
 20
505.6470781166
 30
0.0
 11
221.9828484659
 21
507.5470781487
 31
0.0
  0
LINE
  5
BE
330
1F
100
AcDbEntity
  8
SLD-0_0
  6
Continuous
 62
   179
370
    25
100
AcDbLine
 10
205.482847624
 20
499.6470780645
 30
0.0
 11
205.482847624
 21
498.0208165545
 31
0.0
  0
LINE
  5
BF
330
1F
100
AcDbEntity
  8
SLD-0_0
  6
Continuous
 62
   179
370
    25
100
AcDbLine
 10
221.482848384
 20
498.0208165545
 30
0.0
 11
221.482848384
 21
499.6470780645
 31
0.0
  0
LINE
  5
C0
330
1F
100
AcDbEntity
  8
SLD-0_0
  6
Continuous
 62
   179
370
    25
100
AcDbLine
 10
205.482847624
 20
498.0208165545
 30
0.0
 11
205.9828481716
 21
496.6470785041
 31
0.0
  0
LINE
  5
C1
330
1F
100
AcDbEntity
  8
SLD-0_0
  6
Continuous
 62
   179
370
    25
100
AcDbLine
 10
220.9828478363
 20
496.6470785041
 30
0.0
 11
221.482848384
 21
498.0208165545
 31
0.0
  0
LINE
  5
C2
330
1F
100
AcDbEntity
  8
SLD-0_0
  6
Continuous
 62
   179
370
    25
100
AcDbLine
 10
205.9828481716
 20
501.6470783923
 30
0.0
 11
205.9828481716
 21
499.6470780645
 31
0.0
  0
LINE
  5
C3
330
1F
100
AcDbEntity
  8
SLD-0_0
  6
Continuous
 62
   179
370
    25
100
AcDbLine
 10
220.9828478363
 20
499.6470780645
 30
0.0
 11
220.9828478363
 21
501.6470783923
 31
0.0
  0
LINE
  5
C4
330
1F
100
AcDbEntity
  8
SLD-0_0
  6
Continuous
 62
   179
370
    25
100
AcDbLine
 10
205.9828481716
 20
496.6470785041
 30
0.0
 11
205.9828481716
 21
287.6470749799
 31
0.0
  0
LINE
  5
C5
330
1F
100
AcDbEntity
  8
SLD-0_0
  6
Continuous
 62
   179
370
    25
100
AcDbLine
 10
220.9828478363
 20
287.6470749799
 30
0.0
 11
220.9828478363
 21
496.6470785041
 31
0.0
  0
LINE
  5
C6
330
1F
100
AcDbEntity
  8
SLD-0_0
  6
Continuous
 62
   179
370
    25
100
AcDbLine
 10
146.9828473483
 20
265.347084922
 30
0.0
 11
279.9828486596
 21
265.347084922
 31
0.0
  0
LINE
  5
C7
330
1F
100
AcDbEntity
  8
SLD-0_0
  6
Continuous
 62
   179
370
    25
100
AcDbLine
 10
146.9828473483
 20
267.6470791523
 30
0.0
 11
279.9828486596
 21
267.6470791523
 31
0.0
  0
LINE
  5
C8
330
1F
100
AcDbEntity
  8
SLD-0_0
  6
Continuous
 62
   179
370
    25
100
AcDbLine
 10
186.5301566278
 20
264.2470812027
 30
0.0
 11
191.5496202265
 21
264.2470812027
 31
0.0
  0
LINE
  5
C9
330
1F
100
AcDbEntity
  8
SLD-0_0
  6
Continuous
 62
   179
370
    25
100
AcDbLine
 10
199.1619836618
 20
264.2470812027
 30
0.0
 11
240.4355393802
 21
264.2470812027
 31
0.0
  0
LINE
  5
CA
330
1F
100
AcDbEntity
  8
SLD-0_0
  6
Continuous
 62
   179
370
    25
100
AcDbLine
 10
202.9301567082
 20
261.3470768158
 30
0.0
 11
224.0355392997
 21
261.3470768158
 31
0.0
  0
LINE
  5
CB
330
1F
100
AcDbEntity
  8
SLD-0_0
  6
Continuous
 62
   179
370
    25
100
AcDbLine
 10
138.4828450237
 20
510.5470781747
 30
0.0
 11
163.7334773396
 21
510.5470781747
 31
0.0
  0
LINE
  5
CC
330
1F
100
AcDbEntity
  8
SLD-0_0
  6
Continuous
 62
   179
370
    25
100
AcDbLine
 10
138.4828450237
 20
518.5470785547
 30
0.0
 11
138.4828450237
 21
510.5470781747
 31
0.0
  0
LINE
  5
CD
330
1F
100
AcDbEntity
  8
SLD-0_0
  6
Continuous
 62
   179
370
    25
100
AcDbLine
 10
138.4828450237
 20
518.5470785547
 30
0.0
 11
163.7334773396
 21
518.5470785547
 31
0.0
  0
LINE
  5
CE
330
1F
100
AcDbEntity
  8
SLD-0_0
  6
Continuous
 62
   179
370
    25
100
AcDbLine
 10
163.7334773396
 20
518.5470785547
 30
0.0
 11
163.7334773396
 21
510.5470781747
 31
0.0
  0
LINE
  5
CF
330
1F
100
AcDbEntity
  8
SLD-0_0
  6
Continuous
 62
   179
370
    25
100
AcDbLine
 10
263.2322186683
 20
518.5470785547
 30
0.0
 11
263.2322186683
 21
510.5470781747
 31
0.0
  0
LINE
  5
D0
330
1F
100
AcDbEntity
  8
SLD-0_0
  6
Continuous
 62
   179
370
    25
100
AcDbLine
 10
163.7334773396
 20
518.5470785547
 30
0.0
 11
263.2322186683
 21
518.5470785547
 31
0.0
  0
LINE
  5
D1
330
1F
100
AcDbEntity
  8
SLD-0_0
  6
Continuous
 62
   179
370
    25
100
AcDbLine
 10
163.7334773396
 20
510.5470781747
 30
0.0
 11
263.2322186683
 21
510.5470781747
 31
0.0
  0
LINE
  5
D2
330
1F
100
AcDbEntity
  8
SLD-0_0
  6
Continuous
 62
   179
370
    25
100
AcDbLine
 10
288.4828509842
 20
518.5470785547
 30
0.0
 11
288.4828509842
 21
510.5470781747
 31
0.0
  0
LINE
  5
D3
330
1F
100
AcDbEntity
  8
SLD-0_0
  6
Continuous
 62
   179
370
    25
100
AcDbLine
 10
263.2322186683
 20
518.5470785547
 30
0.0
 11
288.4828509842
 21
518.5470785547
 31
0.0
  0
LINE
  5
D4
330
1F
100
AcDbEntity
  8
SLD-0_0
  6
Continuous
 62
   179
370
    25
100
AcDbLine
 10
263.2322186683
 20
510.5470781747
 30
0.0
 11
288.4828509842
 21
510.5470781747
 31
0.0
  0
LINE
  5
D5
330
1F
100
AcDbEntity
  8
SLD-0_0
  6
Continuous
 62
   179
370
    25
100
AcDbLine
 10
197.1821035543
 20
277.6470781747
 30
0.0
 11
192.9200921774
 21
277.6470781747
 31
0.0
  0
LINE
  5
D6
330
1F
100
AcDbEntity
  8
SLD-0_0
  6
Continuous
 62
   179
370
    25
100
AcDbLine
 10
271.7032792126
 20
277.6470845167
 30
0.0
 11
270.7341944775
 21
277.6470781747
 31
0.0
  0
LINE
  5
D7
330
1F
100
AcDbEntity
  8
SLD-0_0
  6
Continuous
 62
   179
370
    25
100
AcDbLine
 10
213.482848004
 20
507.5470781487
 30
0.0
 11
145.9828453218
 21
507.5470781487
 31
0.0
  0
LINE
  5
D8
330
1F
100
AcDbEntity
  8
SLD-0_0
  6
Continuous
 62
   179
370
    25
100
AcDbLine
 10
280.9828506862
 20
507.5470781487
 30
0.0
 11
213.482848004
 21
507.5470781487
 31
0.0
  0
LINE
  5
D9
330
1F
100
AcDbEntity
  8
SLD-0_0
  6
Continuous
 62
   179
370
    25
100
AcDbLine
 10
213.482848004
 20
267.6470791523
 30
0.0
 11
146.9828473483
 21
267.6470791523
 31
0.0
  0
LINE
  5
DA
330
1F
100
AcDbEntity
  8
SLD-0_0
  6
Continuous
 62
   179
370
    25
100
AcDbLine
 10
279.9828486596
 20
267.6470791523
 30
0.0
 11
213.482848004
 21
267.6470791523
 31
0.0
  0
LINE
  5
DB
330
1F
100
AcDbEntity
  8
SLD-0_0
  6
Continuous
 62
   179
370
    25
100
AcDbLine
 10
147.8932710444
 20
275.6470804636
 30
0.0
 11
147.8932680253
 21
276.5947482981
 31
0.0
  0
LINE
  5
DC
330
1F
100
AcDbEntity
  8
SLD-0_0
  6
Continuous
 62
   179
370
    25
100
AcDbLine
 10
168.9921120261
 20
287.6470749799
 30
0.0
 11
213.3579524662
 21
287.6470749799
 31
0.0
  0
LINE
  5
DD
330
1F
100
AcDbEntity
  8
SLD-0_0
  6
Continuous
 62
   179
370
    25
100
AcDbLine
 10
159.5236144427
 20
287.6470781747
 30
0.0
 11
163.8608338391
 21
287.6470749799
 31
0.0
  0
LINE
  5
DE
330
1F
100
AcDbEntity
  8
SLD-0_0
  6
Continuous
 62
   179
370
    25
100
AcDbLine
 10
213.3579524662
 20
287.6470749799
 30
0.0
 11
253.8344511841
 21
287.6470749799
 31
0.0
  0
LINE
  5
DF
330
1F
100
AcDbEntity
  8
SLD-0_0
  6
Continuous
 62
   179
370
    25
100
AcDbLine
 10
262.9506686782
 20
287.6470749799
 30
0.0
 11
264.9172142283
 21
287.6470781747
 31
0.0
  0
LINE
  5
E0
330
1F
100
AcDbEntity
  8
SLD-0_0
  6
Continuous
 62
   179
370
    25
100
AcDbLine
 10
148.7666785584
 20
279.6470781747
 30
0.0
 11
148.7666785584
 21
278.6470781747
 31
0.0
  0
LINE
  5
E1
330
1F
100
AcDbEntity
  8
SLD-0_0
  6
Continuous
 62
   179
370
    25
100
AcDbLine
 10
161.9770513927
 20
558.547078592
 30
0.0
 11
197.3002353762
 21
558.547078592
 31
0.0
  0
LINE
  5
E2
330
1F
100
AcDbEntity
  8
SLD-0_0
  6
Continuous
 62
   179
370
    25
100
AcDbLine
 10
204.243219093
 20
558.547078592
 30
0.0
 11
256.3990714108
 21
558.547078592
 31
0.0
  0
LINE
  5
E3
330
1F
100
AcDbEntity
  8
SLD-0_0
  6
Continuous
 62
   179
370
    25
100
AcDbLine
 10
262.3146833931
 20
558.547078592
 30
0.0
 11
274.4530538176
 21
558.547078592
 31
0.0
  0
LINE
  5
E4
330
1F
100
AcDbEntity
  8
SLD-0_0
  6
Continuous
 62
   179
370
    25
100
AcDbLine
 10
257.2753755008
 20
275.6470807914
 30
0.0
 11
275.1645063613
 21
275.6470807914
 31
0.0
  0
LINE
  5
E5
330
1F
100
AcDbEntity
  8
SLD-0_0
  6
Continuous
 62
   179
370
    25
100
AcDbLine
 10
275.1645063613
 20
275.6470807914
 30
0.0
 11
277.9828483318
 21
275.6470785025
 31
0.0
  0
LINE
  5
E6
330
1F
100
AcDbEntity
  8
SLD-0_0
  6
Continuous
 62
   179
370
    25
100
AcDbLine
 10
152.1153520735
 20
545.5470795456
 30
0.0
 11
149.5873477252
 21
545.5470795456
 31
0.0
  0
LINE
  5
E7
330
1F
100
AcDbEntity
  8
SLD-0_0
  6
Continuous
 62
   179
370
    25
100
AcDbLine
 10
151.3499865388
 20
557.5470765654
 30
0.0
 11
158.0981711005
 21
557.5470765654
 31
0.0
  0
LINE
  5
E8
330
1F
100
AcDbEntity
  8
SLD-0_0
  6
Continuous
 62
   179
370
    25
100
AcDbLine
 10
152.1153520735
 20
545.5470795456
 30
0.0
 11
158.3862715698
 21
545.5470793967
 31
0.0
  0
LINE
  5
E9
330
1F
100
AcDbEntity
  8
SLD-0_0
  6
Continuous
 62
   179
370
    25
100
AcDbLine
 10
145.482848004
 20
557.5470781747
 30
0.0
 11
151.3499865388
 21
557.5470765654
 31
0.0
  0
LINE
  5
EA
330
1F
100
AcDbEntity
  8
SLD-0_0
  6
Continuous
 62
   179
370
    25
100
AcDbLine
 10
143.7960486801
 20
548.5470781747
 30
0.0
 11
143.7960495978
 21
542.5470793967
 31
0.0
  0
LINE
  5
EB
330
1F
100
AcDbEntity
  8
SLD-0_0
  6
Continuous
 62
   179
370
    25
100
AcDbLine
 10
143.482848004
 20
551.7073918689
 30
0.0
 11
143.482848004
 21
555.5470781747
 31
0.0
  0
LINE
  5
EC
330
1F
100
AcDbEntity
  8
SLD-0_0
  6
Continuous
 62
   179
370
    25
100
AcDbLine
 10
144.7278491034
 20
545.5470793967
 30
0.0
 11
149.5873477252
 21
545.5470795456
 31
0.0
  0
LINE
  5
ED
330
1F
100
AcDbEntity
  8
SLD-0_0
  6
Continuous
 62
   179
370
    25
100
AcDbLine
 10
160.0566083645
 20
558.547078592
 30
0.0
 11
161.9770513927
 21
558.547078592
 31
0.0
  0
LINE
  5
EE
330
1F
100
AcDbEntity
  8
SLD-0_0
  6
Continuous
 62
   179
370
    25
100
AcDbLine
 10
166.922300176
 20
290.5964022104
 30
0.0
 11
166.922300176
 21
502.5470781747
 31
0.0
  0
LINE
  5
EF
330
1F
100
AcDbEntity
  8
SLD-0_0
  6
Continuous
 62
   179
370
    25
100
AcDbLine
 10
259.543395832
 20
502.5470781747
 30
0.0
 11
259.543395832
 21
289.589024109
 31
0.0
  0
LINE
  5
F0
330
1F
100
AcDbEntity
  8
SLD-0_0
  6
Continuous
 62
   179
370
    25
100
AcDbLine
 10
154.6414518808
 20
558.547078592
 30
0.0
 11
160.0566083645
 21
558.547078592
 31
0.0
  0
LINE
  5
F1
330
1F
100
AcDbEntity
  8
SLD-0_0
  6
Continuous
 62
   179
370
    25
100
AcDbLine
 10
166.607848004
 20
290.6470810596
 30
0.0
 11
166.607848004
 21
502.5470781747
 31
0.0
  0
LINE
  5
F2
330
1F
100
AcDbEntity
  8
SLD-0_0
  6
Continuous
 62
   179
370
    25
100
AcDbLine
 10
173.982848004
 20
319.6470802251
 30
0.0
 11
173.982848004
 21
502.5470781747
 31
0.0
  0
LINE
  5
F3
330
1F
100
AcDbEntity
  8
SLD-0_0
  6
Continuous
 62
   179
370
    25
100
AcDbLine
 10
252.482848004
 20
319.6470802251
 30
0.0
 11
252.482848004
 21
502.5470781747
 31
0.0
  0
LINE
  5
F4
330
1F
100
AcDbEntity
  8
SLD-0_0
  6
Continuous
 62
   179
370
    25
100
AcDbLine
 10
138.4828450237
 20
518.5470785547
 30
0.0
 11
138.4828450237
 21
521.5470781151
 31
0.0
  0
LINE
  5
F5
330
1F
100
AcDbEntity
  8
SLD-0_0
  6
Continuous
 62
   179
370
    25
100
AcDbLine
 10
128.4828471099
 20
518.5470785547
 30
0.0
 11
128.4828471099
 21
548.5470769528
 31
0.0
  0
LINE
  5
F6
330
1F
100
AcDbEntity
  8
SLD-0_0
  6
Continuous
 62
   179
370
    25
100
AcDbLine
 10
128.4828471099
 20
551.5470793072
 30
0.0
 11
128.4828471099
 21
548.5470769528
 31
0.0
  0
LINE
  5
F7
330
1F
100
AcDbEntity
  8
SLD-0_0
  6
Continuous
 62
   179
370
    25
100
AcDbLine
 10
128.4828471099
 20
518.5470785547
 30
0.0
 11
128.482848004
 21
515.5470781747
 31
0.0
  0
LINE
  5
F8
330
1F
100
AcDbEntity
  8
SLD-0_0
  6
Continuous
 62
   179
370
    25
100
AcDbLine
 10
138.4828450237
 20
513.5470781747
 30
0.0
 11
130.482848004
 21
513.5470781747
 31
0.0
  0
LINE
  5
F9
330
1F
100
AcDbEntity
  8
SLD-0_0
  6
Continuous
 62
   179
370
    25
100
AcDbLine
 10
130.4828475569
 20
553.5470786218
 30
0.0
 11
143.4828472589
 21
553.5470800822
 31
0.0
  0
LINE
  5
FA
330
1F
100
AcDbEntity
  8
SLD-0_0
  6
Continuous
 62
   179
370
    25
100
AcDbLine
 10
146.9828473483
 20
275.6470804636
 30
0.0
 11
146.9828473483
 21
507.5470781487
 31
0.0
  0
LINE
  5
FB
330
1F
100
AcDbEntity
  8
SLD-0_0
  6
Continuous
 62
   179
370
    25
100
AcDbLine
 10
147.8932710444
 20
275.6470804636
 30
0.0
 11
146.9828473483
 21
275.6470804636
 31
0.0
  0
LINE
  5
FC
330
1F
100
AcDbEntity
  8
SLD-0_0
  6
Continuous
 62
   179
370
    25
100
AcDbLine
 10
192.3168380712
 20
290.6470811639
 30
0.0
 11
193.4828483467
 21
290.6470811639
 31
0.0
  0
LINE
  5
FD
330
1F
100
AcDbEntity
  8
SLD-0_0
  6
Continuous
 62
   179
370
    25
100
AcDbLine
 10
194.4828496476
 20
289.6470802743
 30
0.0
 11
194.4828490367
 21
288.647079416
 31
0.0
  0
LINE
  5
FE
330
1F
100
AcDbEntity
  8
SLD-0_0
  6
Continuous
 62
   179
370
    25
100
AcDbLine
 10
232.482848004
 20
288.6470781747
 30
0.0
 11
232.482848004
 21
289.6470781747
 31
0.0
  0
LINE
  5
FF
330
1F
100
AcDbEntity
  8
SLD-0_0
  6
Continuous
 62
   179
370
    25
100
AcDbLine
 10
233.482848004
 20
290.6470781747
 30
0.0
 11
234.6488578324
 21
290.6470810596
 31
0.0
  0
LINE
  5
100
330
1F
100
AcDbEntity
  8
SLD-0_0
  6
Continuous
 62
   179
370
    25
100
AcDbLine
 10
190.4828478997
 20
290.647078279
 30
0.0
 11
192.3168380712
 21
290.6470811639
 31
0.0
  0
LINE
  5
101
330
1F
100
AcDbEntity
  8
SLD-0_0
  6
Continuous
 62
   179
370
    25
100
AcDbLine
 10
234.6488578324
 20
290.6470810596
 30
0.0
 11
236.482848004
 21
290.6470781747
 31
0.0
  0
LINE
  5
102
330
1F
100
AcDbEntity
  8
SLD-0_0
  6
Continuous
 62
   179
370
    25
100
AcDbLine
 10
188.4828506457
 20
316.6470772741
 30
0.0
 11
188.4839458811
 21
316.6459894893
 31
0.0
  0
LINE
  5
103
330
1F
100
AcDbEntity
  8
SLD-0_0
  6
Continuous
 62
   179
370
    25
100
AcDbLine
 10
188.4839458811
 20
316.6459894893
 30
0.0
 11
188.4872315871
 21
316.6426963327
 31
0.0
  0
LINE
  5
104
330
1F
100
AcDbEntity
  8
SLD-0_0
  6
Continuous
 62
   179
370
    25
100
AcDbLine
 10
188.4872315871
 20
316.6426963327
 30
0.0
 11
188.4927021759
 21
316.6372276065
 31
0.0
  0
LINE
  5
105
330
1F
100
AcDbEntity
  8
SLD-0_0
  6
Continuous
 62
   179
370
    25
100
AcDbLine
 10
176.9048104483
 20
316.6470772741
 30
0.0
 11
188.4828506457
 21
316.6470772741
 31
0.0
  0
LINE
  5
106
330
1F
100
AcDbEntity
  8
SLD-0_0
  6
Continuous
 62
   179
370
    25
100
AcDbLine
 10
191.4828478849
 20
310.8186510501
 30
0.0
 11
191.482848004
 21
306.6470836822
 31
0.0
  0
LINE
  5
107
330
1F
100
AcDbEntity
  8
SLD-0_0
  6
Continuous
 62
   179
370
    25
100
AcDbLine
 10
235.4828480039
 20
310.8186488573
 30
0.0
 11
235.4828480039
 21
306.6470836822
 31
0.0
  0
LINE
  5
108
330
1F
100
AcDbEntity
  8
SLD-0_0
  6
Continuous
 62
   179
370
    25
100
AcDbLine
 10
238.4729964856
 20
316.6372266564
 30
0.0
 11
238.4828483766
 21
316.6470741456
 31
0.0
  0
LINE
  5
109
330
1F
100
AcDbEntity
  8
SLD-0_0
  6
Continuous
 62
   179
370
    25
100
AcDbLine
 10
238.4828483766
 20
316.6470741456
 30
0.0
 11
249.5586672878
 21
316.6470741456
 31
0.0
  0
LINE
  5
10A
330
1F
100
AcDbEntity
  8
SLD-0_0
  6
Continuous
 62
   179
370
    25
100
AcDbLine
 10
183.4828483392
 20
290.6470799404
 30
0.0
 11
183.4828476687
 21
289.6470770556
 31
0.0
  0
LINE
  5
10B
330
1F
100
AcDbEntity
  8
SLD-0_0
  6
Continuous
 62
   179
370
    25
100
AcDbLine
 10
243.482848004
 20
289.6470767203
 30
0.0
 11
243.4828473335
 21
290.6470796052
 31
0.0
  0
LINE
  5
10C
330
1F
100
AcDbEntity
  8
SLD-0_0
  6
Continuous
 62
   179
370
    25
100
AcDbLine
 10
183.4828483392
 20
299.6470832783
 30
0.0
 11
183.4828483392
 21
290.6470799404
 31
0.0
  0
LINE
  5
10D
330
1F
100
AcDbEntity
  8
SLD-0_0
  6
Continuous
 62
   179
370
    25
100
AcDbLine
 10
243.4828473335
 20
290.6470796052
 30
0.0
 11
243.4828480041
 21
299.6470767203
 31
0.0
  0
LINE
  5
10E
330
1F
100
AcDbEntity
  8
SLD-0_0
  6
Continuous
 62
   179
370
    25
100
AcDbLine
 10
188.4927021759
 20
316.6372276065
 30
0.0
 11
192.756173988
 21
312.3737520692
 31
0.0
  0
LINE
  5
10F
330
1F
100
AcDbEntity
  8
SLD-0_0
  6
Continuous
 62
   179
370
    25
100
AcDbLine
 10
234.2095247048
 20
312.3737548755
 30
0.0
 11
238.4729964856
 21
316.6372266564
 31
0.0
  0
LINE
  5
110
330
1F
100
AcDbEntity
  8
SLD-0_0
  6
Continuous
 62
   179
370
    25
100
AcDbLine
 10
272.482848004
 20
502.5470781747
 30
0.0
 11
272.482848004
 21
289.141834141
 31
0.0
  0
LINE
  5
111
330
1F
100
AcDbEntity
  8
SLD-0_0
  6
Continuous
 62
   179
370
    25
100
AcDbLine
 10
191.3419576441
 20
304.6470781747
 30
0.0
 11
188.482848004
 21
304.6470767203
 31
0.0
  0
LINE
  5
112
330
1F
100
AcDbEntity
  8
SLD-0_0
  6
Continuous
 62
   179
370
    25
100
AcDbLine
 10
238.4828480041
 20
304.6470767203
 30
0.0
 11
235.623738364
 21
304.6470781747
 31
0.0
  0
LINE
  5
113
330
1F
100
AcDbEntity
  8
SLD-0_0
  6
Continuous
 62
   179
370
    25
100
AcDbLine
 10
277.4124944066
 20
545.5470775191
 30
0.0
 11
274.4157926595
 21
545.5470775191
 31
0.0
  0
LINE
  5
114
330
1F
100
AcDbEntity
  8
SLD-0_0
  6
Continuous
 62
   179
370
    25
100
AcDbLine
 10
195.4828487788
 20
304.6470781747
 30
0.0
 11
191.3419576441
 21
304.6470781747
 31
0.0
  0
LINE
  5
115
330
1F
100
AcDbEntity
  8
SLD-0_0
  6
Continuous
 62
   179
370
    25
100
AcDbLine
 10
192.756173988
 20
312.3737520692
 30
0.0
 11
196.4828500944
 21
308.6470759628
 31
0.0
  0
LINE
  5
116
330
1F
100
AcDbEntity
  8
SLD-0_0
  6
Continuous
 62
   179
370
    25
100
AcDbLine
 10
196.4828500944
 20
308.6470759628
 30
0.0
 11
196.4524666267
 21
308.6344993827
 31
0.0
  0
LINE
  5
117
330
1F
100
AcDbEntity
  8
SLD-0_0
  6
Continuous
 62
   179
370
    25
100
AcDbLine
 10
196.4524666267
 20
308.6344993827
 30
0.0
 11
196.3622363704
 21
308.5971272704
 31
0.0
  0
LINE
  5
118
330
1F
100
AcDbEntity
  8
SLD-0_0
  6
Continuous
 62
   179
370
    25
100
AcDbLine
 10
196.3622363704
 20
308.5971272704
 30
0.0
 11
196.2149011391
 21
308.5360921142
 31
0.0
  0
LINE
  5
119
330
1F
100
AcDbEntity
  8
SLD-0_0
  6
Continuous
 62
   179
370
    25
100
AcDbLine
 10
196.2149011391
 20
308.5360921142
 30
0.0
 11
196.0149405944
 21
308.4532714603
 31
0.0
  0
LINE
  5
11A
330
1F
100
AcDbEntity
  8
SLD-0_0
  6
Continuous
 62
   179
370
    25
100
AcDbLine
 10
196.0149405944
 20
308.4532714603
 30
0.0
 11
195.7684269595
 21
308.3511538026
 31
0.0
  0
LINE
  5
11B
330
1F
100
AcDbEntity
  8
SLD-0_0
  6
Continuous
 62
   179
370
    25
100
AcDbLine
 10
195.7684269595
 20
308.3511538026
 30
0.0
 11
195.4828517931
 21
308.2328683851
 31
0.0
  0
LINE
  5
11C
330
1F
100
AcDbEntity
  8
SLD-0_0
  6
Continuous
 62
   179
370
    25
100
AcDbLine
 10
195.4828517931
 20
308.2328683851
 30
0.0
 11
195.1668912965
 21
308.1019914863
 31
0.0
  0
LINE
  5
11D
330
1F
100
AcDbEntity
  8
SLD-0_0
  6
Continuous
 62
   179
370
    25
100
AcDbLine
 10
195.1668912965
 20
308.1019914863
 30
0.0
 11
194.8301474052
 21
307.9625017164
 31
0.0
  0
LINE
  5
11E
330
1F
100
AcDbEntity
  8
SLD-0_0
  6
Continuous
 62
   179
370
    25
100
AcDbLine
 10
194.8301474052
 20
307.9625017164
 30
0.0
 11
194.4828516292
 21
307.8186608074
 31
0.0
  0
LINE
  5
11F
330
1F
100
AcDbEntity
  8
SLD-0_0
  6
Continuous
 62
   179
370
    25
100
AcDbLine
 10
196.4828500944
 20
308.6470759628
 30
0.0
 11
196.4828500944
 21
305.6470847842
 31
0.0
  0
LINE
  5
120
330
1F
100
AcDbEntity
  8
SLD-0_0
  6
Continuous
 62
   179
370
    25
100
AcDbLine
 10
232.4828473931
 20
307.8186576789
 30
0.0
 11
232.1355516171
 21
307.9624985879
 31
0.0
  0
LINE
  5
121
330
1F
100
AcDbEntity
  8
SLD-0_0
  6
Continuous
 62
   179
370
    25
100
AcDbLine
 10
232.1355516171
 20
307.9624985879
 30
0.0
 11
231.7988077259
 21
308.1019883578
 31
0.0
  0
LINE
  5
122
330
1F
100
AcDbEntity
  8
SLD-0_0
  6
Continuous
 62
   179
370
    25
100
AcDbLine
 10
231.7988077259
 20
308.1019883578
 30
0.0
 11
231.4828472292
 21
308.2328652566
 31
0.0
  0
LINE
  5
123
330
1F
100
AcDbEntity
  8
SLD-0_0
  6
Continuous
 62
   179
370
    25
100
AcDbLine
 10
231.4828472292
 20
308.2328652566
 30
0.0
 11
231.1972720629
 21
308.3511506741
 31
0.0
  0
LINE
  5
124
330
1F
100
AcDbEntity
  8
SLD-0_0
  6
Continuous
 62
   179
370
    25
100
AcDbLine
 10
231.1972720629
 20
308.3511506741
 30
0.0
 11
230.950758428
 21
308.4532683318
 31
0.0
  0
LINE
  5
125
330
1F
100
AcDbEntity
  8
SLD-0_0
  6
Continuous
 62
   179
370
    25
100
AcDbLine
 10
230.950758428
 20
308.4532683318
 30
0.0
 11
230.7507978832
 21
308.5360889857
 31
0.0
  0
LINE
  5
126
330
1F
100
AcDbEntity
  8
SLD-0_0
  6
Continuous
 62
   179
370
    25
100
AcDbLine
 10
230.7507978832
 20
308.5360889857
 30
0.0
 11
230.6034626519
 21
308.5971241419
 31
0.0
  0
LINE
  5
127
330
1F
100
AcDbEntity
  8
SLD-0_0
  6
Continuous
 62
   179
370
    25
100
AcDbLine
 10
230.6034626519
 20
308.5971241419
 30
0.0
 11
230.5132323956
 21
308.6344962542
 31
0.0
  0
LINE
  5
128
330
1F
100
AcDbEntity
  8
SLD-0_0
  6
Continuous
 62
   179
370
    25
100
AcDbLine
 10
230.5132323956
 20
308.6344962542
 30
0.0
 11
230.4828489279
 21
308.6470728343
 31
0.0
  0
LINE
  5
129
330
1F
100
AcDbEntity
  8
SLD-0_0
  6
Continuous
 62
   179
370
    25
100
AcDbLine
 10
230.4828489279
 20
305.6470816557
 30
0.0
 11
230.4828489279
 21
308.6470728343
 31
0.0
  0
LINE
  5
12A
330
1F
100
AcDbEntity
  8
SLD-0_0
  6
Continuous
 62
   179
370
    25
100
AcDbLine
 10
230.4828489279
 20
308.6470728343
 30
0.0
 11
234.2095247048
 21
312.3737548755
 31
0.0
  0
LINE
  5
12B
330
1F
100
AcDbEntity
  8
SLD-0_0
  6
Continuous
 62
   179
370
    25
100
AcDbLine
 10
235.623738364
 20
304.6470781747
 30
0.0
 11
231.4828480041
 21
304.6470767203
 31
0.0
  0
LINE
  5
12C
330
1F
100
AcDbEntity
  8
SLD-0_0
  6
Continuous
 62
   179
370
    25
100
AcDbLine
 10
274.4530538176
 20
558.547078592
 30
0.0
 11
274.4819620703
 21
558.547078592
 31
0.0
  0
LINE
  5
12D
330
1F
100
AcDbEntity
  8
SLD-0_0
  6
Continuous
 62
   179
370
    25
100
AcDbLine
 10
276.6872780477
 20
557.5470765654
 30
0.0
 11
281.4828516995
 21
557.5470765654
 31
0.0
  0
LINE
  5
12E
330
1F
100
AcDbEntity
  8
SLD-0_0
  6
Continuous
 62
   179
370
    25
100
AcDbLine
 10
277.4124944066
 20
545.5470775191
 30
0.0
 11
281.4828508949
 21
545.5470775191
 31
0.0
  0
LINE
  5
12F
330
1F
100
AcDbEntity
  8
SLD-0_0
  6
Continuous
 62
   179
370
    25
100
AcDbLine
 10
283.4828471994
 20
555.5470773701
 30
0.0
 11
283.4828474974
 21
545.5470775191
 31
0.0
  0
LINE
  5
130
330
1F
100
AcDbEntity
  8
SLD-0_0
  6
Continuous
 62
   179
370
    25
100
AcDbLine
 10
283.4828474974
 20
545.5470775191
 30
0.0
 11
281.4828508949
 21
545.5470775191
 31
0.0
  0
LINE
  5
131
330
1F
100
AcDbEntity
  8
SLD-0_0
  6
Continuous
 62
   179
370
    25
100
AcDbLine
 10
202.7614931914
 20
567.5470778562
 30
0.0
 11
198.838978574
 21
567.5470778562
 31
0.0
  0
LINE
  5
132
330
1F
100
AcDbEntity
  8
SLD-0_0
  6
Continuous
 62
   179
370
    25
100
AcDbLine
 10
196.6274637136
 20
567.5470778562
 30
0.0
 11
195.6276535395
 21
567.5470778562
 31
0.0
  0
LINE
  5
133
330
1F
100
AcDbEntity
  8
SLD-0_0
  6
Continuous
 62
   179
370
    25
100
AcDbLine
 10
198.838978574
 20
567.5470778562
 30
0.0
 11
196.6274637136
 21
567.5470778562
 31
0.0
  0
LINE
  5
134
330
1F
100
AcDbEntity
  8
SLD-0_0
  6
Continuous
 62
   179
370
    25
100
AcDbLine
 10
230.3382340226
 20
567.5470778562
 30
0.0
 11
202.7614931914
 21
567.5470778562
 31
0.0
  0
LINE
  5
135
330
1F
100
AcDbEntity
  8
SLD-0_0
  6
Continuous
 62
   179
370
    25
100
AcDbLine
 10
231.3380438332
 20
567.5470778562
 30
0.0
 11
230.3382340226
 21
567.5470778562
 31
0.0
  0
LINE
  5
136
330
1F
100
AcDbEntity
  8
SLD-0_0
  6
Continuous
 62
   179
370
    25
100
AcDbLine
 10
194.6276919948
 20
568.5558043766
 30
0.0
 11
194.7455830428
 21
582.0648731655
 31
0.0
  0
LINE
  5
137
330
1F
100
AcDbEntity
  8
SLD-0_0
  6
Continuous
 62
   179
370
    25
100
AcDbLine
 10
232.2201147083
 20
582.0648731806
 30
0.0
 11
232.3380057562
 21
568.5558043917
 31
0.0
  0
LINE
  5
138
330
1F
100
AcDbEntity
  8
SLD-0_0
  6
Continuous
 62
   179
370
    25
100
AcDbLine
 10
204.243219093
 20
558.547078592
 30
0.0
 11
204.243219093
 21
567.5470782045
 31
0.0
  0
LINE
  5
139
330
1F
100
AcDbEntity
  8
SLD-0_0
  6
Continuous
 62
   179
370
    25
100
AcDbLine
 10
204.243219093
 20
558.547078592
 30
0.0
 11
197.3002353762
 21
558.547078592
 31
0.0
  0
LINE
  5
13A
330
1F
100
AcDbEntity
  8
SLD-0_0
  6
Continuous
 62
   179
370
    25
100
AcDbLine
 10
188.4319841686
 20
571.547078815
 30
0.0
 11
189.7291935805
 21
571.547078815
 31
0.0
  0
LINE
  5
13B
330
1F
100
AcDbEntity
  8
SLD-0_0
  6
Continuous
 62
   179
370
    25
100
AcDbLine
 10
188.808688477
 20
567.547077871
 30
0.0
 11
156.9868657294
 21
567.547077871
 31
0.0
  0
LINE
  5
13C
330
1F
100
AcDbEntity
  8
SLD-0_0
  6
Continuous
 62
   179
370
    25
100
AcDbLine
 10
156.0542765561
 20
571.5470785266
 30
0.0
 11
156.0542765561
 21
568.5470761723
 31
0.0
  0
LINE
  5
13D
330
1F
100
AcDbEntity
  8
SLD-0_0
  6
Continuous
 62
   179
370
    25
100
AcDbLine
 10
163.604374558
 20
571.5470785266
 30
0.0
 11
156.0542765561
 21
571.5470785266
 31
0.0
  0
LINE
  5
13E
330
1F
100
AcDbEntity
  8
SLD-0_0
  6
Continuous
 62
   179
370
    25
100
AcDbLine
 10
169.172488114
 20
571.5470792511
 30
0.0
 11
163.8961378679
 21
571.5470785656
 31
0.0
  0
LINE
  5
13F
330
1F
100
AcDbEntity
  8
SLD-0_0
  6
Continuous
 62
   179
370
    25
100
AcDbLine
 10
188.4319841686
 20
571.547078815
 30
0.0
 11
169.5011745963
 21
571.547078815
 31
0.0
  0
LINE
  5
140
330
1F
100
AcDbEntity
  8
SLD-0_0
  6
Continuous
 62
   179
370
    25
100
AcDbLine
 10
190.5671968612
 20
567.547077871
 30
0.0
 11
188.808688477
 21
567.547077871
 31
0.0
  0
LINE
  5
141
330
1F
100
AcDbEntity
  8
SLD-0_0
  6
Continuous
 62
   179
370
    25
100
AcDbLine
 10
191.4972789142
 20
568.5470761723
 30
0.0
 11
191.4972789142
 21
567.5470778709
 31
0.0
  0
LINE
  5
142
330
1F
100
AcDbEntity
  8
SLD-0_0
  6
Continuous
 62
   179
370
    25
100
AcDbLine
 10
191.79097226
 20
571.547078815
 30
0.0
 11
189.7291935805
 21
571.547078815
 31
0.0
  0
LINE
  5
143
330
1F
100
AcDbEntity
  8
SLD-0_0
  6
Continuous
 62
   179
370
    25
100
AcDbLine
 10
252.9529701325
 20
567.547077886
 30
0.0
 11
232.346808106
 21
567.547077886
 31
0.0
  0
LINE
  5
144
330
1F
100
AcDbEntity
  8
SLD-0_0
  6
Continuous
 62
   179
370
    25
100
AcDbLine
 10
252.9529701325
 20
567.547077886
 30
0.0
 11
252.9529701325
 21
568.5470761873
 31
0.0
  0
LINE
  5
145
330
1F
100
AcDbEntity
  8
SLD-0_0
  6
Continuous
 62
   179
370
    25
100
AcDbLine
 10
256.3990714108
 20
567.5470782045
 30
0.0
 11
256.3990714108
 21
558.547078592
 31
0.0
  0
LINE
  5
146
330
1F
100
AcDbEntity
  8
SLD-0_0
  6
Continuous
 62
   179
370
    25
100
AcDbLine
 10
232.3380057562
 20
568.5558043917
 30
0.0
 11
232.346808106
 21
567.547077886
 31
0.0
  0
LINE
  5
147
330
1F
100
AcDbEntity
  8
SLD-0_0
  6
Continuous
 62
   179
370
    25
100
AcDbLine
 10
194.618889645
 20
567.5470778709
 30
0.0
 11
191.4972789142
 21
567.5470778709
 31
0.0
  0
LINE
  5
148
330
1F
100
AcDbEntity
  8
SLD-0_0
  6
Continuous
 62
   179
370
    25
100
AcDbLine
 10
154.6414518808
 20
558.547078592
 30
0.0
 11
154.6414518808
 21
559.5470768932
 31
0.0
  0
LINE
  5
149
330
1F
100
AcDbEntity
  8
SLD-0_0
  6
Continuous
 62
   179
370
    25
100
AcDbLine
 10
194.618889645
 20
567.5470778709
 30
0.0
 11
194.6276919948
 21
568.5558043766
 31
0.0
  0
LINE
  5
14A
330
1F
100
AcDbEntity
  8
SLD-0_0
  6
Continuous
 62
   179
370
    25
100
AcDbLine
 10
197.3990039979
 20
558.547078592
 30
0.0
 11
154.6414518808
 21
558.547078592
 31
0.0
  0
LINE
  5
14B
330
1F
100
AcDbEntity
  8
SLD-0_0
  6
Continuous
 62
   179
370
    25
100
AcDbLine
 10
249.1828488265
 20
646.5470855657
 30
0.0
 11
251.3319799756
 21
646.5470855657
 31
0.0
  0
LINE
  5
14C
330
1F
100
AcDbEntity
  8
SLD-0_0
  6
Continuous
 62
   179
370
    25
100
AcDbLine
 10
177.7506553476
 20
657.5470773092
 30
0.0
 11
178.1112696208
 21
657.54707719
 31
0.0
  0
LINE
  5
14D
330
1F
100
AcDbEntity
  8
SLD-0_0
  6
Continuous
 62
   179
370
    25
100
AcDbLine
 10
178.1112696208
 20
657.54707719
 30
0.0
 11
178.7828500547
 21
657.54707719
 31
0.0
  0
LINE
  5
14E
330
1F
100
AcDbEntity
  8
SLD-0_0
  6
Continuous
 62
   179
370
    25
100
AcDbLine
 10
257.2624969984
 20
571.5470789111
 30
0.0
 11
257.5632843877
 21
572.0429262257
 31
0.0
  0
LINE
  5
14F
330
1F
100
AcDbEntity
  8
SLD-0_0
  6
Continuous
 62
   179
370
    25
100
AcDbLine
 10
256.1933126057
 20
571.5470789111
 30
0.0
 11
257.2624969984
 21
571.5470789111
 31
0.0
  0
LINE
  5
150
330
1F
100
AcDbEntity
  8
SLD-0_0
  6
Continuous
 62
   179
370
    25
100
AcDbLine
 10
263.0695594322
 20
571.5470782881
 30
0.0
 11
257.7932104067
 21
571.5470776026
 31
0.0
  0
LINE
  5
151
330
1F
100
AcDbEntity
  8
SLD-0_0
  6
Continuous
 62
   179
370
    25
100
AcDbLine
 10
279.9828491958
 20
571.5470788993
 30
0.0
 11
263.3613228651
 21
571.5470788993
 31
0.0
  0
LINE
  5
152
330
1F
100
AcDbEntity
  8
SLD-0_0
  6
Continuous
 62
   179
370
    25
100
AcDbLine
 10
278.982848868
 20
567.547077886
 30
0.0
 11
256.9004181178
 21
567.547077886
 31
0.0
  0
LINE
  5
153
330
1F
100
AcDbEntity
  8
SLD-0_0
  6
Continuous
 62
   179
370
    25
100
AcDbLine
 10
256.1933126057
 20
571.5470789111
 30
0.0
 11
252.404047897
 21
571.5470789111
 31
0.0
  0
LINE
  5
154
330
1F
100
AcDbEntity
  8
SLD-0_0
  6
Continuous
 62
   179
370
    25
100
AcDbLine
 10
256.9004181178
 20
567.547077886
 30
0.0
 11
253.7121209653
 21
567.547077886
 31
0.0
  0
LINE
  5
155
330
1F
100
AcDbEntity
  8
SLD-0_0
  6
Continuous
 62
   179
370
    25
100
AcDbLine
 10
170.7560332571
 20
659.5470821086
 30
0.0
 11
171.2259264742
 21
659.5470821086
 31
0.0
  0
LINE
  5
156
330
1F
100
AcDbEntity
  8
SLD-0_0
  6
Continuous
 62
   179
370
    25
100
AcDbLine
 10
255.7397695337
 20
659.5470821086
 30
0.0
 11
256.2096627508
 21
659.5470821086
 31
0.0
  0
LINE
  5
157
330
1F
100
AcDbEntity
  8
SLD-0_0
  6
Continuous
 62
   179
370
    25
100
AcDbLine
 10
175.6337160324
 20
646.5470855657
 30
0.0
 11
176.530903772
 21
646.5470855657
 31
0.0
  0
LINE
  5
158
330
1F
100
AcDbEntity
  8
SLD-0_0
  6
Continuous
 62
   179
370
    25
100
AcDbLine
 10
166.2602821444
 20
659.5470821086
 30
0.0
 11
170.7560332571
 21
659.5470821086
 31
0.0
  0
LINE
  5
159
330
1F
100
AcDbEntity
  8
SLD-0_0
  6
Continuous
 62
   179
370
    25
100
AcDbLine
 10
256.2096627508
 20
659.5470821086
 30
0.0
 11
260.7054138635
 21
659.5470821086
 31
0.0
  0
LINE
  5
15A
330
1F
100
AcDbEntity
  8
SLD-0_0
  6
Continuous
 62
   179
370
    25
100
AcDbLine
 10
167.9020917974
 20
679.5470781747
 30
0.0
 11
172.1570218061
 21
679.5470779363
 31
0.0
  0
LINE
  5
15B
330
1F
100
AcDbEntity
  8
SLD-0_0
  6
Continuous
 62
   179
370
    25
100
AcDbLine
 10
254.8086742018
 20
679.5470779363
 30
0.0
 11
259.0636042105
 21
679.5470781747
 31
0.0
  0
LINE
  5
15C
330
1F
100
AcDbEntity
  8
SLD-0_0
  6
Continuous
 62
   179
370
    25
100
AcDbLine
 10
172.1570218061
 20
679.5470779363
 30
0.0
 11
180.2362145565
 21
679.5470781747
 31
0.0
  0
LINE
  5
15D
330
1F
100
AcDbEntity
  8
SLD-0_0
  6
Continuous
 62
   179
370
    25
100
AcDbLine
 10
246.7294814515
 20
679.5470781747
 30
0.0
 11
254.8086742018
 21
679.5470779363
 31
0.0
  0
LINE
  5
15E
330
1F
100
AcDbEntity
  8
SLD-0_0
  6
Continuous
 62
   179
370
    25
100
AcDbLine
 10
262.3146833931
 20
558.547078592
 30
0.0
 11
256.3990714108
 21
558.547078592
 31
0.0
  0
LINE
  5
15F
330
1F
100
AcDbEntity
  8
SLD-0_0
  6
Continuous
 62
   179
370
    25
100
AcDbLine
 10
166.1138847161
 20
659.5470781747
 30
0.0
 11
166.2602821444
 21
659.5470821086
 31
0.0
  0
LINE
  5
160
330
1F
100
AcDbEntity
  8
SLD-0_0
  6
Continuous
 62
   179
370
    25
100
AcDbLine
 10
260.7054138635
 20
659.5470821086
 30
0.0
 11
260.8518112918
 21
659.5470781747
 31
0.0
  0
LINE
  5
161
330
1F
100
AcDbEntity
  8
SLD-0_0
  6
Continuous
 62
   179
370
    25
100
AcDbLine
 10
166.3365909909
 20
659.5470821086
 30
0.0
 11
166.2747437214
 21
659.5470821086
 31
0.0
  0
LINE
  5
162
330
1F
100
AcDbEntity
  8
SLD-0_0
  6
Continuous
 62
   179
370
    25
100
AcDbLine
 10
260.692472205
 20
659.5470821086
 30
0.0
 11
260.6291050171
 21
659.5470821086
 31
0.0
  0
LINE
  5
163
330
1F
100
AcDbEntity
  8
SLD-0_0
  6
Continuous
 62
   179
370
    25
100
AcDbLine
 10
166.4467850779
 20
659.8650728885
 30
0.0
 11
166.4538333272
 21
659.9376117412
 31
0.0
  0
LINE
  5
164
330
1F
100
AcDbEntity
  8
SLD-0_0
  6
Continuous
 62
   179
370
    25
100
AcDbLine
 10
260.5118626808
 20
659.9376117412
 30
0.0
 11
260.516433612
 21
659.8630165283
 31
0.0
  0
LINE
  5
165
330
1F
100
AcDbEntity
  8
SLD-0_0
  6
Continuous
 62
   179
370
    25
100
AcDbLine
 10
156.3665108834
 20
646.5470855657
 30
0.0
 11
165.3051437889
 21
646.5470855657
 31
0.0
  0
LINE
  5
166
330
1F
100
AcDbEntity
  8
SLD-0_0
  6
Continuous
 62
   179
370
    25
100
AcDbLine
 10
261.3889934574
 20
657.5470780555
 30
0.0
 11
265.5750202094
 21
657.5470780555
 31
0.0
  0
LINE
  5
167
330
1F
100
AcDbEntity
  8
SLD-0_0
  6
Continuous
 62
   179
370
    25
100
AcDbLine
 10
265.5750202094
 20
657.5470780555
 30
0.0
 11
265.8205536209
 21
657.5470781747
 31
0.0
  0
LINE
  5
168
330
1F
100
AcDbEntity
  8
SLD-0_0
  6
Continuous
 62
   179
370
    25
100
AcDbLine
 10
150.026455105
 20
572.4934392557
 30
0.0
 11
149.9720798885
 21
572.4898082737
 31
0.0
  0
LINE
  5
169
330
1F
100
AcDbEntity
  8
SLD-0_0
  6
Continuous
 62
   179
370
    25
100
AcDbLine
 10
151.0930574656
 20
559.5470747057
 30
0.0
 11
150.4640869022
 21
559.5470747057
 31
0.0
  0
LINE
  5
16A
330
1F
100
AcDbEntity
  8
SLD-0_0
  6
Continuous
 62
   179
370
    25
100
AcDbLine
 10
160.5990446329
 20
559.5470747057
 30
0.0
 11
151.0930574656
 21
559.5470747057
 31
0.0
  0
LINE
  5
16B
330
1F
100
AcDbEntity
  8
SLD-0_0
  6
Continuous
 62
   179
370
    25
100
AcDbLine
 10
149.0799403906
 20
571.5470766727
 30
0.0
 11
143.8178858876
 21
571.5470766727
 31
0.0
  0
LINE
  5
16C
330
1F
100
AcDbEntity
  8
SLD-0_0
  6
Continuous
 62
   179
370
    25
100
AcDbLine
 10
150.4640869022
 20
559.5470747057
 30
0.0
 11
144.2983365774
 21
559.5470747057
 31
0.0
  0
LINE
  5
16D
330
1F
100
AcDbEntity
  8
SLD-0_0
  6
Continuous
 62
   179
370
    25
100
AcDbLine
 10
160.9645924687
 20
559.5470747057
 30
0.0
 11
160.5990446329
 21
559.5470747057
 31
0.0
  0
LINE
  5
16E
330
1F
100
AcDbEntity
  8
SLD-0_0
  6
Continuous
 62
   179
370
    25
100
AcDbLine
 10
184.4828483392
 20
681.5470778395
 30
0.0
 11
242.4828483392
 21
681.5470778395
 31
0.0
  0
LINE
  5
16F
330
1F
100
AcDbEntity
  8
SLD-0_0
  6
Continuous
 62
   179
370
    25
100
AcDbLine
 10
266.8302865778
 20
657.5470780555
 30
0.0
 11
271.5450884854
 21
657.5470780555
 31
0.0
  0
LINE
  5
170
330
1F
100
AcDbEntity
  8
SLD-0_0
  6
Continuous
 62
   179
370
    25
100
AcDbLine
 10
271.5450884854
 20
657.5470780555
 30
0.0
 11
271.7155521143
 21
657.5470781747
 31
0.0
  0
LINE
  5
171
330
1F
100
AcDbEntity
  8
SLD-0_0
  6
Continuous
 62
   179
370
    25
100
AcDbLine
 10
266.8159479355
 20
657.5470780555
 30
0.0
 11
266.8302865778
 21
657.5470780555
 31
0.0
  0
LINE
  5
172
330
1F
100
AcDbEntity
  8
SLD-0_0
  6
Continuous
 62
   179
370
    25
100
AcDbLine
 10
144.2983365774
 20
559.5470747057
 30
0.0
 11
144.2787812523
 21
559.5470759872
 31
0.0
  0
LINE
  5
173
330
1F
100
AcDbEntity
  8
SLD-0_0
  6
Continuous
 62
   179
370
    25
100
AcDbLine
 10
143.7787777901
 20
571.5470766727
 30
0.0
 11
143.8178858876
 21
571.5470766727
 31
0.0
  0
LINE
  5
174
330
1F
100
AcDbEntity
  8
SLD-0_0
  6
Continuous
 62
   179
370
    25
100
AcDbLine
 10
154.6414518808
 20
558.547078592
 30
0.0
 11
154.5448588287
 21
558.547078592
 31
0.0
  0
LINE
  5
175
330
1F
100
AcDbEntity
  8
SLD-0_0
  6
Continuous
 62
   179
370
    25
100
AcDbLine
 10
271.7155521143
 20
657.5470781747
 30
0.0
 11
275.2838568841
 21
657.5470780555
 31
0.0
  0
LINE
  5
176
330
1F
100
AcDbEntity
  8
SLD-0_0
  6
Continuous
 62
   179
370
    25
100
AcDbLine
 10
275.2838568841
 20
657.5470780555
 30
0.0
 11
275.3727004459
 21
657.5470781747
 31
0.0
  0
LINE
  5
177
330
1F
100
AcDbEntity
  8
SLD-0_0
  6
Continuous
 62
   179
370
    25
100
AcDbLine
 10
151.463019297
 20
657.5470780555
 30
0.0
 11
156.4951041793
 21
657.5470780555
 31
0.0
  0
LINE
  5
178
330
1F
100
AcDbEntity
  8
SLD-0_0
  6
Continuous
 62
   179
370
    25
100
AcDbLine
 10
151.3816434134
 20
657.5470781747
 30
0.0
 11
151.463019297
 21
657.5470780555
 31
0.0
  0
LINE
  5
179
330
1F
100
AcDbEntity
  8
SLD-0_0
  6
Continuous
 62
   179
370
    25
100
AcDbLine
 10
156.4951041793
 20
657.5470780555
 30
0.0
 11
156.5103890454
 21
657.5470780555
 31
0.0
  0
LINE
  5
17A
330
1F
100
AcDbEntity
  8
SLD-0_0
  6
Continuous
 62
   179
370
    25
100
AcDbLine
 10
275.3727004459
 20
657.5470781747
 30
0.0
 11
276.6476484095
 21
657.5470780555
 31
0.0
  0
LINE
  5
17B
330
1F
100
AcDbEntity
  8
SLD-0_0
  6
Continuous
 62
   179
370
    25
100
AcDbLine
 10
279.8839571034
 20
571.5470788602
 30
0.0
 11
277.6510777031
 21
656.5732573692
 31
0.0
  0
LINE
  5
17C
330
1F
100
AcDbEntity
  8
SLD-0_0
  6
Continuous
 62
   179
370
    25
100
AcDbLine
 10
147.0817389046
 20
571.5470788602
 30
0.0
 11
149.3146183048
 21
656.5732573692
 31
0.0
  0
LINE
  5
17D
330
1F
100
AcDbEntity
  8
SLD-0_0
  6
Continuous
 62
   179
370
    25
100
AcDbLine
 10
276.6476484095
 20
657.5470780555
 30
0.0
 11
276.6514556562
 21
657.5470780555
 31
0.0
  0
LINE
  5
17E
330
1F
100
AcDbEntity
  8
SLD-0_0
  6
Continuous
 62
   179
370
    25
100
AcDbLine
 10
150.3142403518
 20
657.5470780555
 30
0.0
 11
151.3816434134
 21
657.5470781747
 31
0.0
  0
LINE
  5
17F
330
1F
100
AcDbEntity
  8
SLD-0_0
  6
Continuous
 62
   179
370
    25
100
AcDbLine
 10
276.6498537813
 20
558.547078592
 30
0.0
 11
274.5113322591
 21
558.547078592
 31
0.0
  0
LINE
  5
180
330
1F
100
AcDbEntity
  8
SLD-0_0
  6
Continuous
 62
   179
370
    25
100
AcDbLine
 10
282.3782555612
 20
559.5470769323
 30
0.0
 11
276.6498543175
 21
559.5470769323
 31
0.0
  0
LINE
  5
181
330
1F
100
AcDbEntity
  8
SLD-0_0
  6
Continuous
 62
   179
370
    25
100
AcDbLine
 10
282.5696013721
 20
571.5470788993
 30
0.0
 11
279.9828491958
 21
571.5470788993
 31
0.0
  0
LINE
  5
182
330
1F
100
AcDbEntity
  8
SLD-0_0
  6
Continuous
 62
   179
370
    25
100
AcDbLine
 10
282.6869157653
 20
559.5470782138
 30
0.0
 11
282.3782555612
 21
559.5470769323
 31
0.0
  0
LINE
  5
183
330
1F
100
AcDbEntity
  8
SLD-0_0
  6
Continuous
 62
   179
370
    25
100
AcDbLine
 10
282.5696013721
 20
571.5470788993
 30
0.0
 11
283.1869192275
 21
571.5470788993
 31
0.0
  0
LINE
  5
184
330
1F
100
AcDbEntity
  8
SLD-0_0
  6
Continuous
 62
   179
370
    25
100
AcDbLine
 10
157.9981358801
 20
264.3470828954
 30
0.0
 11
158.5869515394
 21
264.3470828954
 31
0.0
  0
LINE
  5
185
330
1F
100
AcDbEntity
  8
SLD-0_0
  6
Continuous
 62
   179
370
    25
100
AcDbLine
 10
154.1919546281
 20
264.3470828954
 30
0.0
 11
157.9981358801
 21
264.3470828954
 31
0.0
  0
LINE
  5
186
330
1F
100
AcDbEntity
  8
SLD-0_0
  6
Continuous
 62
   179
370
    25
100
AcDbLine
 10
150.3857733761
 20
264.3470828954
 30
0.0
 11
154.1919546281
 21
264.3470828954
 31
0.0
  0
LINE
  5
187
330
1F
100
AcDbEntity
  8
SLD-0_0
  6
Continuous
 62
   179
370
    25
100
AcDbLine
 10
149.7969539915
 20
264.3470828954
 30
0.0
 11
150.3857733761
 21
264.3470828954
 31
0.0
  0
LINE
  5
188
330
1F
100
AcDbEntity
  8
SLD-0_0
  6
Continuous
 62
   179
370
    25
100
AcDbLine
 10
150.3857733761
 20
264.3470828954
 30
0.0
 11
150.3857733761
 21
260.8470832531
 31
0.0
  0
LINE
  5
189
330
1F
100
AcDbEntity
  8
SLD-0_0
  6
Continuous
 62
   179
370
    25
100
AcDbLine
 10
154.1919546281
 20
264.3470828954
 30
0.0
 11
154.1919546281
 21
260.8470832531
 31
0.0
  0
LINE
  5
18A
330
1F
100
AcDbEntity
  8
SLD-0_0
  6
Continuous
 62
   179
370
    25
100
AcDbLine
 10
150.3857733761
 20
260.8470832531
 30
0.0
 11
154.1919546281
 21
260.8470832531
 31
0.0
  0
LINE
  5
18B
330
1F
100
AcDbEntity
  8
SLD-0_0
  6
Continuous
 62
   179
370
    25
100
AcDbLine
 10
157.9981358801
 20
264.3470828954
 30
0.0
 11
157.9981358801
 21
260.8470832531
 31
0.0
  0
LINE
  5
18C
330
1F
100
AcDbEntity
  8
SLD-0_0
  6
Continuous
 62
   179
370
    25
100
AcDbLine
 10
154.1919546281
 20
260.8470832531
 30
0.0
 11
157.9981358801
 21
260.8470832531
 31
0.0
  0
LINE
  5
18D
330
1F
100
AcDbEntity
  8
SLD-0_0
  6
Continuous
 62
   179
370
    25
100
AcDbLine
 10
191.5496202265
 20
264.3470828954
 30
0.0
 11
191.5496202265
 21
260.8470832531
 31
0.0
  0
LINE
  5
18E
330
1F
100
AcDbEntity
  8
SLD-0_0
  6
Continuous
 62
   179
370
    25
100
AcDbLine
 10
195.3558014785
 20
264.3470828954
 30
0.0
 11
195.3558014785
 21
260.8470832531
 31
0.0
  0
LINE
  5
18F
330
1F
100
AcDbEntity
  8
SLD-0_0
  6
Continuous
 62
   179
370
    25
100
AcDbLine
 10
191.5496202265
 20
260.8470832531
 30
0.0
 11
195.3558014785
 21
260.8470832531
 31
0.0
  0
LINE
  5
190
330
1F
100
AcDbEntity
  8
SLD-0_0
  6
Continuous
 62
   179
370
    25
100
AcDbLine
 10
199.1619836618
 20
264.3470828954
 30
0.0
 11
199.7508021151
 21
264.3470828954
 31
0.0
  0
LINE
  5
191
330
1F
100
AcDbEntity
  8
SLD-0_0
  6
Continuous
 62
   179
370
    25
100
AcDbLine
 10
195.3558014785
 20
264.3470828954
 30
0.0
 11
199.1619836618
 21
264.3470828954
 31
0.0
  0
LINE
  5
192
330
1F
100
AcDbEntity
  8
SLD-0_0
  6
Continuous
 62
   179
370
    25
100
AcDbLine
 10
191.5496202265
 20
264.3470828954
 30
0.0
 11
195.3558014785
 21
264.3470828954
 31
0.0
  0
LINE
  5
193
330
1F
100
AcDbEntity
  8
SLD-0_0
  6
Continuous
 62
   179
370
    25
100
AcDbLine
 10
190.9608027046
 20
264.3470828954
 30
0.0
 11
191.5496202265
 21
264.3470828954
 31
0.0
  0
LINE
  5
194
330
1F
100
AcDbEntity
  8
SLD-0_0
  6
Continuous
 62
   179
370
    25
100
AcDbLine
 10
199.1619836618
 20
264.3470828954
 30
0.0
 11
199.1619836618
 21
260.8470832531
 31
0.0
  0
LINE
  5
195
330
1F
100
AcDbEntity
  8
SLD-0_0
  6
Continuous
 62
   179
370
    25
100
AcDbLine
 10
195.3558014785
 20
260.8470832531
 30
0.0
 11
199.1619836618
 21
260.8470832531
 31
0.0
  0
LINE
  5
196
330
1F
100
AcDbEntity
  8
SLD-0_0
  6
Continuous
 62
   179
370
    25
100
AcDbLine
 10
193.5326797967
 20
276.3470774118
 30
0.0
 11
196.0730595593
 21
276.3470774118
 31
0.0
  0
LINE
  5
197
330
1F
100
AcDbEntity
  8
SLD-0_0
  6
Continuous
 62
   179
370
    25
100
AcDbLine
 10
227.8037123461
 20
264.2470812027
 30
0.0
 11
227.8037123461
 21
260.8470832531
 31
0.0
  0
LINE
  5
198
330
1F
100
AcDbEntity
  8
SLD-0_0
  6
Continuous
 62
   179
370
    25
100
AcDbLine
 10
231.6098945295
 20
264.2470812027
 30
0.0
 11
231.6098945295
 21
260.8470832531
 31
0.0
  0
LINE
  5
199
330
1F
100
AcDbEntity
  8
SLD-0_0
  6
Continuous
 62
   179
370
    25
100
AcDbLine
 10
227.8037123461
 20
260.8470832531
 30
0.0
 11
231.6098945295
 21
260.8470832531
 31
0.0
  0
LINE
  5
19A
330
1F
100
AcDbEntity
  8
SLD-0_0
  6
Continuous
 62
   179
370
    25
100
AcDbLine
 10
235.4160757815
 20
264.2470812027
 30
0.0
 11
235.4160757815
 21
260.8470832531
 31
0.0
  0
LINE
  5
19B
330
1F
100
AcDbEntity
  8
SLD-0_0
  6
Continuous
 62
   179
370
    25
100
AcDbLine
 10
231.6098945295
 20
260.8470832531
 30
0.0
 11
235.4160757815
 21
260.8470832531
 31
0.0
  0
LINE
  5
19C
330
1F
100
AcDbEntity
  8
SLD-0_0
  6
Continuous
 62
   179
370
    25
100
AcDbLine
 10
276.5799226319
 20
264.3470828954
 30
0.0
 11
277.1687420164
 21
264.3470828954
 31
0.0
  0
LINE
  5
19D
330
1F
100
AcDbEntity
  8
SLD-0_0
  6
Continuous
 62
   179
370
    25
100
AcDbLine
 10
272.7737413799
 20
264.3470828954
 30
0.0
 11
276.5799226319
 21
264.3470828954
 31
0.0
  0
LINE
  5
19E
330
1F
100
AcDbEntity
  8
SLD-0_0
  6
Continuous
 62
   179
370
    25
100
AcDbLine
 10
268.9675601278
 20
264.3470828954
 30
0.0
 11
272.7737413799
 21
264.3470828954
 31
0.0
  0
LINE
  5
19F
330
1F
100
AcDbEntity
  8
SLD-0_0
  6
Continuous
 62
   179
370
    25
100
AcDbLine
 10
268.3787444686
 20
264.3470828954
 30
0.0
 11
268.9675601278
 21
264.3470828954
 31
0.0
  0
LINE
  5
1A0
330
1F
100
AcDbEntity
  8
SLD-0_0
  6
Continuous
 62
   179
370
    25
100
AcDbLine
 10
268.9675601278
 20
264.3470828954
 30
0.0
 11
268.9675601278
 21
260.8470832531
 31
0.0
  0
LINE
  5
1A1
330
1F
100
AcDbEntity
  8
SLD-0_0
  6
Continuous
 62
   179
370
    25
100
AcDbLine
 10
272.7737413799
 20
264.3470828954
 30
0.0
 11
272.7737413799
 21
260.8470832531
 31
0.0
  0
LINE
  5
1A2
330
1F
100
AcDbEntity
  8
SLD-0_0
  6
Continuous
 62
   179
370
    25
100
AcDbLine
 10
268.9675601278
 20
260.8470832531
 30
0.0
 11
272.7737413799
 21
260.8470832531
 31
0.0
  0
LINE
  5
1A3
330
1F
100
AcDbEntity
  8
SLD-0_0
  6
Continuous
 62
   179
370
    25
100
AcDbLine
 10
276.5799226319
 20
264.3470828954
 30
0.0
 11
276.5799226319
 21
260.8470832531
 31
0.0
  0
LINE
  5
1A4
330
1F
100
AcDbEntity
  8
SLD-0_0
  6
Continuous
 62
   179
370
    25
100
AcDbLine
 10
272.7737413799
 20
260.8470832531
 30
0.0
 11
276.5799226319
 21
260.8470832531
 31
0.0
  0
LINE
  5
1A5
330
1F
100
AcDbEntity
  8
SLD-0_0
  6
Continuous
 62
   179
370
    25
100
AcDbLine
 10
271.4604461645
 20
276.3470774118
 30
0.0
 11
275.273742721
 21
276.3470774118
 31
0.0
  0
LINE
  5
1A6
330
1F
100
AcDbEntity
  8
SLD-0_0
  6
Continuous
 62
   179
370
    25
100
AcDbLine
 10
241.9678481374
 20
589.867106599
 30
0.0
 11
241.9678481374
 21
588.735333604
 31
0.0
  0
LINE
  5
1A7
330
1F
100
AcDbEntity
  8
SLD-0_0
  6
Continuous
 62
   179
370
    25
100
AcDbLine
 10
242.9978480641
 20
588.735333604
 30
0.0
 11
242.9978480641
 21
589.867106599
 31
0.0
  0
LINE
  5
1A8
330
1F
100
AcDbEntity
  8
SLD-0_0
  6
Continuous
 62
   179
370
    25
100
AcDbLine
 10
242.9978480642
 20
591.4819528881
 30
0.0
 11
242.9978480642
 21
592.4282660309
 31
0.0
  0
LINE
  5
1A9
330
1F
100
AcDbEntity
  8
SLD-0_0
  6
Continuous
 62
   179
370
    25
100
AcDbLine
 10
241.9678481375
 20
592.4282660309
 30
0.0
 11
241.9678481375
 21
591.4819528881
 31
0.0
  0
LINE
  5
1AA
330
1F
100
AcDbEntity
  8
SLD-0_0
  6
Continuous
 62
   179
370
    25
100
AcDbLine
 10
241.9678481375
 20
588.9309038941
 30
0.0
 11
242.9978480642
 21
588.9309038941
 31
0.0
  0
LINE
  5
1AB
330
1F
100
AcDbEntity
  8
SLD-0_0
  6
Continuous
 62
   179
370
    25
100
AcDbLine
 10
246.4828478252
 20
590.1333903495
 30
0.0
 11
246.3051403021
 21
591.2303765837
 31
0.0
  0
LINE
  5
1AC
330
1F
100
AcDbEntity
  8
SLD-0_0
  6
Continuous
 62
   179
370
    25
100
AcDbLine
 10
246.3051403021
 20
591.2303765837
 30
0.0
 11
245.7878017877
 21
592.229886872
 31
0.0
  0
LINE
  5
1AD
330
1F
100
AcDbEntity
  8
SLD-0_0
  6
Continuous
 62
   179
370
    25
100
AcDbLine
 10
245.7878017877
 20
592.229886872
 30
0.0
 11
244.9768060898
 21
593.0431102935
 31
0.0
  0
LINE
  5
1AE
330
1F
100
AcDbEntity
  8
SLD-0_0
  6
Continuous
 62
   179
370
    25
100
AcDbLine
 10
244.9768060898
 20
593.0431102935
 30
0.0
 11
243.9442114984
 21
593.5977985684
 31
0.0
  0
LINE
  5
1AF
330
1F
100
AcDbEntity
  8
SLD-0_0
  6
Continuous
 62
   179
370
    25
100
AcDbLine
 10
243.9442114984
 20
593.5977985684
 30
0.0
 11
242.7817681884
 21
593.8446586553
 31
0.0
  0
LINE
  5
1B0
330
1F
100
AcDbEntity
  8
SLD-0_0
  6
Continuous
 62
   179
370
    25
100
AcDbLine
 10
242.7817681884
 20
593.8446586553
 30
0.0
 11
241.5927635585
 21
593.761756045
 31
0.0
  0
LINE
  5
1B1
330
1F
100
AcDbEntity
  8
SLD-0_0
  6
Continuous
 62
   179
370
    25
100
AcDbLine
 10
241.5927635585
 20
593.761756045
 30
0.0
 11
240.4828487043
 21
593.3564519111
 31
0.0
  0
LINE
  5
1B2
330
1F
100
AcDbEntity
  8
SLD-0_0
  6
Continuous
 62
   179
370
    25
100
AcDbLine
 10
240.4828487043
 20
593.3564519111
 30
0.0
 11
239.5506413733
 21
592.6647698108
 31
0.0
  0
LINE
  5
1B3
330
1F
100
AcDbEntity
  8
SLD-0_0
  6
Continuous
 62
   179
370
    25
100
AcDbLine
 10
239.5506413733
 20
592.6647698108
 30
0.0
 11
238.8789733951
 21
591.7481621329
 31
0.0
  0
LINE
  5
1B4
330
1F
100
AcDbEntity
  8
SLD-0_0
  6
Continuous
 62
   179
370
    25
100
AcDbLine
 10
238.8789733951
 20
591.7481621329
 30
0.0
 11
238.5275239204
 21
590.6880786244
 31
0.0
  0
LINE
  5
1B5
330
1F
100
AcDbEntity
  8
SLD-0_0
  6
Continuous
 62
   179
370
    25
100
AcDbLine
 10
238.5275239204
 20
590.6880786244
 30
0.0
 11
238.5275239204
 21
589.5787095253
 31
0.0
  0
LINE
  5
1B6
330
1F
100
AcDbEntity
  8
SLD-0_0
  6
Continuous
 62
   179
370
    25
100
AcDbLine
 10
238.5275239204
 20
589.5787095253
 30
0.0
 11
238.8789733951
 21
588.5186185662
 31
0.0
  0
LINE
  5
1B7
330
1F
100
AcDbEntity
  8
SLD-0_0
  6
Continuous
 62
   179
370
    25
100
AcDbLine
 10
238.8789733951
 20
588.5186185662
 30
0.0
 11
239.5506413733
 21
587.6020108882
 31
0.0
  0
LINE
  5
1B8
330
1F
100
AcDbEntity
  8
SLD-0_0
  6
Continuous
 62
   179
370
    25
100
AcDbLine
 10
239.5506413733
 20
587.6020108882
 30
0.0
 11
240.4828487043
 21
586.910328788
 31
0.0
  0
LINE
  5
1B9
330
1F
100
AcDbEntity
  8
SLD-0_0
  6
Continuous
 62
   179
370
    25
100
AcDbLine
 10
240.4828487043
 20
586.910328788
 30
0.0
 11
241.5927635585
 21
586.5050321046
 31
0.0
  0
LINE
  5
1BA
330
1F
100
AcDbEntity
  8
SLD-0_0
  6
Continuous
 62
   179
370
    25
100
AcDbLine
 10
241.5927635585
 20
586.5050321046
 30
0.0
 11
242.7817681884
 21
586.4221294943
 31
0.0
  0
LINE
  5
1BB
330
1F
100
AcDbEntity
  8
SLD-0_0
  6
Continuous
 62
   179
370
    25
100
AcDbLine
 10
242.7817681884
 20
586.4221294943
 30
0.0
 11
243.9442114984
 21
586.6689895813
 31
0.0
  0
LINE
  5
1BC
330
1F
100
AcDbEntity
  8
SLD-0_0
  6
Continuous
 62
   179
370
    25
100
AcDbLine
 10
243.9442114984
 20
586.6689895813
 30
0.0
 11
244.9768060898
 21
587.2236704055
 31
0.0
  0
LINE
  5
1BD
330
1F
100
AcDbEntity
  8
SLD-0_0
  6
Continuous
 62
   179
370
    25
100
AcDbLine
 10
244.9768060898
 20
587.2236704055
 30
0.0
 11
245.7878017877
 21
588.0369012777
 31
0.0
  0
LINE
  5
1BE
330
1F
100
AcDbEntity
  8
SLD-0_0
  6
Continuous
 62
   179
370
    25
100
AcDbLine
 10
245.7878017877
 20
588.0369012777
 30
0.0
 11
246.3051403021
 21
589.0364115659
 31
0.0
  0
LINE
  5
1BF
330
1F
100
AcDbEntity
  8
SLD-0_0
  6
Continuous
 62
   179
370
    25
100
AcDbLine
 10
246.3051403021
 20
589.0364115659
 30
0.0
 11
246.4828478252
 21
590.1333903495
 31
0.0
  0
LINE
  5
1C0
330
1F
100
AcDbEntity
  8
SLD-0_0
  6
Continuous
 62
   179
370
    25
100
AcDbLine
 10
240.4982918953
 20
591.0609652822
 30
0.0
 11
241.4995288556
 21
590.3249671284
 31
0.0
  0
LINE
  5
1C1
330
1F
100
AcDbEntity
  8
SLD-0_0
  6
Continuous
 62
   179
370
    25
100
AcDbLine
 10
241.4995288556
 20
590.3249671284
 30
0.0
 11
241.4995288556
 21
590.1892548029
 31
0.0
  0
LINE
  5
1C2
330
1F
100
AcDbEntity
  8
SLD-0_0
  6
Continuous
 62
   179
370
    25
100
AcDbLine
 10
243.4661673461
 20
590.1892548029
 30
0.0
 11
243.4661673461
 21
590.3249671284
 31
0.0
  0
LINE
  5
1C3
330
1F
100
AcDbEntity
  8
SLD-0_0
  6
Continuous
 62
   179
370
    25
100
AcDbLine
 10
244.4674043064
 20
591.0609652821
 30
0.0
 11
243.4661673461
 21
590.3249671284
 31
0.0
  0
LINE
  5
1C4
330
1F
100
AcDbEntity
  8
SLD-0_0
  6
Continuous
 62
   179
370
    25
100
AcDbLine
 10
241.4995288556
 20
590.3249671284
 30
0.0
 11
241.8053696011
 21
590.3249671284
 31
0.0
  0
LINE
  5
1C5
330
1F
100
AcDbEntity
  8
SLD-0_0
  6
Continuous
 62
   179
370
    25
100
AcDbLine
 10
243.1603266006
 20
590.3249671284
 30
0.0
 11
243.4661673461
 21
590.3249671284
 31
0.0
  0
LINE
  5
1C6
330
1F
100
AcDbEntity
  8
SLD-0_0
  6
Continuous
 62
   179
370
    25
100
AcDbLine
 10
242.9978480642
 20
590.7606994335
 30
0.0
 11
241.9678481375
 21
590.7606994335
 31
0.0
  0
LINE
  5
1C7
330
1F
100
AcDbEntity
  8
SLD-0_0
  6
Continuous
 62
   179
370
    25
100
AcDbLine
 10
243.2863792484
 20
590.1065533581
 30
0.0
 11
243.2347187852
 21
590.2166803899
 31
0.0
  0
LINE
  5
1C8
330
1F
100
AcDbEntity
  8
SLD-0_0
  6
Continuous
 62
   179
370
    25
100
AcDbLine
 10
243.2347187852
 20
590.2166803899
 30
0.0
 11
243.1603266006
 21
590.3249671284
 31
0.0
  0
LINE
  5
1C9
330
1F
100
AcDbEntity
  8
SLD-0_0
  6
Continuous
 62
   179
370
    25
100
AcDbLine
 10
241.8053696011
 20
590.3249671284
 30
0.0
 11
241.7309774165
 21
590.21668039
 31
0.0
  0
LINE
  5
1CA
330
1F
100
AcDbEntity
  8
SLD-0_0
  6
Continuous
 62
   179
370
    25
100
AcDbLine
 10
241.7309774165
 20
590.21668039
 30
0.0
 11
241.6793169533
 21
590.1065533582
 31
0.0
  0
LINE
  5
1CB
330
1F
100
AcDbEntity
  8
SLD-0_0
  6
Continuous
 62
   179
370
    25
100
AcDbLine
 10
183.9678479438
 20
589.867106599
 30
0.0
 11
183.9678479438
 21
588.735333604
 31
0.0
  0
LINE
  5
1CC
330
1F
100
AcDbEntity
  8
SLD-0_0
  6
Continuous
 62
   179
370
    25
100
AcDbLine
 10
184.9978478705
 20
588.735333604
 30
0.0
 11
184.9978478705
 21
589.867106599
 31
0.0
  0
LINE
  5
1CD
330
1F
100
AcDbEntity
  8
SLD-0_0
  6
Continuous
 62
   179
370
    25
100
AcDbLine
 10
184.9978478705
 20
591.4819528881
 30
0.0
 11
184.9978478705
 21
592.4282660309
 31
0.0
  0
LINE
  5
1CE
330
1F
100
AcDbEntity
  8
SLD-0_0
  6
Continuous
 62
   179
370
    25
100
AcDbLine
 10
183.9678479438
 20
592.4282660309
 30
0.0
 11
183.9678479438
 21
591.4819528881
 31
0.0
  0
LINE
  5
1CF
330
1F
100
AcDbEntity
  8
SLD-0_0
  6
Continuous
 62
   179
370
    25
100
AcDbLine
 10
183.9678479438
 20
588.9309038941
 30
0.0
 11
184.9978478705
 21
588.9309038941
 31
0.0
  0
LINE
  5
1D0
330
1F
100
AcDbEntity
  8
SLD-0_0
  6
Continuous
 62
   179
370
    25
100
AcDbLine
 10
188.4828476314
 20
590.1333903495
 30
0.0
 11
188.3051401083
 21
591.2303765837
 31
0.0
  0
LINE
  5
1D1
330
1F
100
AcDbEntity
  8
SLD-0_0
  6
Continuous
 62
   179
370
    25
100
AcDbLine
 10
188.3051401083
 20
591.2303765837
 30
0.0
 11
187.7878034567
 21
592.229886872
 31
0.0
  0
LINE
  5
1D2
330
1F
100
AcDbEntity
  8
SLD-0_0
  6
Continuous
 62
   179
370
    25
100
AcDbLine
 10
187.7878034567
 20
592.229886872
 30
0.0
 11
186.9768077587
 21
593.0431102935
 31
0.0
  0
LINE
  5
1D3
330
1F
100
AcDbEntity
  8
SLD-0_0
  6
Continuous
 62
   179
370
    25
100
AcDbLine
 10
186.9768077587
 20
593.0431102935
 30
0.0
 11
185.9442113047
 21
593.5977985684
 31
0.0
  0
LINE
  5
1D4
330
1F
100
AcDbEntity
  8
SLD-0_0
  6
Continuous
 62
   179
370
    25
100
AcDbLine
 10
185.9442113047
 20
593.5977985684
 30
0.0
 11
184.7817679946
 21
593.8446586553
 31
0.0
  0
LINE
  5
1D5
330
1F
100
AcDbEntity
  8
SLD-0_0
  6
Continuous
 62
   179
370
    25
100
AcDbLine
 10
184.7817679946
 20
593.8446586553
 30
0.0
 11
183.5927633648
 21
593.761756045
 31
0.0
  0
LINE
  5
1D6
330
1F
100
AcDbEntity
  8
SLD-0_0
  6
Continuous
 62
   179
370
    25
100
AcDbLine
 10
183.5927633648
 20
593.761756045
 30
0.0
 11
182.4828485106
 21
593.3564519111
 31
0.0
  0
LINE
  5
1D7
330
1F
100
AcDbEntity
  8
SLD-0_0
  6
Continuous
 62
   179
370
    25
100
AcDbLine
 10
182.4828485106
 20
593.3564519111
 30
0.0
 11
181.5506393169
 21
592.6647698108
 31
0.0
  0
LINE
  5
1D8
330
1F
100
AcDbEntity
  8
SLD-0_0
  6
Continuous
 62
   179
370
    25
100
AcDbLine
 10
181.5506393169
 20
592.6647698108
 30
0.0
 11
180.8789732014
 21
591.7481621329
 31
0.0
  0
LINE
  5
1D9
330
1F
100
AcDbEntity
  8
SLD-0_0
  6
Continuous
 62
   179
370
    25
100
AcDbLine
 10
180.8789732014
 20
591.7481621329
 30
0.0
 11
180.5275255893
 21
590.6880786244
 31
0.0
  0
LINE
  5
1DA
330
1F
100
AcDbEntity
  8
SLD-0_0
  6
Continuous
 62
   179
370
    25
100
AcDbLine
 10
180.5275255893
 20
590.6880786244
 30
0.0
 11
180.5275255893
 21
589.5787095253
 31
0.0
  0
LINE
  5
1DB
330
1F
100
AcDbEntity
  8
SLD-0_0
  6
Continuous
 62
   179
370
    25
100
AcDbLine
 10
180.5275255893
 20
589.5787095253
 30
0.0
 11
180.8789732014
 21
588.5186185662
 31
0.0
  0
LINE
  5
1DC
330
1F
100
AcDbEntity
  8
SLD-0_0
  6
Continuous
 62
   179
370
    25
100
AcDbLine
 10
180.8789732014
 20
588.5186185662
 30
0.0
 11
181.5506393169
 21
587.6020108882
 31
0.0
  0
LINE
  5
1DD
330
1F
100
AcDbEntity
  8
SLD-0_0
  6
Continuous
 62
   179
370
    25
100
AcDbLine
 10
181.5506393169
 20
587.6020108882
 30
0.0
 11
182.4828485106
 21
586.910328788
 31
0.0
  0
LINE
  5
1DE
330
1F
100
AcDbEntity
  8
SLD-0_0
  6
Continuous
 62
   179
370
    25
100
AcDbLine
 10
182.4828485106
 20
586.910328788
 30
0.0
 11
183.5927633648
 21
586.5050321046
 31
0.0
  0
LINE
  5
1DF
330
1F
100
AcDbEntity
  8
SLD-0_0
  6
Continuous
 62
   179
370
    25
100
AcDbLine
 10
183.5927633648
 20
586.5050321046
 30
0.0
 11
184.7817679946
 21
586.4221294943
 31
0.0
  0
LINE
  5
1E0
330
1F
100
AcDbEntity
  8
SLD-0_0
  6
Continuous
 62
   179
370
    25
100
AcDbLine
 10
184.7817679946
 20
586.4221294943
 30
0.0
 11
185.9442113047
 21
586.6689895813
 31
0.0
  0
LINE
  5
1E1
330
1F
100
AcDbEntity
  8
SLD-0_0
  6
Continuous
 62
   179
370
    25
100
AcDbLine
 10
185.9442113047
 20
586.6689895813
 30
0.0
 11
186.9768077587
 21
587.2236704055
 31
0.0
  0
LINE
  5
1E2
330
1F
100
AcDbEntity
  8
SLD-0_0
  6
Continuous
 62
   179
370
    25
100
AcDbLine
 10
186.9768077587
 20
587.2236704055
 30
0.0
 11
187.7878034567
 21
588.0369012777
 31
0.0
  0
LINE
  5
1E3
330
1F
100
AcDbEntity
  8
SLD-0_0
  6
Continuous
 62
   179
370
    25
100
AcDbLine
 10
187.7878034567
 20
588.0369012777
 30
0.0
 11
188.3051401083
 21
589.0364115659
 31
0.0
  0
LINE
  5
1E4
330
1F
100
AcDbEntity
  8
SLD-0_0
  6
Continuous
 62
   179
370
    25
100
AcDbLine
 10
188.3051401083
 20
589.0364115659
 30
0.0
 11
188.4828476314
 21
590.1333903495
 31
0.0
  0
LINE
  5
1E5
330
1F
100
AcDbEntity
  8
SLD-0_0
  6
Continuous
 62
   179
370
    25
100
AcDbLine
 10
182.4982917016
 20
591.0609652822
 30
0.0
 11
183.4995286618
 21
590.3249671284
 31
0.0
  0
LINE
  5
1E6
330
1F
100
AcDbEntity
  8
SLD-0_0
  6
Continuous
 62
   179
370
    25
100
AcDbLine
 10
183.4995286618
 20
590.3249671284
 30
0.0
 11
183.4995286618
 21
590.1892548029
 31
0.0
  0
LINE
  5
1E7
330
1F
100
AcDbEntity
  8
SLD-0_0
  6
Continuous
 62
   179
370
    25
100
AcDbLine
 10
185.4661671524
 20
590.1892548029
 30
0.0
 11
185.4661671524
 21
590.3249671284
 31
0.0
  0
LINE
  5
1E8
330
1F
100
AcDbEntity
  8
SLD-0_0
  6
Continuous
 62
   179
370
    25
100
AcDbLine
 10
186.4674041127
 20
591.0609652821
 30
0.0
 11
185.4661671524
 21
590.3249671284
 31
0.0
  0
LINE
  5
1E9
330
1F
100
AcDbEntity
  8
SLD-0_0
  6
Continuous
 62
   179
370
    25
100
AcDbLine
 10
183.4995286618
 20
590.3249671284
 30
0.0
 11
183.8053694074
 21
590.3249671284
 31
0.0
  0
LINE
  5
1EA
330
1F
100
AcDbEntity
  8
SLD-0_0
  6
Continuous
 62
   179
370
    25
100
AcDbLine
 10
185.1603264068
 20
590.3249671284
 30
0.0
 11
185.4661671524
 21
590.3249671284
 31
0.0
  0
LINE
  5
1EB
330
1F
100
AcDbEntity
  8
SLD-0_0
  6
Continuous
 62
   179
370
    25
100
AcDbLine
 10
184.9978478705
 20
590.7606994335
 30
0.0
 11
183.9678479438
 21
590.7606994335
 31
0.0
  0
LINE
  5
1EC
330
1F
100
AcDbEntity
  8
SLD-0_0
  6
Continuous
 62
   179
370
    25
100
AcDbLine
 10
185.2863790547
 20
590.1065533582
 30
0.0
 11
185.2347185914
 21
590.21668039
 31
0.0
  0
LINE
  5
1ED
330
1F
100
AcDbEntity
  8
SLD-0_0
  6
Continuous
 62
   179
370
    25
100
AcDbLine
 10
185.2347185914
 20
590.21668039
 30
0.0
 11
185.1603264068
 21
590.3249671284
 31
0.0
  0
LINE
  5
1EE
330
1F
100
AcDbEntity
  8
SLD-0_0
  6
Continuous
 62
   179
370
    25
100
AcDbLine
 10
183.8053694074
 20
590.3249671284
 30
0.0
 11
183.7309772228
 21
590.21668039
 31
0.0
  0
LINE
  5
1EF
330
1F
100
AcDbEntity
  8
SLD-0_0
  6
Continuous
 62
   179
370
    25
100
AcDbLine
 10
183.7309772228
 20
590.21668039
 30
0.0
 11
183.6793167596
 21
590.1065533582
 31
0.0
  0
LINE
  5
1F0
330
1F
100
AcDbEntity
  8
SLD-0_0
  6
Continuous
 62
   179
370
    25
100
AcDbLine
 10
242.9978480642
 20
676.1499559108
 30
0.0
 11
242.9978480642
 21
677.0962690536
 31
0.0
  0
LINE
  5
1F1
330
1F
100
AcDbEntity
  8
SLD-0_0
  6
Continuous
 62
   179
370
    25
100
AcDbLine
 10
241.9678481375
 20
677.0962690536
 30
0.0
 11
241.9678481375
 21
676.1499559108
 31
0.0
  0
LINE
  5
1F2
330
1F
100
AcDbEntity
  8
SLD-0_0
  6
Continuous
 62
   179
370
    25
100
AcDbLine
 10
241.9678481376
 20
674.5351021711
 30
0.0
 11
241.9678481376
 21
673.4033291761
 31
0.0
  0
LINE
  5
1F3
330
1F
100
AcDbEntity
  8
SLD-0_0
  6
Continuous
 62
   179
370
    25
100
AcDbLine
 10
242.9978480642
 20
673.4033291761
 30
0.0
 11
242.9978480642
 21
674.5351021711
 31
0.0
  0
LINE
  5
1F4
330
1F
100
AcDbEntity
  8
SLD-0_0
  6
Continuous
 62
   179
370
    25
100
AcDbLine
 10
241.9678481375
 20
673.5989069168
 30
0.0
 11
242.9978480642
 21
673.5989069168
 31
0.0
  0
LINE
  5
1F5
330
1F
100
AcDbEntity
  8
SLD-0_0
  6
Continuous
 62
   179
370
    25
100
AcDbLine
 10
242.4828471695
 20
678.5230552379
 30
0.0
 11
241.3038281803
 21
678.3577119533
 31
0.0
  0
LINE
  5
1F6
330
1F
100
AcDbEntity
  8
SLD-0_0
  6
Continuous
 62
   179
370
    25
100
AcDbLine
 10
241.3038281803
 20
678.3577119533
 30
0.0
 11
240.2295680796
 21
677.8763746444
 31
0.0
  0
LINE
  5
1F7
330
1F
100
AcDbEntity
  8
SLD-0_0
  6
Continuous
 62
   179
370
    25
100
AcDbLine
 10
240.2295680796
 20
677.8763746444
 30
0.0
 11
239.3555218433
 21
677.1218096439
 31
0.0
  0
LINE
  5
1F8
330
1F
100
AcDbEntity
  8
SLD-0_0
  6
Continuous
 62
   179
370
    25
100
AcDbLine
 10
239.3555218433
 20
677.1218096439
 30
0.0
 11
238.759352461
 21
676.1610721771
 31
0.0
  0
LINE
  5
1F9
330
1F
100
AcDbEntity
  8
SLD-0_0
  6
Continuous
 62
   179
370
    25
100
AcDbLine
 10
238.759352461
 20
676.1610721771
 30
0.0
 11
238.4940335606
 21
675.0795160953
 31
0.0
  0
LINE
  5
1FA
330
1F
100
AcDbEntity
  8
SLD-0_0
  6
Continuous
 62
   179
370
    25
100
AcDbLine
 10
238.4940335606
 20
675.0795160953
 30
0.0
 11
238.5831369166
 21
673.9732389871
 31
0.0
  0
LINE
  5
1FB
330
1F
100
AcDbEntity
  8
SLD-0_0
  6
Continuous
 62
   179
370
    25
100
AcDbLine
 10
238.5831369166
 20
673.9732389871
 30
0.0
 11
239.0187462871
 21
672.9405587141
 31
0.0
  0
LINE
  5
1FC
330
1F
100
AcDbEntity
  8
SLD-0_0
  6
Continuous
 62
   179
370
    25
100
AcDbLine
 10
239.0187462871
 20
672.9405587141
 30
0.0
 11
239.7621577685
 21
672.0732217256
 31
0.0
  0
LINE
  5
1FD
330
1F
100
AcDbEntity
  8
SLD-0_0
  6
Continuous
 62
   179
370
    25
100
AcDbLine
 10
239.7621577685
 20
672.0732217256
 30
0.0
 11
240.7473126506
 21
671.4482819263
 31
0.0
  0
LINE
  5
1FE
330
1F
100
AcDbEntity
  8
SLD-0_0
  6
Continuous
 62
   179
370
    25
100
AcDbLine
 10
240.7473126506
 20
671.4482819263
 30
0.0
 11
241.8866796498
 21
671.1212908451
 31
0.0
  0
LINE
  5
1FF
330
1F
100
AcDbEntity
  8
SLD-0_0
  6
Continuous
 62
   179
370
    25
100
AcDbLine
 10
241.8866796498
 20
671.1212908451
 30
0.0
 11
243.0790165518
 21
671.1212908451
 31
0.0
  0
LINE
  5
200
330
1F
100
AcDbEntity
  8
SLD-0_0
  6
Continuous
 62
   179
370
    25
100
AcDbLine
 10
243.0790165518
 20
671.1212908451
 30
0.0
 11
244.2183835511
 21
671.4482819263
 31
0.0
  0
LINE
  5
201
330
1F
100
AcDbEntity
  8
SLD-0_0
  6
Continuous
 62
   179
370
    25
100
AcDbLine
 10
244.2183835511
 20
671.4482819263
 30
0.0
 11
245.2035384332
 21
672.0732217256
 31
0.0
  0
LINE
  5
202
330
1F
100
AcDbEntity
  8
SLD-0_0
  6
Continuous
 62
   179
370
    25
100
AcDbLine
 10
245.2035384332
 20
672.0732217256
 30
0.0
 11
245.9469499146
 21
672.9405587141
 31
0.0
  0
LINE
  5
203
330
1F
100
AcDbEntity
  8
SLD-0_0
  6
Continuous
 62
   179
370
    25
100
AcDbLine
 10
245.9469499146
 20
672.9405587141
 30
0.0
 11
246.382559285
 21
673.9732389871
 31
0.0
  0
LINE
  5
204
330
1F
100
AcDbEntity
  8
SLD-0_0
  6
Continuous
 62
   179
370
    25
100
AcDbLine
 10
246.382559285
 20
673.9732389871
 30
0.0
 11
246.4716645037
 21
675.0795160953
 31
0.0
  0
LINE
  5
205
330
1F
100
AcDbEntity
  8
SLD-0_0
  6
Continuous
 62
   179
370
    25
100
AcDbLine
 10
246.4716645037
 20
675.0795160953
 30
0.0
 11
246.2063418781
 21
676.1610721771
 31
0.0
  0
LINE
  5
206
330
1F
100
AcDbEntity
  8
SLD-0_0
  6
Continuous
 62
   179
370
    25
100
AcDbLine
 10
246.2063418781
 20
676.1610721771
 30
0.0
 11
245.6101724957
 21
677.1218096439
 31
0.0
  0
LINE
  5
207
330
1F
100
AcDbEntity
  8
SLD-0_0
  6
Continuous
 62
   179
370
    25
100
AcDbLine
 10
245.6101724957
 20
677.1218096439
 30
0.0
 11
244.7361299847
 21
677.8763746444
 31
0.0
  0
LINE
  5
208
330
1F
100
AcDbEntity
  8
SLD-0_0
  6
Continuous
 62
   179
370
    25
100
AcDbLine
 10
244.7361299847
 20
677.8763746444
 30
0.0
 11
243.6618680214
 21
678.3577119533
 31
0.0
  0
LINE
  5
209
330
1F
100
AcDbEntity
  8
SLD-0_0
  6
Continuous
 62
   179
370
    25
100
AcDbLine
 10
243.6618680214
 20
678.3577119533
 30
0.0
 11
242.4828471695
 21
678.5230552379
 31
0.0
  0
LINE
  5
20A
330
1F
100
AcDbEntity
  8
SLD-0_0
  6
Continuous
 62
   179
370
    25
100
AcDbLine
 10
240.4982918953
 20
675.7289683048
 30
0.0
 11
241.4995288556
 21
674.9929701511
 31
0.0
  0
LINE
  5
20B
330
1F
100
AcDbEntity
  8
SLD-0_0
  6
Continuous
 62
   179
370
    25
100
AcDbLine
 10
241.4995288556
 20
674.9929701511
 30
0.0
 11
241.4995288556
 21
674.8572503749
 31
0.0
  0
LINE
  5
20C
330
1F
100
AcDbEntity
  8
SLD-0_0
  6
Continuous
 62
   179
370
    25
100
AcDbLine
 10
243.4661673461
 20
674.8572503749
 30
0.0
 11
243.4661673461
 21
674.9929701511
 31
0.0
  0
LINE
  5
20D
330
1F
100
AcDbEntity
  8
SLD-0_0
  6
Continuous
 62
   179
370
    25
100
AcDbLine
 10
244.4674043064
 20
675.7289683048
 30
0.0
 11
243.4661673461
 21
674.9929701511
 31
0.0
  0
LINE
  5
20E
330
1F
100
AcDbEntity
  8
SLD-0_0
  6
Continuous
 62
   179
370
    25
100
AcDbLine
 10
241.4995288556
 20
674.9929701511
 30
0.0
 11
241.8053696011
 21
674.9929701511
 31
0.0
  0
LINE
  5
20F
330
1F
100
AcDbEntity
  8
SLD-0_0
  6
Continuous
 62
   179
370
    25
100
AcDbLine
 10
243.1603266005
 20
674.9929701511
 30
0.0
 11
243.4661673461
 21
674.9929701511
 31
0.0
  0
LINE
  5
210
330
1F
100
AcDbEntity
  8
SLD-0_0
  6
Continuous
 62
   179
370
    25
100
AcDbLine
 10
242.9978480642
 20
675.4286950056
 30
0.0
 11
241.9678481375
 21
675.4286950056
 31
0.0
  0
LINE
  5
211
330
1F
100
AcDbEntity
  8
SLD-0_0
  6
Continuous
 62
   179
370
    25
100
AcDbLine
 10
243.2863792484
 20
674.7745489303
 30
0.0
 11
243.2347187852
 21
674.8846834127
 31
0.0
  0
LINE
  5
212
330
1F
100
AcDbEntity
  8
SLD-0_0
  6
Continuous
 62
   179
370
    25
100
AcDbLine
 10
243.2347187852
 20
674.8846834127
 30
0.0
 11
243.1603266005
 21
674.9929701511
 31
0.0
  0
LINE
  5
213
330
1F
100
AcDbEntity
  8
SLD-0_0
  6
Continuous
 62
   179
370
    25
100
AcDbLine
 10
241.8053696011
 20
674.9929701511
 30
0.0
 11
241.7309774165
 21
674.8846834127
 31
0.0
  0
LINE
  5
214
330
1F
100
AcDbEntity
  8
SLD-0_0
  6
Continuous
 62
   179
370
    25
100
AcDbLine
 10
241.7309774165
 20
674.8846834127
 30
0.0
 11
241.6793169533
 21
674.7745489303
 31
0.0
  0
LINE
  5
215
330
1F
100
AcDbEntity
  8
SLD-0_0
  6
Continuous
 62
   179
370
    25
100
AcDbLine
 10
183.9678479439
 20
674.535102171
 30
0.0
 11
183.9678479439
 21
673.403329176
 31
0.0
  0
LINE
  5
216
330
1F
100
AcDbEntity
  8
SLD-0_0
  6
Continuous
 62
   179
370
    25
100
AcDbLine
 10
184.9978478705
 20
673.403329176
 30
0.0
 11
184.9978478705
 21
674.535102171
 31
0.0
  0
LINE
  5
217
330
1F
100
AcDbEntity
  8
SLD-0_0
  6
Continuous
 62
   179
370
    25
100
AcDbLine
 10
184.9978478705
 20
676.1499559108
 30
0.0
 11
184.9978478705
 21
677.0962690536
 31
0.0
  0
LINE
  5
218
330
1F
100
AcDbEntity
  8
SLD-0_0
  6
Continuous
 62
   179
370
    25
100
AcDbLine
 10
183.9678479438
 20
677.0962690536
 30
0.0
 11
183.9678479438
 21
676.1499559108
 31
0.0
  0
LINE
  5
219
330
1F
100
AcDbEntity
  8
SLD-0_0
  6
Continuous
 62
   179
370
    25
100
AcDbLine
 10
183.9678479438
 20
673.5989069168
 30
0.0
 11
184.9978478705
 21
673.5989069168
 31
0.0
  0
LINE
  5
21A
330
1F
100
AcDbEntity
  8
SLD-0_0
  6
Continuous
 62
   179
370
    25
100
AcDbLine
 10
188.4828476314
 20
674.8013859216
 30
0.0
 11
188.3051401083
 21
675.8983796064
 31
0.0
  0
LINE
  5
21B
330
1F
100
AcDbEntity
  8
SLD-0_0
  6
Continuous
 62
   179
370
    25
100
AcDbLine
 10
188.3051401083
 20
675.8983796064
 30
0.0
 11
187.7878034567
 21
676.8978898946
 31
0.0
  0
LINE
  5
21C
330
1F
100
AcDbEntity
  8
SLD-0_0
  6
Continuous
 62
   179
370
    25
100
AcDbLine
 10
187.7878034567
 20
676.8978898946
 30
0.0
 11
186.9768077587
 21
677.7111058656
 31
0.0
  0
LINE
  5
21D
330
1F
100
AcDbEntity
  8
SLD-0_0
  6
Continuous
 62
   179
370
    25
100
AcDbLine
 10
186.9768077587
 20
677.7111058656
 30
0.0
 11
185.9442113047
 21
678.2658015911
 31
0.0
  0
LINE
  5
21E
330
1F
100
AcDbEntity
  8
SLD-0_0
  6
Continuous
 62
   179
370
    25
100
AcDbLine
 10
185.9442113047
 20
678.2658015911
 30
0.0
 11
184.7817679946
 21
678.5126542274
 31
0.0
  0
LINE
  5
21F
330
1F
100
AcDbEntity
  8
SLD-0_0
  6
Continuous
 62
   179
370
    25
100
AcDbLine
 10
184.7817679946
 20
678.5126542274
 30
0.0
 11
183.5927633648
 21
678.4297590677
 31
0.0
  0
LINE
  5
220
330
1F
100
AcDbEntity
  8
SLD-0_0
  6
Continuous
 62
   179
370
    25
100
AcDbLine
 10
183.5927633648
 20
678.4297590677
 30
0.0
 11
182.4828485106
 21
678.0244474832
 31
0.0
  0
LINE
  5
221
330
1F
100
AcDbEntity
  8
SLD-0_0
  6
Continuous
 62
   179
370
    25
100
AcDbLine
 10
182.4828485106
 20
678.0244474832
 30
0.0
 11
181.5506393169
 21
677.3327653829
 31
0.0
  0
LINE
  5
222
330
1F
100
AcDbEntity
  8
SLD-0_0
  6
Continuous
 62
   179
370
    25
100
AcDbLine
 10
181.5506393169
 20
677.3327653829
 30
0.0
 11
180.8789732014
 21
676.4161651556
 31
0.0
  0
LINE
  5
223
330
1F
100
AcDbEntity
  8
SLD-0_0
  6
Continuous
 62
   179
370
    25
100
AcDbLine
 10
180.8789732014
 20
676.4161651556
 30
0.0
 11
180.5275255893
 21
675.3560816471
 31
0.0
  0
LINE
  5
224
330
1F
100
AcDbEntity
  8
SLD-0_0
  6
Continuous
 62
   179
370
    25
100
AcDbLine
 10
180.5275255893
 20
675.3560816471
 30
0.0
 11
180.5275255893
 21
674.2467050973
 31
0.0
  0
LINE
  5
225
330
1F
100
AcDbEntity
  8
SLD-0_0
  6
Continuous
 62
   179
370
    25
100
AcDbLine
 10
180.5275255893
 20
674.2467050973
 30
0.0
 11
180.8789732014
 21
673.1866215889
 31
0.0
  0
LINE
  5
226
330
1F
100
AcDbEntity
  8
SLD-0_0
  6
Continuous
 62
   179
370
    25
100
AcDbLine
 10
180.8789732014
 20
673.1866215889
 30
0.0
 11
181.5506393169
 21
672.2700064603
 31
0.0
  0
LINE
  5
227
330
1F
100
AcDbEntity
  8
SLD-0_0
  6
Continuous
 62
   179
370
    25
100
AcDbLine
 10
181.5506393169
 20
672.2700064603
 30
0.0
 11
182.4828485106
 21
671.57832436
 31
0.0
  0
LINE
  5
228
330
1F
100
AcDbEntity
  8
SLD-0_0
  6
Continuous
 62
   179
370
    25
100
AcDbLine
 10
182.4828485106
 20
671.57832436
 30
0.0
 11
183.5927633648
 21
671.1730276767
 31
0.0
  0
LINE
  5
229
330
1F
100
AcDbEntity
  8
SLD-0_0
  6
Continuous
 62
   179
370
    25
100
AcDbLine
 10
183.5927633648
 20
671.1730276767
 30
0.0
 11
184.7817679946
 21
671.090132517
 31
0.0
  0
LINE
  5
22A
330
1F
100
AcDbEntity
  8
SLD-0_0
  6
Continuous
 62
   179
370
    25
100
AcDbLine
 10
184.7817679946
 20
671.090132517
 30
0.0
 11
185.9442113047
 21
671.3369851533
 31
0.0
  0
LINE
  5
22B
330
1F
100
AcDbEntity
  8
SLD-0_0
  6
Continuous
 62
   179
370
    25
100
AcDbLine
 10
185.9442113047
 20
671.3369851533
 30
0.0
 11
186.9768077587
 21
671.8916659776
 31
0.0
  0
LINE
  5
22C
330
1F
100
AcDbEntity
  8
SLD-0_0
  6
Continuous
 62
   179
370
    25
100
AcDbLine
 10
186.9768077587
 20
671.8916659776
 30
0.0
 11
187.7878034567
 21
672.7048968498
 31
0.0
  0
LINE
  5
22D
330
1F
100
AcDbEntity
  8
SLD-0_0
  6
Continuous
 62
   179
370
    25
100
AcDbLine
 10
187.7878034567
 20
672.7048968498
 30
0.0
 11
188.3051401083
 21
673.704407138
 31
0.0
  0
LINE
  5
22E
330
1F
100
AcDbEntity
  8
SLD-0_0
  6
Continuous
 62
   179
370
    25
100
AcDbLine
 10
188.3051401083
 20
673.704407138
 30
0.0
 11
188.4828476314
 21
674.8013859216
 31
0.0
  0
LINE
  5
22F
330
1F
100
AcDbEntity
  8
SLD-0_0
  6
Continuous
 62
   179
370
    25
100
AcDbLine
 10
182.4982917016
 20
675.7289683048
 30
0.0
 11
183.4995286618
 21
674.9929701511
 31
0.0
  0
LINE
  5
230
330
1F
100
AcDbEntity
  8
SLD-0_0
  6
Continuous
 62
   179
370
    25
100
AcDbLine
 10
183.4995286618
 20
674.9929701511
 30
0.0
 11
183.4995286618
 21
674.8572503749
 31
0.0
  0
LINE
  5
231
330
1F
100
AcDbEntity
  8
SLD-0_0
  6
Continuous
 62
   179
370
    25
100
AcDbLine
 10
185.4661671524
 20
674.8572503749
 30
0.0
 11
185.4661671524
 21
674.9929701511
 31
0.0
  0
LINE
  5
232
330
1F
100
AcDbEntity
  8
SLD-0_0
  6
Continuous
 62
   179
370
    25
100
AcDbLine
 10
186.4674041127
 20
675.7289683048
 30
0.0
 11
185.4661671524
 21
674.9929701511
 31
0.0
  0
LINE
  5
233
330
1F
100
AcDbEntity
  8
SLD-0_0
  6
Continuous
 62
   179
370
    25
100
AcDbLine
 10
183.4995286618
 20
674.9929701511
 30
0.0
 11
183.8053694074
 21
674.9929701511
 31
0.0
  0
LINE
  5
234
330
1F
100
AcDbEntity
  8
SLD-0_0
  6
Continuous
 62
   179
370
    25
100
AcDbLine
 10
185.1603264068
 20
674.9929701511
 30
0.0
 11
185.4661671524
 21
674.9929701511
 31
0.0
  0
LINE
  5
235
330
1F
100
AcDbEntity
  8
SLD-0_0
  6
Continuous
 62
   179
370
    25
100
AcDbLine
 10
184.9978478705
 20
675.4286950056
 30
0.0
 11
183.9678479438
 21
675.4286950056
 31
0.0
  0
LINE
  5
236
330
1F
100
AcDbEntity
  8
SLD-0_0
  6
Continuous
 62
   179
370
    25
100
AcDbLine
 10
185.2863790547
 20
674.7745489303
 30
0.0
 11
185.2347185914
 21
674.8846834127
 31
0.0
  0
LINE
  5
237
330
1F
100
AcDbEntity
  8
SLD-0_0
  6
Continuous
 62
   179
370
    25
100
AcDbLine
 10
185.2347185914
 20
674.8846834127
 30
0.0
 11
185.1603264068
 21
674.9929701511
 31
0.0
  0
LINE
  5
238
330
1F
100
AcDbEntity
  8
SLD-0_0
  6
Continuous
 62
   179
370
    25
100
AcDbLine
 10
183.8053694074
 20
674.9929701511
 30
0.0
 11
183.7309772228
 21
674.8846834127
 31
0.0
  0
LINE
  5
239
330
1F
100
AcDbEntity
  8
SLD-0_0
  6
Continuous
 62
   179
370
    25
100
AcDbLine
 10
183.7309772228
 20
674.8846834127
 30
0.0
 11
183.6793167596
 21
674.7745489303
 31
0.0
  0
LINE
  5
23A
330
1F
100
AcDbEntity
  8
SLD-0_0
  6
Continuous
 62
   179
370
    25
100
AcDbLine
 10
188.2828479712
 20
599.3764018241
 30
0.0
 11
188.2828479712
 21
667.1112691585
 31
0.0
  0
LINE
  5
23B
330
1F
100
AcDbEntity
  8
SLD-0_0
  6
Continuous
 62
   179
370
    25
100
AcDbLine
 10
239.6828482007
 20
667.1112691585
 30
0.0
 11
239.6828482007
 21
599.3764018241
 31
0.0
  0
LINE
  5
23C
330
1F
100
AcDbEntity
  8
SLD-0_0
  6
Continuous
 62
   179
370
    25
100
AcDbLine
 10
188.2828479712
 20
598.121433479
 30
0.0
 11
188.3789213453
 21
597.2138559047
 31
0.0
  0
LINE
  5
23D
330
1F
100
AcDbEntity
  8
SLD-0_0
  6
Continuous
 62
   179
370
    25
100
AcDbLine
 10
188.3789213453
 20
597.2138559047
 30
0.0
 11
188.469553933
 21
596.8620320384
 31
0.0
  0
LINE
  5
23E
330
1F
100
AcDbEntity
  8
SLD-0_0
  6
Continuous
 62
   179
370
    25
100
AcDbLine
 10
188.2828479712
 20
598.121433479
 30
0.0
 11
188.2828479712
 21
599.3764018241
 31
0.0
  0
LINE
  5
23F
330
1F
100
AcDbEntity
  8
SLD-0_0
  6
Continuous
 62
   179
370
    25
100
AcDbLine
 10
239.6371351634
 20
597.4938040201
 30
0.0
 11
239.6828482007
 21
598.121433479
 31
0.0
  0
LINE
  5
240
330
1F
100
AcDbEntity
  8
SLD-0_0
  6
Continuous
 62
   179
370
    25
100
AcDbLine
 10
239.6828482007
 20
599.3764018241
 30
0.0
 11
239.6828482007
 21
598.121433479
 31
0.0
  0
LINE
  5
241
330
1F
100
AcDbEntity
  8
SLD-0_0
  6
Continuous
 62
   179
370
    25
100
AcDbLine
 10
249.1828488265
 20
588.944210631
 30
0.0
 11
249.0733252917
 21
587.9095708553
 31
0.0
  0
LINE
  5
242
330
1F
100
AcDbEntity
  8
SLD-0_0
  6
Continuous
 62
   179
370
    25
100
AcDbLine
 10
249.0733252917
 20
587.9095708553
 30
0.0
 11
249.0317994808
 21
587.7313976709
 31
0.0
  0
LINE
  5
243
330
1F
100
AcDbEntity
  8
SLD-0_0
  6
Continuous
 62
   179
370
    25
100
AcDbLine
 10
178.782849208
 20
587.3682563726
 30
0.0
 11
178.782849208
 21
588.944210631
 31
0.0
  0
LINE
  5
244
330
1F
100
AcDbEntity
  8
SLD-0_0
  6
Continuous
 62
   179
370
    25
100
AcDbLine
 10
243.4828473334
 20
582.064873499
 30
0.0
 11
184.4828488385
 21
582.064873499
 31
0.0
  0
LINE
  5
245
330
1F
100
AcDbEntity
  8
SLD-0_0
  6
Continuous
 62
   179
370
    25
100
AcDbLine
 10
249.1828488265
 20
588.944210631
 30
0.0
 11
249.1828488265
 21
587.3682563725
 31
0.0
  0
LINE
  5
246
330
1F
100
AcDbEntity
  8
SLD-0_0
  6
Continuous
 62
   179
370
    25
100
AcDbLine
 10
178.782849208
 20
588.944210631
 30
0.0
 11
178.782849208
 21
674.5426272575
 31
0.0
  0
LINE
  5
247
330
1F
100
AcDbEntity
  8
SLD-0_0
  6
Continuous
 62
   179
370
    25
100
AcDbLine
 10
249.1828488265
 20
674.5426272574
 30
0.0
 11
249.1828488265
 21
588.944210631
 31
0.0
  0
LINE
  5
248
330
1F
100
AcDbEntity
  8
SLD-0_0
  6
Continuous
 62
   179
370
    25
100
AcDbLine
 10
178.782849208
 20
674.5426272575
 30
0.0
 11
178.8923727428
 21
675.5772595827
 31
0.0
  0
LINE
  5
249
330
1F
100
AcDbEntity
  8
SLD-0_0
  6
Continuous
 62
   179
370
    25
100
AcDbLine
 10
178.8923727428
 20
675.5772595827
 30
0.0
 11
178.9338985537
 21
675.7554327671
 31
0.0
  0
LINE
  5
24A
330
1F
100
AcDbEntity
  8
SLD-0_0
  6
Continuous
 62
   179
370
    25
100
AcDbLine
 10
148.7448593179
 20
574.8470779488
 30
0.0
 11
151.7123383014
 21
574.8470786164
 31
0.0
  0
LINE
  5
24B
330
1F
100
AcDbEntity
  8
SLD-0_0
  6
Continuous
 62
   179
370
    25
100
AcDbLine
 10
228.9828477507
 20
682.7470725004
 30
0.0
 11
197.9828482573
 21
682.7470725004
 31
0.0
  0
LINE
  5
24C
330
1F
100
AcDbEntity
  8
SLD-0_0
  6
Continuous
 62
   179
370
    25
100
AcDbLine
 10
199.4828475718
 20
504.1470783364
 30
0.0
 11
227.4828484361
 21
504.1470783364
 31
0.0
  0
LINE
  5
24D
330
1F
100
AcDbEntity
  8
SLD-0_0
  6
Continuous
 62
   179
370
    25
100
AcDbLine
 10
199.4828475718
 20
505.6470781166
 30
0.0
 11
227.4828484361
 21
505.6470781166
 31
0.0
  0
LINE
  5
24E
330
1F
100
AcDbEntity
  8
SLD-0_0
  6
Continuous
 62
   179
370
    25
100
AcDbLine
 10
204.482848262
 20
501.6470782296
 30
0.0
 11
222.4828474871
 21
501.6470782296
 31
0.0
  0
LINE
  5
24F
330
1F
100
AcDbEntity
  8
SLD-0_0
  6
Continuous
 62
   179
370
    25
100
AcDbLine
 10
206.0262575825
 20
499.6470780645
 30
0.0
 11
221.482848384
 21
499.6470780645
 31
0.0
  0
LINE
  5
250
330
1F
100
AcDbEntity
  8
SLD-0_0
  6
Continuous
 62
   179
370
    25
100
AcDbLine
 10
205.482847624
 20
499.6470780645
 30
0.0
 11
206.0262575825
 21
499.6470780645
 31
0.0
  0
LINE
  5
251
330
1F
100
AcDbEntity
  8
SLD-0_0
  6
Continuous
 62
   179
370
    25
100
AcDbLine
 10
221.482848384
 20
498.0208165545
 30
0.0
 11
205.482847624
 21
498.0208165545
 31
0.0
  0
LINE
  5
252
330
1F
100
AcDbEntity
  8
SLD-0_0
  6
Continuous
 62
   179
370
    25
100
AcDbLine
 10
220.9828478363
 20
496.6470785041
 30
0.0
 11
205.9828481716
 21
496.6470785041
 31
0.0
  0
LINE
  5
253
330
1F
100
AcDbEntity
  8
SLD-0_0
  6
Continuous
 62
   179
370
    25
100
AcDbLine
 10
240.4828487043
 20
222.7189404542
 30
0.0
 11
240.4828487043
 21
221.0696873838
 31
0.0
  0
LINE
  5
254
330
1F
100
AcDbEntity
  8
SLD-0_0
  6
Continuous
 62
   179
370
    25
100
AcDbLine
 10
244.4828474973
 20
221.0696873838
 30
0.0
 11
244.4828474973
 21
222.6777014906
 31
0.0
  0
LINE
  5
255
330
1F
100
AcDbEntity
  8
SLD-0_0
  6
Continuous
 62
   179
370
    25
100
AcDbLine
 10
246.4828478252
 20
227.826514619
 30
0.0
 11
246.4828478252
 21
228.0894009048
 31
0.0
  0
LINE
  5
256
330
1F
100
AcDbEntity
  8
SLD-0_0
  6
Continuous
 62
   179
370
    25
100
AcDbLine
 10
246.4828478252
 20
228.0894009048
 30
0.0
 11
246.4336888944
 21
228.3275959665
 31
0.0
  0
LINE
  5
257
330
1F
100
AcDbEntity
  8
SLD-0_0
  6
Continuous
 62
   179
370
    25
100
AcDbLine
 10
182.4828485106
 20
222.5471002633
 30
0.0
 11
182.4828485106
 21
221.0696873838
 31
0.0
  0
LINE
  5
258
330
1F
100
AcDbEntity
  8
SLD-0_0
  6
Continuous
 62
   179
370
    25
100
AcDbLine
 10
186.4828473036
 20
221.0696873838
 30
0.0
 11
186.4828473036
 21
222.7189404542
 31
0.0
  0
LINE
  5
259
330
1F
100
AcDbEntity
  8
SLD-0_0
  6
Continuous
 62
   179
370
    25
100
AcDbLine
 10
180.4828481828
 20
228.0894009048
 30
0.0
 11
180.4828481828
 21
227.4325130159
 31
0.0
  0
LINE
  5
25A
330
1F
100
AcDbEntity
  8
SLD-0_0
  6
Continuous
 62
   179
370
    25
100
AcDbLine
 10
180.5334152733
 20
228.2459674055
 30
0.0
 11
180.5104525839
 21
228.1172437245
 31
0.0
  0
LINE
  5
25B
330
1F
100
AcDbEntity
  8
SLD-0_0
  6
Continuous
 62
   179
370
    25
100
AcDbLine
 10
202.9828481455
 20
204.5348597342
 30
0.0
 11
202.9828481455
 21
204.8645330245
 31
0.0
  0
LINE
  5
25C
330
1F
100
AcDbEntity
  8
SLD-0_0
  6
Continuous
 62
   179
370
    25
100
AcDbLine
 10
216.982848112
 20
204.5348597342
 30
0.0
 11
216.982848112
 21
204.8645330245
 31
0.0
  0
LINE
  5
25D
330
1F
100
AcDbEntity
  8
SLD-0_0
  6
Continuous
 62
   179
370
    25
100
AcDbLine
 10
209.9828478959
 20
204.8645330245
 30
0.0
 11
209.9828478959
 21
204.5348597342
 31
0.0
  0
LINE
  5
25E
330
1F
100
AcDbEntity
  8
SLD-0_0
  6
Continuous
 62
   179
370
    25
100
AcDbLine
 10
223.9828478624
 20
204.8645330245
 30
0.0
 11
223.9828478624
 21
204.5348597342
 31
0.0
  0
LINE
  5
25F
330
1F
100
AcDbEntity
  8
SLD-0_0
  6
Continuous
 62
   179
370
    25
100
AcDbLine
 10
216.4828480301
 20
204.911725002
 30
0.0
 11
216.4828480301
 21
205.8641923243
 31
0.0
  0
LINE
  5
260
330
1F
100
AcDbEntity
  8
SLD-0_0
  6
Continuous
 62
   179
370
    25
100
AcDbLine
 10
210.4828479779
 20
205.8641923243
 30
0.0
 11
210.4828479779
 21
204.911725002
 31
0.0
  0
LINE
  5
261
330
1F
100
AcDbEntity
  8
SLD-0_0
  6
Continuous
 62
   179
370
    25
100
AcDbLine
 10
243.4828473334
 20
228.236490267
 30
0.0
 11
184.4828488385
 21
228.236490267
 31
0.0
  0
LINE
  5
262
330
1F
100
AcDbEntity
  8
SLD-0_0
  6
Continuous
 62
   179
370
    25
100
AcDbLine
 10
234.6828473811
 20
229.6268803651
 30
0.0
 11
193.2828487908
 21
229.6268803651
 31
0.0
  0
LINE
  5
263
330
1F
100
AcDbEntity
  8
SLD-0_0
  6
Continuous
 62
   179
370
    25
100
AcDbLine
 10
146.9828473483
 20
123.5154283816
 30
0.0
 11
146.9828473483
 21
117.5154283295
 31
0.0
  0
LINE
  5
264
330
1F
100
AcDbEntity
  8
SLD-0_0
  6
Continuous
 62
   179
370
    25
100
AcDbLine
 10
146.982848004
 20
129.5154283816
 30
0.0
 11
146.9828473483
 21
123.5154283816
 31
0.0
  0
LINE
  5
265
330
1F
100
AcDbEntity
  8
SLD-0_0
  6
Continuous
 62
   179
370
    25
100
AcDbLine
 10
288.4828485955
 20
173.2648006293
 30
0.0
 11
288.4828494632
 21
73.7660587262
 31
0.0
  0
LINE
  5
266
330
1F
100
AcDbEntity
  8
SLD-0_0
  6
Continuous
 62
   179
370
    25
100
AcDbLine
 10
263.2322198593
 20
48.5154283816
 30
0.0
 11
163.7334773396
 21
48.5154254014
 31
0.0
  0
LINE
  5
267
330
1F
100
AcDbEntity
  8
SLD-0_0
  6
Continuous
 62
   179
370
    25
100
AcDbLine
 10
138.4828450237
 20
73.7660577173
 30
0.0
 11
138.4828450237
 21
173.264799046
 31
0.0
  0
LINE
  5
268
330
1F
100
AcDbEntity
  8
SLD-0_0
  6
Continuous
 62
   179
370
    25
100
AcDbLine
 10
163.7334751397
 20
198.5154299027
 30
0.0
 11
263.2322188503
 21
198.5154299027
 31
0.0
  0
LINE
  5
269
330
1F
100
AcDbEntity
  8
SLD-0_0
  6
Continuous
 62
   179
370
    25
100
AcDbLine
 10
128.4828471099
 20
108.5154287169
 30
0.0
 11
128.4828471099
 21
105.5154291565
 31
0.0
  0
LINE
  5
26A
330
1F
100
AcDbEntity
  8
SLD-0_0
  6
Continuous
 62
   179
370
    25
100
AcDbLine
 10
138.4828445766
 20
103.5154283817
 30
0.0
 11
130.4828475569
 21
103.5154279346
 31
0.0
  0
LINE
  5
26B
330
1F
100
AcDbEntity
  8
SLD-0_0
  6
Continuous
 62
   179
370
    25
100
AcDbLine
 10
128.4828471099
 20
108.5154287169
 30
0.0
 11
128.4828471099
 21
138.5154280463
 31
0.0
  0
LINE
  5
26C
330
1F
100
AcDbEntity
  8
SLD-0_0
  6
Continuous
 62
   179
370
    25
100
AcDbLine
 10
128.4828471099
 20
141.5154276068
 30
0.0
 11
128.4828471099
 21
138.5154280463
 31
0.0
  0
LINE
  5
26D
330
1F
100
AcDbEntity
  8
SLD-0_0
  6
Continuous
 62
   179
370
    25
100
AcDbLine
 10
130.4828475569
 20
143.5154288286
 30
0.0
 11
138.4828445766
 21
143.5154283816
 31
0.0
  0
LINE
  5
26E
330
1F
100
AcDbEntity
  8
SLD-0_0
  6
Continuous
 62
   179
370
    25
100
AcDbLine
 10
154.191955666
 20
109.7833817418
 30
0.0
 11
157.9981354131
 21
107.5858814042
 31
0.0
  0
LINE
  5
26F
330
1F
100
AcDbEntity
  8
SLD-0_0
  6
Continuous
 62
   179
370
    25
100
AcDbLine
 10
157.9981354131
 20
107.5858814042
 30
0.0
 11
157.9981354985
 21
103.1908843187
 31
0.0
  0
LINE
  5
270
330
1F
100
AcDbEntity
  8
SLD-0_0
  6
Continuous
 62
   179
370
    25
100
AcDbLine
 10
157.9981354985
 20
103.1908843187
 30
0.0
 11
154.191955666
 21
100.9933838331
 31
0.0
  0
LINE
  5
271
330
1F
100
AcDbEntity
  8
SLD-0_0
  6
Continuous
 62
   179
370
    25
100
AcDbLine
 10
150.3857733761
 20
103.1908834005
 30
0.0
 11
150.3857733761
 21
107.5858821744
 31
0.0
  0
LINE
  5
272
330
1F
100
AcDbEntity
  8
SLD-0_0
  6
Continuous
 62
   179
370
    25
100
AcDbLine
 10
150.3857733761
 20
107.5858821744
 30
0.0
 11
154.191955666
 21
109.7833817418
 31
0.0
  0
LINE
  5
273
330
1F
100
AcDbEntity
  8
SLD-0_0
  6
Continuous
 62
   179
370
    25
100
AcDbLine
 10
154.191955666
 20
100.9933838331
 30
0.0
 11
150.3857733761
 21
103.1908834005
 31
0.0
  0
LINE
  5
274
330
1F
100
AcDbEntity
  8
SLD-0_0
  6
Continuous
 62
   179
370
    25
100
AcDbLine
 10
195.355800243
 20
187.2013212234
 30
0.0
 11
199.161982697
 21
185.0038207383
 31
0.0
  0
LINE
  5
275
330
1F
100
AcDbEntity
  8
SLD-0_0
  6
Continuous
 62
   179
370
    25
100
AcDbLine
 10
199.161982697
 20
185.0038207383
 30
0.0
 11
199.1619814033
 21
180.608820536
 31
0.0
  0
LINE
  5
276
330
1F
100
AcDbEntity
  8
SLD-0_0
  6
Continuous
 62
   179
370
    25
100
AcDbLine
 10
199.1619814033
 20
180.608820536
 30
0.0
 11
195.355800243
 21
178.4113222916
 31
0.0
  0
LINE
  5
277
330
1F
100
AcDbEntity
  8
SLD-0_0
  6
Continuous
 62
   179
370
    25
100
AcDbLine
 10
191.5496202265
 20
185.0038220758
 30
0.0
 11
195.355800243
 21
187.2013212234
 31
0.0
  0
LINE
  5
278
330
1F
100
AcDbEntity
  8
SLD-0_0
  6
Continuous
 62
   179
370
    25
100
AcDbLine
 10
195.355800243
 20
178.4113222916
 30
0.0
 11
191.5496202265
 21
180.6088214392
 31
0.0
  0
LINE
  5
279
330
1F
100
AcDbEntity
  8
SLD-0_0
  6
Continuous
 62
   179
370
    25
100
AcDbLine
 10
191.5496202265
 20
180.6088214392
 30
0.0
 11
191.5496202265
 21
185.0038220758
 31
0.0
  0
LINE
  5
27A
330
1F
100
AcDbEntity
  8
SLD-0_0
  6
Continuous
 62
   179
370
    25
100
AcDbLine
 10
231.6098940975
 20
68.6195345319
 30
0.0
 11
235.4160738282
 21
66.4220359395
 31
0.0
  0
LINE
  5
27B
330
1F
100
AcDbEntity
  8
SLD-0_0
  6
Continuous
 62
   179
370
    25
100
AcDbLine
 10
235.4160738282
 20
66.4220359395
 30
0.0
 11
235.4160751219
 21
62.0270363128
 31
0.0
  0
LINE
  5
27C
330
1F
100
AcDbEntity
  8
SLD-0_0
  6
Continuous
 62
   179
370
    25
100
AcDbLine
 10
227.8037123461
 20
66.422035324
 30
0.0
 11
231.6098940975
 21
68.6195345319
 31
0.0
  0
LINE
  5
27D
330
1F
100
AcDbEntity
  8
SLD-0_0
  6
Continuous
 62
   179
370
    25
100
AcDbLine
 10
235.4160751219
 20
62.0270363128
 30
0.0
 11
231.6098940975
 21
59.8295354796
 31
0.0
  0
LINE
  5
27E
330
1F
100
AcDbEntity
  8
SLD-0_0
  6
Continuous
 62
   179
370
    25
100
AcDbLine
 10
231.6098940975
 20
59.8295354796
 30
0.0
 11
227.8037123461
 21
62.0270346875
 31
0.0
  0
LINE
  5
27F
330
1F
100
AcDbEntity
  8
SLD-0_0
  6
Continuous
 62
   179
370
    25
100
AcDbLine
 10
227.8037123461
 20
62.0270346875
 30
0.0
 11
227.8037123461
 21
66.422035324
 31
0.0
  0
LINE
  5
280
330
1F
100
AcDbEntity
  8
SLD-0_0
  6
Continuous
 62
   179
370
    25
100
AcDbLine
 10
272.7737407531
 20
146.0374740758
 30
0.0
 11
276.5799238185
 21
143.839974311
 31
0.0
  0
LINE
  5
281
330
1F
100
AcDbEntity
  8
SLD-0_0
  6
Continuous
 62
   179
370
    25
100
AcDbLine
 10
276.5799238185
 20
143.839974311
 30
0.0
 11
276.5799237331
 21
139.4449734925
 31
0.0
  0
LINE
  5
282
330
1F
100
AcDbEntity
  8
SLD-0_0
  6
Continuous
 62
   179
370
    25
100
AcDbLine
 10
268.9675601278
 20
143.8399733627
 30
0.0
 11
272.7737407531
 21
146.0374740758
 31
0.0
  0
LINE
  5
283
330
1F
100
AcDbEntity
  8
SLD-0_0
  6
Continuous
 62
   179
370
    25
100
AcDbLine
 10
276.5799237331
 20
139.4449734925
 30
0.0
 11
272.7737407531
 21
137.2474738757
 31
0.0
  0
LINE
  5
284
330
1F
100
AcDbEntity
  8
SLD-0_0
  6
Continuous
 62
   179
370
    25
100
AcDbLine
 10
268.9675601278
 20
139.4449745888
 30
0.0
 11
268.9675601278
 21
143.8399733627
 31
0.0
  0
LINE
  5
285
330
1F
100
AcDbEntity
  8
SLD-0_0
  6
Continuous
 62
   179
370
    25
100
AcDbLine
 10
272.7737407531
 20
137.2474738757
 30
0.0
 11
268.9675601278
 21
139.4449745888
 31
0.0
  0
LINE
  5
286
330
1F
100
AcDbEntity
  8
SLD-0_0
  6
Continuous
 62
   179
370
    25
100
AcDbLine
 10
244.4828474973
 20
221.0696873838
 30
0.0
 11
244.3306079214
 21
220.7891804749
 31
0.0
  0
LINE
  5
287
330
1F
100
AcDbEntity
  8
SLD-0_0
  6
Continuous
 62
   179
370
    25
100
AcDbLine
 10
244.3306079214
 20
220.7891804749
 30
0.0
 11
243.8970623617
 21
220.5513728434
 31
0.0
  0
LINE
  5
288
330
1F
100
AcDbEntity
  8
SLD-0_0
  6
Continuous
 62
   179
370
    25
100
AcDbLine
 10
243.8970623617
 20
220.5513728434
 30
0.0
 11
243.2482155119
 21
220.3924817616
 31
0.0
  0
LINE
  5
289
330
1F
100
AcDbEntity
  8
SLD-0_0
  6
Continuous
 62
   179
370
    25
100
AcDbLine
 10
243.2482155119
 20
220.3924817616
 30
0.0
 11
242.4828471695
 21
220.3366843635
 31
0.0
  0
LINE
  5
28A
330
1F
100
AcDbEntity
  8
SLD-0_0
  6
Continuous
 62
   179
370
    25
100
AcDbLine
 10
242.4828471695
 20
220.3366843635
 30
0.0
 11
241.7174806898
 21
220.3924817616
 31
0.0
  0
LINE
  5
28B
330
1F
100
AcDbEntity
  8
SLD-0_0
  6
Continuous
 62
   179
370
    25
100
AcDbLine
 10
241.7174806898
 20
220.3924817616
 30
0.0
 11
241.06863384
 21
220.5513728434
 31
0.0
  0
LINE
  5
28C
330
1F
100
AcDbEntity
  8
SLD-0_0
  6
Continuous
 62
   179
370
    25
100
AcDbLine
 10
241.06863384
 20
220.5513728434
 30
0.0
 11
240.6350882803
 21
220.7891804749
 31
0.0
  0
LINE
  5
28D
330
1F
100
AcDbEntity
  8
SLD-0_0
  6
Continuous
 62
   179
370
    25
100
AcDbLine
 10
240.6350882803
 20
220.7891804749
 30
0.0
 11
240.4828487043
 21
221.0696873838
 31
0.0
  0
LINE
  5
28E
330
1F
100
AcDbEntity
  8
SLD-0_0
  6
Continuous
 62
   179
370
    25
100
AcDbLine
 10
240.4828487043
 20
221.0696873838
 30
0.0
 11
240.6350882803
 21
221.3501942927
 31
0.0
  0
LINE
  5
28F
330
1F
100
AcDbEntity
  8
SLD-0_0
  6
Continuous
 62
   179
370
    25
100
AcDbLine
 10
240.6350882803
 20
221.3501942927
 30
0.0
 11
241.06863384
 21
221.5879944736
 31
0.0
  0
LINE
  5
290
330
1F
100
AcDbEntity
  8
SLD-0_0
  6
Continuous
 62
   179
370
    25
100
AcDbLine
 10
241.06863384
 20
221.5879944736
 30
0.0
 11
241.7174806898
 21
221.746893006
 31
0.0
  0
LINE
  5
291
330
1F
100
AcDbEntity
  8
SLD-0_0
  6
Continuous
 62
   179
370
    25
100
AcDbLine
 10
241.7174806898
 20
221.746893006
 30
0.0
 11
242.4828471695
 21
221.8026904041
 31
0.0
  0
LINE
  5
292
330
1F
100
AcDbEntity
  8
SLD-0_0
  6
Continuous
 62
   179
370
    25
100
AcDbLine
 10
242.4828471695
 20
221.8026904041
 30
0.0
 11
243.2482155119
 21
221.746893006
 31
0.0
  0
LINE
  5
293
330
1F
100
AcDbEntity
  8
SLD-0_0
  6
Continuous
 62
   179
370
    25
100
AcDbLine
 10
243.2482155119
 20
221.746893006
 30
0.0
 11
243.8970623617
 21
221.5879944736
 31
0.0
  0
LINE
  5
294
330
1F
100
AcDbEntity
  8
SLD-0_0
  6
Continuous
 62
   179
370
    25
100
AcDbLine
 10
243.8970623617
 20
221.5879944736
 30
0.0
 11
244.3306079214
 21
221.3501942927
 31
0.0
  0
LINE
  5
295
330
1F
100
AcDbEntity
  8
SLD-0_0
  6
Continuous
 62
   179
370
    25
100
AcDbLine
 10
244.3306079214
 20
221.3501942927
 30
0.0
 11
244.4828474973
 21
221.0696873838
 31
0.0
  0
LINE
  5
296
330
1F
100
AcDbEntity
  8
SLD-0_0
  6
Continuous
 62
   179
370
    25
100
AcDbLine
 10
238.6372597967
 20
228.4491372878
 30
0.0
 11
238.8180276458
 21
228.7955669338
 31
0.0
  0
LINE
  5
297
330
1F
100
AcDbEntity
  8
SLD-0_0
  6
Continuous
 62
   179
370
    25
100
AcDbLine
 10
238.8180276458
 20
228.7955669338
 30
0.0
 11
239.3653659229
 21
229.1892630631
 31
0.0
  0
LINE
  5
298
330
1F
100
AcDbEntity
  8
SLD-0_0
  6
Continuous
 62
   179
370
    25
100
AcDbLine
 10
239.3653659229
 20
229.1892630631
 30
0.0
 11
240.2178650801
 21
229.501710611
 31
0.0
  0
LINE
  5
299
330
1F
100
AcDbEntity
  8
SLD-0_0
  6
Continuous
 62
   179
370
    25
100
AcDbLine
 10
240.2178650801
 20
229.501710611
 30
0.0
 11
241.2920748894
 21
229.702310043
 31
0.0
  0
LINE
  5
29A
330
1F
100
AcDbEntity
  8
SLD-0_0
  6
Continuous
 62
   179
370
    25
100
AcDbLine
 10
241.2920748894
 20
229.702310043
 30
0.0
 11
242.4828471695
 21
229.7714290792
 31
0.0
  0
LINE
  5
29B
330
1F
100
AcDbEntity
  8
SLD-0_0
  6
Continuous
 62
   179
370
    25
100
AcDbLine
 10
242.4828471695
 20
229.7714290792
 30
0.0
 11
243.6736194496
 21
229.702310043
 31
0.0
  0
LINE
  5
29C
330
1F
100
AcDbEntity
  8
SLD-0_0
  6
Continuous
 62
   179
370
    25
100
AcDbLine
 10
243.6736194496
 20
229.702310043
 30
0.0
 11
244.7478311216
 21
229.501710611
 31
0.0
  0
LINE
  5
29D
330
1F
100
AcDbEntity
  8
SLD-0_0
  6
Continuous
 62
   179
370
    25
100
AcDbLine
 10
244.7478311216
 20
229.501710611
 30
0.0
 11
245.6003302787
 21
229.1892630631
 31
0.0
  0
LINE
  5
29E
330
1F
100
AcDbEntity
  8
SLD-0_0
  6
Continuous
 62
   179
370
    25
100
AcDbLine
 10
245.6003302787
 20
229.1892630631
 30
0.0
 11
246.1476685559
 21
228.7955669338
 31
0.0
  0
LINE
  5
29F
330
1F
100
AcDbEntity
  8
SLD-0_0
  6
Continuous
 62
   179
370
    25
100
AcDbLine
 10
246.1476685559
 20
228.7955669338
 30
0.0
 11
246.3150085961
 21
228.5072890693
 31
0.0
  0
LINE
  5
2A0
330
1F
100
AcDbEntity
  8
SLD-0_0
  6
Continuous
 62
   179
370
    25
100
AcDbLine
 10
186.4828473036
 20
221.0696873838
 30
0.0
 11
186.3306077276
 21
220.7891804749
 31
0.0
  0
LINE
  5
2A1
330
1F
100
AcDbEntity
  8
SLD-0_0
  6
Continuous
 62
   179
370
    25
100
AcDbLine
 10
186.3306077276
 20
220.7891804749
 30
0.0
 11
185.897062168
 21
220.5513728434
 31
0.0
  0
LINE
  5
2A2
330
1F
100
AcDbEntity
  8
SLD-0_0
  6
Continuous
 62
   179
370
    25
100
AcDbLine
 10
185.897062168
 20
220.5513728434
 30
0.0
 11
185.2482153182
 21
220.3924817616
 31
0.0
  0
LINE
  5
2A3
330
1F
100
AcDbEntity
  8
SLD-0_0
  6
Continuous
 62
   179
370
    25
100
AcDbLine
 10
185.2482153182
 20
220.3924817616
 30
0.0
 11
184.4828488384
 21
220.3366843635
 31
0.0
  0
LINE
  5
2A4
330
1F
100
AcDbEntity
  8
SLD-0_0
  6
Continuous
 62
   179
370
    25
100
AcDbLine
 10
184.4828488384
 20
220.3366843635
 30
0.0
 11
183.717480496
 21
220.3924817616
 31
0.0
  0
LINE
  5
2A5
330
1F
100
AcDbEntity
  8
SLD-0_0
  6
Continuous
 62
   179
370
    25
100
AcDbLine
 10
183.717480496
 20
220.3924817616
 30
0.0
 11
183.0686336462
 21
220.5513728434
 31
0.0
  0
LINE
  5
2A6
330
1F
100
AcDbEntity
  8
SLD-0_0
  6
Continuous
 62
   179
370
    25
100
AcDbLine
 10
183.0686336462
 20
220.5513728434
 30
0.0
 11
182.6350880866
 21
220.7891804749
 31
0.0
  0
LINE
  5
2A7
330
1F
100
AcDbEntity
  8
SLD-0_0
  6
Continuous
 62
   179
370
    25
100
AcDbLine
 10
182.6350880866
 20
220.7891804749
 30
0.0
 11
182.4828485106
 21
221.0696873838
 31
0.0
  0
LINE
  5
2A8
330
1F
100
AcDbEntity
  8
SLD-0_0
  6
Continuous
 62
   179
370
    25
100
AcDbLine
 10
182.4828485106
 20
221.0696873838
 30
0.0
 11
182.6350880866
 21
221.3501942927
 31
0.0
  0
LINE
  5
2A9
330
1F
100
AcDbEntity
  8
SLD-0_0
  6
Continuous
 62
   179
370
    25
100
AcDbLine
 10
182.6350880866
 20
221.3501942927
 30
0.0
 11
183.0686336462
 21
221.5879944736
 31
0.0
  0
LINE
  5
2AA
330
1F
100
AcDbEntity
  8
SLD-0_0
  6
Continuous
 62
   179
370
    25
100
AcDbLine
 10
183.0686336462
 20
221.5879944736
 30
0.0
 11
183.717480496
 21
221.746893006
 31
0.0
  0
LINE
  5
2AB
330
1F
100
AcDbEntity
  8
SLD-0_0
  6
Continuous
 62
   179
370
    25
100
AcDbLine
 10
183.717480496
 20
221.746893006
 30
0.0
 11
184.4828488384
 21
221.8026904041
 31
0.0
  0
LINE
  5
2AC
330
1F
100
AcDbEntity
  8
SLD-0_0
  6
Continuous
 62
   179
370
    25
100
AcDbLine
 10
184.4828488384
 20
221.8026904041
 30
0.0
 11
185.2482153182
 21
221.746893006
 31
0.0
  0
LINE
  5
2AD
330
1F
100
AcDbEntity
  8
SLD-0_0
  6
Continuous
 62
   179
370
    25
100
AcDbLine
 10
185.2482153182
 20
221.746893006
 30
0.0
 11
185.897062168
 21
221.5879944736
 31
0.0
  0
LINE
  5
2AE
330
1F
100
AcDbEntity
  8
SLD-0_0
  6
Continuous
 62
   179
370
    25
100
AcDbLine
 10
185.897062168
 20
221.5879944736
 30
0.0
 11
186.3306077276
 21
221.3501942927
 31
0.0
  0
LINE
  5
2AF
330
1F
100
AcDbEntity
  8
SLD-0_0
  6
Continuous
 62
   179
370
    25
100
AcDbLine
 10
186.3306077276
 20
221.3501942927
 30
0.0
 11
186.4828473036
 21
221.0696873838
 31
0.0
  0
LINE
  5
2B0
330
1F
100
AcDbEntity
  8
SLD-0_0
  6
Continuous
 62
   179
370
    25
100
AcDbLine
 10
180.6372577404
 20
228.4491372878
 30
0.0
 11
180.8180274521
 21
228.7955669338
 31
0.0
  0
LINE
  5
2B1
330
1F
100
AcDbEntity
  8
SLD-0_0
  6
Continuous
 62
   179
370
    25
100
AcDbLine
 10
180.8180274521
 20
228.7955669338
 30
0.0
 11
181.3653657292
 21
229.1892630631
 31
0.0
  0
LINE
  5
2B2
330
1F
100
AcDbEntity
  8
SLD-0_0
  6
Continuous
 62
   179
370
    25
100
AcDbLine
 10
181.3653657292
 20
229.1892630631
 30
0.0
 11
182.2178648864
 21
229.501710611
 31
0.0
  0
LINE
  5
2B3
330
1F
100
AcDbEntity
  8
SLD-0_0
  6
Continuous
 62
   179
370
    25
100
AcDbLine
 10
182.2178648864
 20
229.501710611
 30
0.0
 11
183.2920765583
 21
229.702310043
 31
0.0
  0
LINE
  5
2B4
330
1F
100
AcDbEntity
  8
SLD-0_0
  6
Continuous
 62
   179
370
    25
100
AcDbLine
 10
183.2920765583
 20
229.702310043
 30
0.0
 11
184.4828488384
 21
229.7714290792
 31
0.0
  0
LINE
  5
2B5
330
1F
100
AcDbEntity
  8
SLD-0_0
  6
Continuous
 62
   179
370
    25
100
AcDbLine
 10
184.4828488384
 20
229.7714290792
 30
0.0
 11
185.6736211185
 21
229.702310043
 31
0.0
  0
LINE
  5
2B6
330
1F
100
AcDbEntity
  8
SLD-0_0
  6
Continuous
 62
   179
370
    25
100
AcDbLine
 10
185.6736211185
 20
229.702310043
 30
0.0
 11
186.7478309278
 21
229.501710611
 31
0.0
  0
LINE
  5
2B7
330
1F
100
AcDbEntity
  8
SLD-0_0
  6
Continuous
 62
   179
370
    25
100
AcDbLine
 10
186.7478309278
 20
229.501710611
 30
0.0
 11
187.600330085
 21
229.1892630631
 31
0.0
  0
LINE
  5
2B8
330
1F
100
AcDbEntity
  8
SLD-0_0
  6
Continuous
 62
   179
370
    25
100
AcDbLine
 10
187.600330085
 20
229.1892630631
 30
0.0
 11
188.1476683621
 21
228.7955669338
 31
0.0
  0
LINE
  5
2B9
330
1F
100
AcDbEntity
  8
SLD-0_0
  6
Continuous
 62
   179
370
    25
100
AcDbLine
 10
188.1476683621
 20
228.7955669338
 30
0.0
 11
188.3150084023
 21
228.5072890693
 31
0.0
  0
LINE
  5
2BA
330
1F
100
AcDbEntity
  8
SLD-0_0
  6
Continuous
 62
   179
370
    25
100
AcDbLine
 10
202.5250388389
 20
204.5348597342
 30
0.0
 11
204.982847542
 21
204.5348597342
 31
0.0
  0
LINE
  5
2BB
330
1F
100
AcDbEntity
  8
SLD-0_0
  6
Continuous
 62
   179
370
    25
100
AcDbLine
 10
204.982847542
 20
204.5348597342
 30
0.0
 11
204.982847542
 21
209.0333116824
 31
0.0
  0
LINE
  5
2BC
330
1F
100
AcDbEntity
  8
SLD-0_0
  6
Continuous
 62
   179
370
    25
100
AcDbLine
 10
207.9828480338
 20
209.0333116824
 30
0.0
 11
204.982847542
 21
209.0333116824
 31
0.0
  0
LINE
  5
2BD
330
1F
100
AcDbEntity
  8
SLD-0_0
  6
Continuous
 62
   179
370
    25
100
AcDbLine
 10
207.9828480338
 20
204.5348597342
 30
0.0
 11
207.9828480338
 21
209.0333116824
 31
0.0
  0
LINE
  5
2BE
330
1F
100
AcDbEntity
  8
SLD-0_0
  6
Continuous
 62
   179
370
    25
100
AcDbLine
 10
207.9828480338
 20
204.5348597342
 30
0.0
 11
218.9828479742
 21
204.5348597342
 31
0.0
  0
LINE
  5
2BF
330
1F
100
AcDbEntity
  8
SLD-0_0
  6
Continuous
 62
   179
370
    25
100
AcDbLine
 10
218.9828479742
 20
204.5348597342
 30
0.0
 11
218.9828479742
 21
209.0333116824
 31
0.0
  0
LINE
  5
2C0
330
1F
100
AcDbEntity
  8
SLD-0_0
  6
Continuous
 62
   179
370
    25
100
AcDbLine
 10
221.9828484659
 20
209.0333116824
 30
0.0
 11
218.9828479742
 21
209.0333116824
 31
0.0
  0
LINE
  5
2C1
330
1F
100
AcDbEntity
  8
SLD-0_0
  6
Continuous
 62
   179
370
    25
100
AcDbLine
 10
221.9828484659
 20
204.5348597342
 30
0.0
 11
221.9828484659
 21
209.0333116824
 31
0.0
  0
LINE
  5
2C2
330
1F
100
AcDbEntity
  8
SLD-0_0
  6
Continuous
 62
   179
370
    25
100
AcDbLine
 10
221.9828484659
 20
204.5348597342
 30
0.0
 11
224.4406571691
 21
204.5348597342
 31
0.0
  0
LINE
  5
2C3
330
1F
100
AcDbEntity
  8
SLD-0_0
  6
Continuous
 62
   179
370
    25
100
AcDbLine
 10
216.4828480301
 20
198.5154313618
 30
0.0
 11
216.4828480301
 21
202.5355411345
 31
0.0
  0
LINE
  5
2C4
330
1F
100
AcDbEntity
  8
SLD-0_0
  6
Continuous
 62
   179
370
    25
100
AcDbLine
 10
216.4828480301
 20
202.5355411345
 30
0.0
 11
210.4828479779
 21
202.5355411345
 31
0.0
  0
LINE
  5
2C5
330
1F
100
AcDbEntity
  8
SLD-0_0
  6
Continuous
 62
   179
370
    25
100
AcDbLine
 10
210.4828479779
 20
202.5355411345
 30
0.0
 11
210.4828479779
 21
198.5154313618
 31
0.0
  0
LINE
  5
2C6
330
1F
100
AcDbEntity
  8
SLD-0_0
  6
Continuous
 62
   179
370
    25
100
AcDbLine
 10
210.4828479779
 20
201.8287641579
 30
0.0
 11
216.4828480301
 21
201.8287641579
 31
0.0
  0
LINE
  5
2C7
330
1F
100
AcDbEntity
  8
SLD-0_0
  6
Continuous
 62
   179
370
    25
100
AcDbLine
 10
202.4984784504
 20
204.9110395486
 30
0.0
 11
202.7932085176
 21
204.8942831928
 31
0.0
  0
LINE
  5
2C8
330
1F
100
AcDbEntity
  8
SLD-0_0
  6
Continuous
 62
   179
370
    25
100
AcDbLine
 10
202.7932085176
 20
204.8942831928
 30
0.0
 11
202.9828481455
 21
204.8645330245
 31
0.0
  0
LINE
  5
2C9
330
1F
100
AcDbEntity
  8
SLD-0_0
  6
Continuous
 62
   179
370
    25
100
AcDbLine
 10
211.482847909
 20
207.5911698515
 30
0.0
 11
211.482847909
 21
207.5717238361
 31
0.0
  0
LINE
  5
2CA
330
1F
100
AcDbEntity
  8
SLD-0_0
  6
Continuous
 62
   179
370
    25
100
AcDbLine
 10
215.482848099
 20
207.5717238361
 30
0.0
 11
215.482848099
 21
207.5912443573
 31
0.0
  0
LINE
  5
2CB
330
1F
100
AcDbEntity
  8
SLD-0_0
  6
Continuous
 62
   179
370
    25
100
AcDbLine
 10
178.782849208
 20
221.0696873838
 30
0.0
 11
178.782849208
 21
198.5154313618
 31
0.0
  0
LINE
  5
2CC
330
1F
100
AcDbEntity
  8
SLD-0_0
  6
Continuous
 62
   179
370
    25
100
AcDbLine
 10
184.4828488384
 20
223.1587407762
 30
0.0
 11
183.3708329205
 21
223.1186044986
 31
0.0
  0
LINE
  5
2CD
330
1F
100
AcDbEntity
  8
SLD-0_0
  6
Continuous
 62
   179
370
    25
100
AcDbLine
 10
183.3708329205
 20
223.1186044986
 30
0.0
 11
182.3015516703
 21
222.9997230346
 31
0.0
  0
LINE
  5
2CE
330
1F
100
AcDbEntity
  8
SLD-0_0
  6
Continuous
 62
   179
370
    25
100
AcDbLine
 10
182.3015516703
 20
222.9997230346
 30
0.0
 11
181.316098765
 21
222.8066710407
 31
0.0
  0
LINE
  5
2CF
330
1F
100
AcDbEntity
  8
SLD-0_0
  6
Continuous
 62
   179
370
    25
100
AcDbLine
 10
181.316098765
 20
222.8066710407
 30
0.0
 11
180.4523380552
 21
222.5468767459
 31
0.0
  0
LINE
  5
2D0
330
1F
100
AcDbEntity
  8
SLD-0_0
  6
Continuous
 62
   179
370
    25
100
AcDbLine
 10
180.4523380552
 20
222.5468767459
 30
0.0
 11
179.7434711908
 21
222.2303015763
 31
0.0
  0
LINE
  5
2D1
330
1F
100
AcDbEntity
  8
SLD-0_0
  6
Continuous
 62
   179
370
    25
100
AcDbLine
 10
179.7434711908
 20
222.2303015763
 30
0.0
 11
179.2167337691
 21
221.8691346819
 31
0.0
  0
LINE
  5
2D2
330
1F
100
AcDbEntity
  8
SLD-0_0
  6
Continuous
 62
   179
370
    25
100
AcDbLine
 10
179.2167337691
 20
221.8691346819
 30
0.0
 11
178.8923727428
 21
221.4772415931
 31
0.0
  0
LINE
  5
2D3
330
1F
100
AcDbEntity
  8
SLD-0_0
  6
Continuous
 62
   179
370
    25
100
AcDbLine
 10
178.8923727428
 20
221.4772415931
 30
0.0
 11
178.782849208
 21
221.0696873838
 31
0.0
  0
LINE
  5
2D4
330
1F
100
AcDbEntity
  8
SLD-0_0
  6
Continuous
 62
   179
370
    25
100
AcDbLine
 10
243.4828473334
 20
223.1587407762
 30
0.0
 11
184.4828488384
 21
223.1587407762
 31
0.0
  0
LINE
  5
2D5
330
1F
100
AcDbEntity
  8
SLD-0_0
  6
Continuous
 62
   179
370
    25
100
AcDbLine
 10
249.1828488265
 20
221.0696873838
 30
0.0
 11
249.0733252917
 21
221.4772415931
 31
0.0
  0
LINE
  5
2D6
330
1F
100
AcDbEntity
  8
SLD-0_0
  6
Continuous
 62
   179
370
    25
100
AcDbLine
 10
249.0733252917
 20
221.4772415931
 30
0.0
 11
248.7489605402
 21
221.8691346819
 31
0.0
  0
LINE
  5
2D7
330
1F
100
AcDbEntity
  8
SLD-0_0
  6
Continuous
 62
   179
370
    25
100
AcDbLine
 10
248.7489605402
 20
221.8691346819
 30
0.0
 11
248.2222231184
 21
222.2303015763
 31
0.0
  0
LINE
  5
2D8
330
1F
100
AcDbEntity
  8
SLD-0_0
  6
Continuous
 62
   179
370
    25
100
AcDbLine
 10
248.2222231184
 20
222.2303015763
 30
0.0
 11
247.513356254
 21
222.5468767459
 31
0.0
  0
LINE
  5
2D9
330
1F
100
AcDbEntity
  8
SLD-0_0
  6
Continuous
 62
   179
370
    25
100
AcDbLine
 10
247.513356254
 20
222.5468767459
 30
0.0
 11
246.6495992695
 21
222.8066710407
 31
0.0
  0
LINE
  5
2DA
330
1F
100
AcDbEntity
  8
SLD-0_0
  6
Continuous
 62
   179
370
    25
100
AcDbLine
 10
246.6495992695
 20
222.8066710407
 30
0.0
 11
245.6641445016
 21
222.9997230346
 31
0.0
  0
LINE
  5
2DB
330
1F
100
AcDbEntity
  8
SLD-0_0
  6
Continuous
 62
   179
370
    25
100
AcDbLine
 10
245.6641445016
 20
222.9997230346
 30
0.0
 11
244.5948632513
 21
223.1186044986
 31
0.0
  0
LINE
  5
2DC
330
1F
100
AcDbEntity
  8
SLD-0_0
  6
Continuous
 62
   179
370
    25
100
AcDbLine
 10
244.5948632513
 20
223.1186044986
 30
0.0
 11
243.4828473334
 21
223.1587407762
 31
0.0
  0
LINE
  5
2DD
330
1F
100
AcDbEntity
  8
SLD-0_0
  6
Continuous
 62
   179
370
    25
100
AcDbLine
 10
249.1828488265
 20
198.5154313618
 30
0.0
 11
249.1828488265
 21
221.0696873838
 31
0.0
  0
LINE
  5
2DE
330
1F
100
AcDbEntity
  8
SLD-0_0
  6
Continuous
 62
   179
370
    25
100
AcDbLine
 10
247.9828471397
 20
198.5154313618
 30
0.0
 11
247.9828471397
 21
221.0696873838
 31
0.0
  0
LINE
  5
2DF
330
1F
100
AcDbEntity
  8
SLD-0_0
  6
Continuous
 62
   179
370
    25
100
AcDbLine
 10
243.4828473334
 20
222.7189404542
 30
0.0
 11
244.3607548331
 21
222.6872531349
 31
0.0
  0
LINE
  5
2E0
330
1F
100
AcDbEntity
  8
SLD-0_0
  6
Continuous
 62
   179
370
    25
100
AcDbLine
 10
244.3607548331
 20
222.6872531349
 30
0.0
 11
245.2049242412
 21
222.5933981711
 31
0.0
  0
LINE
  5
2E1
330
1F
100
AcDbEntity
  8
SLD-0_0
  6
Continuous
 62
   179
370
    25
100
AcDbLine
 10
245.2049242412
 20
222.5933981711
 30
0.0
 11
245.9829138671
 21
222.440996545
 31
0.0
  0
LINE
  5
2E2
330
1F
100
AcDbEntity
  8
SLD-0_0
  6
Continuous
 62
   179
370
    25
100
AcDbLine
 10
245.9829138671
 20
222.440996545
 30
0.0
 11
246.6648282562
 21
222.2358895118
 31
0.0
  0
LINE
  5
2E3
330
1F
100
AcDbEntity
  8
SLD-0_0
  6
Continuous
 62
   179
370
    25
100
AcDbLine
 10
246.6648282562
 20
222.2358895118
 30
0.0
 11
247.2244599913
 21
221.9859672362
 31
0.0
  0
LINE
  5
2E4
330
1F
100
AcDbEntity
  8
SLD-0_0
  6
Continuous
 62
   179
370
    25
100
AcDbLine
 10
247.2244599913
 20
221.9859672362
 30
0.0
 11
247.6403066968
 21
221.7008335168
 31
0.0
  0
LINE
  5
2E5
330
1F
100
AcDbEntity
  8
SLD-0_0
  6
Continuous
 62
   179
370
    25
100
AcDbLine
 10
247.6403066968
 20
221.7008335168
 30
0.0
 11
247.8963831519
 21
221.3914407069
 31
0.0
  0
LINE
  5
2E6
330
1F
100
AcDbEntity
  8
SLD-0_0
  6
Continuous
 62
   179
370
    25
100
AcDbLine
 10
247.8963831519
 20
221.3914407069
 30
0.0
 11
247.9828471397
 21
221.0696873838
 31
0.0
  0
LINE
  5
2E7
330
1F
100
AcDbEntity
  8
SLD-0_0
  6
Continuous
 62
   179
370
    25
100
AcDbLine
 10
243.4828473334
 20
222.7189404542
 30
0.0
 11
184.4828488384
 21
222.7189404542
 31
0.0
  0
LINE
  5
2E8
330
1F
100
AcDbEntity
  8
SLD-0_0
  6
Continuous
 62
   179
370
    25
100
AcDbLine
 10
179.9828471695
 20
221.0696873838
 30
0.0
 11
180.0693148826
 21
221.3914407069
 31
0.0
  0
LINE
  5
2E9
330
1F
100
AcDbEntity
  8
SLD-0_0
  6
Continuous
 62
   179
370
    25
100
AcDbLine
 10
180.0693148826
 20
221.3914407069
 30
0.0
 11
180.3253913377
 21
221.7008335168
 31
0.0
  0
LINE
  5
2EA
330
1F
100
AcDbEntity
  8
SLD-0_0
  6
Continuous
 62
   179
370
    25
100
AcDbLine
 10
180.3253913377
 20
221.7008335168
 30
0.0
 11
180.7412343179
 21
221.9859672362
 31
0.0
  0
LINE
  5
2EB
330
1F
100
AcDbEntity
  8
SLD-0_0
  6
Continuous
 62
   179
370
    25
100
AcDbLine
 10
180.7412343179
 20
221.9859672362
 30
0.0
 11
181.300866053
 21
222.2358895118
 31
0.0
  0
LINE
  5
2EC
330
1F
100
AcDbEntity
  8
SLD-0_0
  6
Continuous
 62
   179
370
    25
100
AcDbLine
 10
181.300866053
 20
222.2358895118
 30
0.0
 11
181.9827804421
 21
222.440996545
 31
0.0
  0
LINE
  5
2ED
330
1F
100
AcDbEntity
  8
SLD-0_0
  6
Continuous
 62
   179
370
    25
100
AcDbLine
 10
181.9827804421
 20
222.440996545
 30
0.0
 11
182.7607719307
 21
222.5933981711
 31
0.0
  0
LINE
  5
2EE
330
1F
100
AcDbEntity
  8
SLD-0_0
  6
Continuous
 62
   179
370
    25
100
AcDbLine
 10
182.7607719307
 20
222.5933981711
 30
0.0
 11
183.6049413388
 21
222.6872531349
 31
0.0
  0
LINE
  5
2EF
330
1F
100
AcDbEntity
  8
SLD-0_0
  6
Continuous
 62
   179
370
    25
100
AcDbLine
 10
183.6049413388
 20
222.6872531349
 30
0.0
 11
184.4828488384
 21
222.7189404542
 31
0.0
  0
LINE
  5
2F0
330
1F
100
AcDbEntity
  8
SLD-0_0
  6
Continuous
 62
   179
370
    25
100
AcDbLine
 10
179.9828471695
 20
221.0696873838
 30
0.0
 11
179.9828471695
 21
198.5154313618
 31
0.0
  0
LINE
  5
2F1
330
1F
100
AcDbEntity
  8
SLD-0_0
  6
Continuous
 62
   179
370
    25
100
AcDbLine
 10
178.782849208
 20
221.0696873838
 30
0.0
 11
178.782849208
 21
225.0704852516
 31
0.0
  0
LINE
  5
2F2
330
1F
100
AcDbEntity
  8
SLD-0_0
  6
Continuous
 62
   179
370
    25
100
AcDbLine
 10
249.1828488265
 20
225.0704852516
 30
0.0
 11
249.1828488265
 21
221.0696873838
 31
0.0
  0
LINE
  5
2F3
330
1F
100
AcDbEntity
  8
SLD-0_0
  6
Continuous
 62
   179
370
    25
100
AcDbLine
 10
241.9828480189
 20
220.3599599773
 30
0.0
 11
241.9828480189
 21
198.5154313618
 31
0.0
  0
LINE
  5
2F4
330
1F
100
AcDbEntity
  8
SLD-0_0
  6
Continuous
 62
   179
370
    25
100
AcDbLine
 10
184.9828479891
 20
198.5154313618
 30
0.0
 11
184.9828479891
 21
220.3599599773
 31
0.0
  0
LINE
  5
2F5
330
1F
100
AcDbEntity
  8
SLD-0_0
  6
Continuous
 62
   179
370
    25
100
AcDbLine
 10
180.9828491961
 20
198.5154313618
 30
0.0
 11
180.9828491961
 21
222.106309014
 31
0.0
  0
LINE
  5
2F6
330
1F
100
AcDbEntity
  8
SLD-0_0
  6
Continuous
 62
   179
370
    25
100
AcDbLine
 10
245.9828468119
 20
222.4410114462
 30
0.0
 11
245.9828468119
 21
198.5154313618
 31
0.0
  0
LINE
  5
2F7
330
1F
100
AcDbEntity
  8
SLD-0_0
  6
Continuous
 62
   179
370
    25
100
AcDbLine
 10
186.4828473036
 20
221.5186370189
 30
0.0
 11
186.625993446
 21
221.5653298075
 31
0.0
  0
LINE
  5
2F8
330
1F
100
AcDbEntity
  8
SLD-0_0
  6
Continuous
 62
   179
370
    25
100
AcDbLine
 10
186.625993446
 20
221.5653298075
 30
0.0
 11
186.8054295038
 21
221.610957163
 31
0.0
  0
LINE
  5
2F9
330
1F
100
AcDbEntity
  8
SLD-0_0
  6
Continuous
 62
   179
370
    25
100
AcDbLine
 10
190.064065725
 20
222.6570633823
 30
0.0
 11
236.9016302829
 21
222.6570633823
 31
0.0
  0
LINE
  5
2FA
330
1F
100
AcDbEntity
  8
SLD-0_0
  6
Continuous
 62
   179
370
    25
100
AcDbLine
 10
240.1602665041
 20
221.610957163
 30
0.0
 11
240.339702562
 21
221.5653298075
 31
0.0
  0
LINE
  5
2FB
330
1F
100
AcDbEntity
  8
SLD-0_0
  6
Continuous
 62
   179
370
    25
100
AcDbLine
 10
240.339702562
 20
221.5653298075
 30
0.0
 11
240.4828487043
 21
221.5186370189
 31
0.0
  0
LINE
  5
2FC
330
1F
100
AcDbEntity
  8
SLD-0_0
  6
Continuous
 62
   179
370
    25
100
AcDbLine
 10
240.982847855
 20
220.5848483021
 30
0.0
 11
240.982847855
 21
198.5154313618
 31
0.0
  0
LINE
  5
2FD
330
1F
100
AcDbEntity
  8
SLD-0_0
  6
Continuous
 62
   179
370
    25
100
AcDbLine
 10
185.982848153
 20
198.5154313618
 30
0.0
 11
185.982848153
 21
220.5848483021
 31
0.0
  0
LINE
  5
2FE
330
1F
100
AcDbEntity
  8
SLD-0_0
  6
Continuous
 62
   179
370
    25
100
AcDbLine
 10
187.7828488206
 20
198.5154313618
 30
0.0
 11
187.7828488206
 21
218.6674413854
 31
0.0
  0
LINE
  5
2FF
330
1F
100
AcDbEntity
  8
SLD-0_0
  6
Continuous
 62
   179
370
    25
100
AcDbLine
 10
239.1828471874
 20
218.6674413854
 30
0.0
 11
239.1828471874
 21
198.5154313618
 31
0.0
  0
ARC
  5
300
330
1F
100
AcDbEntity
  8
SLD-0_0
  6
Continuous
 62
   179
370
    25
100
AcDbCircle
 10
199.2017296858
 20
262.2470781747
 30
0.0
 40
2.000000000000036
100
AcDbArc
 50
45.0
 51
90.0
  0
ARC
  5
301
330
1F
100
AcDbEntity
  8
SLD-0_0
  6
Continuous
 62
   179
370
    25
100
AcDbCircle
 10
227.7639663222
 20
262.2470781747
 30
0.0
 40
2.000000000000016
100
AcDbArc
 50
90.0
 51
135.0
  0
ARC
  5
302
330
1F
100
AcDbEntity
  8
SLD-0_0
  6
Continuous
 62
   179
370
    25
100
AcDbCircle
 10
276.0350236816
 20
278.6470781747
 30
0.0
 40
3.000000000000014
100
AcDbArc
 50
180.0
 51
230.0554948102
  0
ARC
  5
303
330
1F
100
AcDbEntity
  8
SLD-0_0
  6
Continuous
 62
   179
370
    25
100
AcDbCircle
 10
277.482848004
 20
521.5470781747
 30
0.0
 40
3.0
100
AcDbArc
 50
180.0
 51
270.0
  0
ARC
  5
304
330
1F
100
AcDbEntity
  8
SLD-0_0
  6
Continuous
 62
   179
370
    25
100
AcDbCircle
 10
265.0350236816
 20
279.6470781747
 30
0.0
 40
8.0
100
AcDbArc
 50
0.0
 51
21.2481539806
  0
ARC
  5
305
330
1F
100
AcDbEntity
  8
SLD-0_0
  6
Continuous
 62
   179
370
    25
100
AcDbCircle
 10
277.9828483318
 20
273.6470781747
 30
0.0
 40
2.000000327800365
100
AcDbArc
 50
359.9999494565
 51
90.0
  0
ARC
  5
306
330
1F
100
AcDbEntity
  8
SLD-0_0
  6
Continuous
 62
   179
370
    25
100
AcDbCircle
 10
188.482848004
 20
288.6470781747
 30
0.0
 40
1.0
100
AcDbArc
 50
270.0
 51
0.0
  0
ARC
  5
307
330
1F
100
AcDbEntity
  8
SLD-0_0
  6
Continuous
 62
   179
370
    25
100
AcDbCircle
 10
238.482848004
 20
288.6470781747
 30
0.0
 40
1.0
100
AcDbArc
 50
180.0
 51
270.0
  0
ARC
  5
308
330
1F
100
AcDbEntity
  8
SLD-0_0
  6
Continuous
 62
   179
370
    25
100
AcDbCircle
 10
190.4828478997
 20
289.6470781747
 30
0.0
 40
1.000000104300198
100
AcDbArc
 50
90.0
 51
179.999950823
  0
ARC
  5
309
330
1F
100
AcDbEntity
  8
SLD-0_0
  6
Continuous
 62
   179
370
    25
100
AcDbCircle
 10
236.482848004
 20
289.6470781747
 30
0.0
 40
1.000000000000028
100
AcDbArc
 50
0.0
 51
90.0
  0
ARC
  5
30A
330
1F
100
AcDbEntity
  8
SLD-0_0
  6
Continuous
 62
   179
370
    25
100
AcDbCircle
 10
177.7506553476
 20
656.5470781561
 30
0.0
 40
0.9999991531156285
100
AcDbArc
 50
90.0
 51
178.7424112571
  0
ARC
  5
30B
330
1F
100
AcDbEntity
  8
SLD-0_0
  6
Continuous
 62
   179
370
    25
100
AcDbCircle
 10
278.982848868
 20
568.5470782138
 30
0.0
 40
1.000000327800677
100
AcDbArc
 50
270.0
 51
359.9999043791
  0
ARC
  5
30C
330
1F
100
AcDbEntity
  8
SLD-0_0
  6
Continuous
 62
   179
370
    25
100
AcDbCircle
 10
166.1138847161
 20
659.0470781747
 30
0.0
 40
0.500000000000036
100
AcDbArc
 50
90.0
 51
179.287378315
  0
ARC
  5
30D
330
1F
100
AcDbEntity
  8
SLD-0_0
  6
Continuous
 62
   179
370
    25
100
AcDbCircle
 10
260.8518112918
 20
659.0470781747
 30
0.0
 40
0.5
100
AcDbArc
 50
1.9985287228
 51
90.0
  0
ARC
  5
30E
330
1F
100
AcDbEntity
  8
SLD-0_0
  6
Continuous
 62
   179
370
    25
100
AcDbCircle
 10
167.9020917974
 20
678.5470781747
 30
0.0
 40
1.00000000000001
100
AcDbArc
 50
90.0
 51
178.601852237
  0
ARC
  5
30F
330
1F
100
AcDbEntity
  8
SLD-0_0
  6
Continuous
 62
   179
370
    25
100
AcDbCircle
 10
259.0636042105
 20
678.5470781747
 30
0.0
 40
1.0
100
AcDbArc
 50
1.398147763
 51
90.0
  0
ARC
  5
310
330
1F
100
AcDbEntity
  8
SLD-0_0
  6
Continuous
 62
   179
370
    25
100
AcDbCircle
 10
264.6328834189
 20
671.9639682151
 30
0.0
 40
5.999997723602203
100
AcDbArc
 50
1.5622249168
 51
85.7635949779
  0
ARC
  5
311
330
1F
100
AcDbEntity
  8
SLD-0_0
  6
Continuous
 62
   179
370
    25
100
AcDbCircle
 10
162.3328101452
 20
671.9639705474
 30
0.0
 40
5.999997723598461
100
AcDbArc
 50
94.2364050212
 51
178.4377750832
  0
ARC
  5
312
330
1F
100
AcDbEntity
  8
SLD-0_0
  6
Continuous
 62
   179
370
    25
100
AcDbCircle
 10
265.8205536209
 20
656.5470775973
 30
0.0
 40
1.000000577426081
100
AcDbArc
 50
1.521478746
 51
90.0
  0
ARC
  5
313
330
1F
100
AcDbEntity
  8
SLD-0_0
  6
Continuous
 62
   179
370
    25
100
AcDbCircle
 10
244.4828486745
 20
680.4757438318
 30
0.0
 40
1.000000000000028
100
AcDbArc
 50
180.0
 51
212.9080947777
  0
ARC
  5
314
330
1F
100
AcDbEntity
  8
SLD-0_0
  6
Continuous
 62
   179
370
    25
100
AcDbCircle
 10
182.482848004
 20
680.4757438318
 30
0.0
 40
1.000000000000007
100
AcDbArc
 50
315.9742084041
 51
0.0
  0
ARC
  5
315
330
1F
100
AcDbEntity
  8
SLD-0_0
  6
Continuous
 62
   179
370
    25
100
AcDbCircle
 10
242.4828483392
 20
680.5470781747
 30
0.0
 40
0.9999996647007947
100
AcDbArc
 50
0.0001024564
 51
90.0
  0
ARC
  5
316
330
1F
100
AcDbEntity
  8
SLD-0_0
  6
Continuous
 62
   179
370
    25
100
AcDbCircle
 10
184.4828483392
 20
680.5470781747
 30
0.0
 40
0.9999996647507957
100
AcDbArc
 50
90.0
 51
179.9998975436
  0
ARC
  5
317
330
1F
100
AcDbEntity
  8
SLD-0_0
  6
Continuous
 62
   179
370
    25
100
AcDbCircle
 10
271.7155521143
 20
656.5470788762
 30
0.0
 40
0.9999992985287918
100
AcDbArc
 50
1.5761441997
 51
90.0
  0
ARC
  5
318
330
1F
100
AcDbEntity
  8
SLD-0_0
  6
Continuous
 62
   179
370
    25
100
AcDbCircle
 10
144.2787812523
 20
560.0470759872
 30
0.0
 40
0.4999999999999716
100
AcDbArc
 50
180.0
 51
270.0
  0
ARC
  5
319
330
1F
100
AcDbEntity
  8
SLD-0_0
  6
Continuous
 62
   179
370
    25
100
AcDbCircle
 10
275.3727004459
 20
656.5470781747
 30
0.0
 40
1.000000000000093
100
AcDbArc
 50
1.5703339601
 51
90.0
  0
ARC
  5
31A
330
1F
100
AcDbEntity
  8
SLD-0_0
  6
Continuous
 62
   179
370
    25
100
AcDbCircle
 10
151.3816434134
 20
656.5470786854
 30
0.0
 40
0.9999994892835321
100
AcDbArc
 50
90.0
 51
178.4332514507
  0
ARC
  5
31B
330
1F
100
AcDbEntity
  8
SLD-0_0
  6
Continuous
 62
   179
370
    25
100
AcDbCircle
 10
271.5148503926
 20
658.0470758625
 30
0.0
 40
0.4999992649726743
100
AcDbArc
 50
181.5616474787
 51
235.454439761
  0
ARC
  5
31C
330
1F
100
AcDbEntity
  8
SLD-0_0
  6
Continuous
 62
   179
370
    25
100
AcDbCircle
 10
155.4508431715
 20
658.0470781947
 30
0.0
 40
0.4999992649726175
100
AcDbArc
 50
337.2820162845
 51
358.4383525213
  0
ARC
  5
31D
330
1F
100
AcDbEntity
  8
SLD-0_0
  6
Continuous
 62
   179
370
    25
100
AcDbCircle
 10
282.6869157653
 20
560.0470782138
 30
0.0
 40
0.4999999999999432
100
AcDbArc
 50
270.0
 51
0.0
  0
ARC
  5
31E
330
1F
100
AcDbEntity
  8
SLD-0_0
  6
Continuous
 62
   179
370
    25
100
AcDbCircle
 10
148.7448593179
 20
573.6470781747
 30
0.0
 40
1.199999774051662
100
AcDbArc
 50
90.0
 51
179.9998707932
  0
ARC
  5
31F
330
1F
100
AcDbEntity
  8
SLD-0_0
  6
Continuous
 62
   179
370
    25
100
AcDbCircle
 10
202.6732907164
 20
502.3622207243
 30
0.0
 40
1.499999875315568
100
AcDbArc
 50
18.0
 51
85.0000135346
  0
ARC
  5
320
330
1F
100
AcDbEntity
  8
SLD-0_0
  6
Continuous
 62
   179
370
    25
100
AcDbCircle
 10
224.2924050251
 20
502.362220701
 30
0.0
 40
1.499999875315506
100
AcDbArc
 50
94.999976248
 51
161.9999990637
  0
ARC
  5
321
330
1F
100
AcDbEntity
  8
SLD-0_0
  6
Continuous
 62
   179
370
    25
100
AcDbCircle
 10
249.7164503444
 20
290.6463376192
 30
0.0
 40
2.999262727683855
100
AcDbArc
 50
270.0139080637
 51
0.0142021553
  0
ARC
  5
322
330
1F
100
AcDbEntity
  8
SLD-0_0
  6
Continuous
 62
   179
370
    25
100
AcDbCircle
 10
130.4828475569
 20
551.5470781747
 30
0.0
 40
2.000000447050184
100
AcDbArc
 50
90.0000000008
 51
179.9999675563
  0
ARC
  5
323
330
1F
100
AcDbEntity
  8
SLD-0_0
  6
Continuous
 62
   179
370
    25
100
AcDbCircle
 10
130.482848004
 20
515.5470781747
 30
0.0
 40
2.0
100
AcDbArc
 50
180.0
 51
269.9999999992
  0
ARC
  5
324
330
1F
100
AcDbEntity
  8
SLD-0_0
  6
Continuous
 62
   179
370
    25
100
AcDbCircle
 10
195.4828490367
 20
288.647079416
 30
0.0
 40
1.0
100
AcDbArc
 50
180.0
 51
270.0
  0
ARC
  5
325
330
1F
100
AcDbEntity
  8
SLD-0_0
  6
Continuous
 62
   179
370
    25
100
AcDbCircle
 10
231.482848004
 20
288.6470781747
 30
0.0
 40
1.0
100
AcDbArc
 50
270.0
 51
0.0
  0
ARC
  5
326
330
1F
100
AcDbEntity
  8
SLD-0_0
  6
Continuous
 62
   179
370
    25
100
AcDbCircle
 10
193.4828478997
 20
289.647079416
 30
0.0
 40
1.000001747900271
100
AcDbArc
 50
0.0000491769
 51
89.9999743889
  0
ARC
  5
327
330
1F
100
AcDbEntity
  8
SLD-0_0
  6
Continuous
 62
   179
370
    25
100
AcDbCircle
 10
233.482848004
 20
289.6470781747
 30
0.0
 40
1.0
100
AcDbArc
 50
90.0
 51
180.0
  0
ARC
  5
328
330
1F
100
AcDbEntity
  8
SLD-0_0
  6
Continuous
 62
   179
370
    25
100
AcDbCircle
 10
277.482848004
 20
502.5470781747
 30
0.0
 40
5.0
100
AcDbArc
 50
90.0
 51
180.0
  0
ARC
  5
329
330
1F
100
AcDbEntity
  8
SLD-0_0
  6
Continuous
 62
   179
370
    25
100
AcDbCircle
 10
188.482848004
 20
299.6470770555
 30
0.0
 40
4.999999664751954
100
AcDbArc
 50
90.0
 51
179.999928692
  0
ARC
  5
32A
330
1F
100
AcDbEntity
  8
SLD-0_0
  6
Continuous
 62
   179
370
    25
100
AcDbCircle
 10
238.4828480041
 20
299.6470767203
 30
0.0
 40
5.0
100
AcDbArc
 50
0.0
 51
90.0
  0
ARC
  5
32B
330
1F
100
AcDbEntity
  8
SLD-0_0
  6
Continuous
 62
   179
370
    25
100
AcDbCircle
 10
195.4828512836
 20
305.6470769856
 30
0.0
 40
0.9999988108531959
100
AcDbArc
 50
269.999856484
 51
0.0004468292
  0
ARC
  5
32C
330
1F
100
AcDbEntity
  8
SLD-0_0
  6
Continuous
 62
   179
370
    25
100
AcDbCircle
 10
231.482848466
 20
305.6470762584
 30
0.0
 40
0.9999995381030474
100
AcDbArc
 50
179.9996907595
 51
269.9999735349
  0
ARC
  5
32D
330
1F
100
AcDbEntity
  8
SLD-0_0
  6
Continuous
 62
   179
370
    25
100
AcDbCircle
 10
276.6873040129
 20
560.544274362
 30
0.0
 40
2.997197796681974
100
AcDbArc
 50
254.1952066263
 51
269.9995036373
  0
ARC
  5
32E
330
1F
100
AcDbEntity
  8
SLD-0_0
  6
Continuous
 62
   179
370
    25
100
AcDbCircle
 10
281.482848004
 20
555.5470773701
 30
0.0
 40
1.999999195351737
100
AcDbArc
 50
0.0
 51
89.9998941316
  0
ARC
  5
32F
330
1F
100
AcDbEntity
  8
SLD-0_0
  6
Continuous
 62
   179
370
    25
100
AcDbCircle
 10
195.627653903
 20
568.5470778413
 30
0.0
 40
0.9999999851001554
100
AcDbArc
 50
179.5
 51
269.999979173
  0
ARC
  5
330
330
1F
100
AcDbEntity
  8
SLD-0_0
  6
Continuous
 62
   179
370
    25
100
AcDbCircle
 10
231.3380438332
 20
568.5470778562
 30
0.0
 40
1.000000000000005
100
AcDbArc
 50
270.0
 51
0.5
  0
ARC
  5
331
330
1F
100
AcDbEntity
  8
SLD-0_0
  6
Continuous
 62
   179
370
    25
100
AcDbCircle
 10
276.651423746
 20
656.5470814497
 30
0.0
 40
0.9999966063285654
100
AcDbArc
 50
1.4999461249
 51
89.998171674
  0
ARC
  5
332
330
1F
100
AcDbEntity
  8
SLD-0_0
  6
Continuous
 62
   179
370
    25
100
AcDbCircle
 10
150.3142722619
 20
656.5470814497
 30
0.0
 40
0.9999966063285068
100
AcDbArc
 50
90.0018283203
 51
178.5000538751
  0
ARC
  5
333
330
1F
100
AcDbEntity
  8
SLD-0_0
  6
Continuous
 62
   179
370
    25
100
AcDbCircle
 10
242.4828481007
 20
662.3930079617
 30
0.0
 40
73.65947472491032
100
AcDbArc
 50
269.5994057131
 51
270.400594287
  0
ARC
  5
334
330
1F
100
AcDbEntity
  8
SLD-0_0
  6
Continuous
 62
   179
370
    25
100
AcDbCircle
 10
242.5293274303
 20
590.7243968618
 30
0.0
 40
0.9769637552467558
100
AcDbArc
 50
298.6571965441
 51
327.2137231206
  0
ARC
  5
335
330
1F
100
AcDbEntity
  8
SLD-0_0
  6
Continuous
 62
   179
370
    25
100
AcDbCircle
 10
242.5411708723
 20
573.6758544362
 30
0.0
 40
16.53933111322941
100
AcDbArc
 50
83.3119377159
 51
87.1946452642
  0
ARC
  5
336
330
1F
100
AcDbEntity
  8
SLD-0_0
  6
Continuous
 62
   179
370
    25
100
AcDbCircle
 10
232.0286693586
 20
590.5817998175
 30
0.0
 40
12.44796074240911
100
AcDbArc
 50
357.7939403945
 51
2.2060596055
  0
ARC
  5
337
330
1F
100
AcDbEntity
  8
SLD-0_0
  6
Continuous
 62
   179
370
    25
100
AcDbCircle
 10
242.5411708729
 20
574.6341853654
 30
0.0
 40
16.53933111321653
100
AcDbArc
 50
83.3119377181
 51
87.1946452663
  0
ARC
  5
338
330
1F
100
AcDbEntity
  8
SLD-0_0
  6
Continuous
 62
   179
370
    25
100
AcDbCircle
 10
242.5293274302
 20
590.6246626254
 30
0.0
 40
0.9769637552536584
100
AcDbArc
 50
32.7862768758
 51
61.3428034488
  0
ARC
  5
339
330
1F
100
AcDbEntity
  8
SLD-0_0
  6
Continuous
 62
   179
370
    25
100
AcDbCircle
 10
242.4828481008
 20
583.8026126301
 30
0.0
 40
8.641013919279102
100
AcDbArc
 50
86.5831762997
 51
93.4168236999
  0
ARC
  5
33A
330
1F
100
AcDbEntity
  8
SLD-0_0
  6
Continuous
 62
   179
370
    25
100
AcDbCircle
 10
242.4363687714
 20
590.6246626254
 30
0.0
 40
0.976963755246585
100
AcDbArc
 50
118.6571965441
 51
147.2137231206
  0
ARC
  5
33B
330
1F
100
AcDbEntity
  8
SLD-0_0
  6
Continuous
 62
   179
370
    25
100
AcDbCircle
 10
242.4245253283
 20
574.6341853654
 30
0.0
 40
16.539331113219
100
AcDbArc
 50
92.8053547321
 51
96.6880622803
  0
ARC
  5
33C
330
1F
100
AcDbEntity
  8
SLD-0_0
  6
Continuous
 62
   179
370
    25
100
AcDbCircle
 10
252.9370268431
 20
590.5817998174
 30
0.0
 40
12.44796074240949
100
AcDbArc
 50
177.793940394
 51
182.2060596054
  0
ARC
  5
33D
330
1F
100
AcDbEntity
  8
SLD-0_0
  6
Continuous
 62
   179
370
    25
100
AcDbCircle
 10
242.4245253293
 20
573.6758544362
 30
0.0
 40
16.53933111323591
100
AcDbArc
 50
92.8053547359
 51
96.6880622839
  0
ARC
  5
33E
330
1F
100
AcDbEntity
  8
SLD-0_0
  6
Continuous
 62
   179
370
    25
100
AcDbCircle
 10
242.4363687713
 20
590.7243968618
 30
0.0
 40
0.9769637552517996
100
AcDbArc
 50
212.7862768784
 51
241.3428034559
  0
ARC
  5
33F
330
1F
100
AcDbEntity
  8
SLD-0_0
  6
Continuous
 62
   179
370
    25
100
AcDbCircle
 10
242.4828481008
 20
589.7829178207
 30
0.0
 40
4.005809151774463
100
AcDbArc
 50
183.0861118957
 51
356.9138881043
  0
ARC
  5
340
330
1F
100
AcDbEntity
  8
SLD-0_0
  6
Continuous
 62
   179
370
    25
100
AcDbCircle
 10
242.4427329167
 20
589.8028364049
 30
0.0
 40
0.8239250502157871
100
AcDbArc
 50
125.195553932
 51
140.675520823
  0
ARC
  5
341
330
1F
100
AcDbEntity
  8
SLD-0_0
  6
Continuous
 62
   179
370
    25
100
AcDbCircle
 10
242.522963285
 20
589.8028364049
 30
0.0
 40
0.8239250501960054
100
AcDbArc
 50
39.3244791747
 51
54.8044460649
  0
ARC
  5
342
330
1F
100
AcDbEntity
  8
SLD-0_0
  6
Continuous
 62
   179
370
    25
100
AcDbCircle
 10
242.4828481008
 20
589.9540034638
 30
0.0
 40
0.9003697139021258
100
AcDbArc
 50
235.1110832636
 51
304.8889167364
  0
ARC
  5
343
330
1F
100
AcDbEntity
  8
SLD-0_0
  6
Continuous
 62
   179
370
    25
100
AcDbCircle
 10
242.4828481008
 20
589.7375998638
 30
0.0
 40
0.9003697138822179
100
AcDbArc
 50
55.1110832609
 51
124.8889167354
  0
ARC
  5
344
330
1F
100
AcDbEntity
  8
SLD-0_0
  6
Continuous
 62
   179
370
    25
100
AcDbCircle
 10
184.4828479071
 20
662.3930079617
 30
0.0
 40
73.65947472491032
100
AcDbArc
 50
269.5994057131
 51
270.400594287
  0
ARC
  5
345
330
1F
100
AcDbEntity
  8
SLD-0_0
  6
Continuous
 62
   179
370
    25
100
AcDbCircle
 10
184.5293272367
 20
590.7243968618
 30
0.0
 40
0.9769637552466703
100
AcDbArc
 50
298.6571965441
 51
327.2137231206
  0
ARC
  5
346
330
1F
100
AcDbEntity
  8
SLD-0_0
  6
Continuous
 62
   179
370
    25
100
AcDbCircle
 10
184.5411706786
 20
573.6758544362
 30
0.0
 40
16.53933111323191
100
AcDbArc
 50
83.3119377159
 51
87.1946452638
  0
ARC
  5
347
330
1F
100
AcDbEntity
  8
SLD-0_0
  6
Continuous
 62
   179
370
    25
100
AcDbCircle
 10
174.0286691649
 20
590.5817998175
 30
0.0
 40
12.4479607423592
100
AcDbArc
 50
357.7939403944
 51
2.2060596055
  0
ARC
  5
348
330
1F
100
AcDbEntity
  8
SLD-0_0
  6
Continuous
 62
   179
370
    25
100
AcDbCircle
 10
184.5411706792
 20
574.6341853654
 30
0.0
 40
16.53933111322243
100
AcDbArc
 50
83.3119377182
 51
87.1946452664
  0
ARC
  5
349
330
1F
100
AcDbEntity
  8
SLD-0_0
  6
Continuous
 62
   179
370
    25
100
AcDbCircle
 10
184.5293272366
 20
590.6246626254
 30
0.0
 40
0.9769637552116653
100
AcDbArc
 50
32.7862768755
 51
61.3428034498
  0
ARC
  5
34A
330
1F
100
AcDbEntity
  8
SLD-0_0
  6
Continuous
 62
   179
370
    25
100
AcDbCircle
 10
184.4828479071
 20
583.8026126301
 30
0.0
 40
8.641013919279102
100
AcDbArc
 50
86.5831762997
 51
93.4168236999
  0
ARC
  5
34B
330
1F
100
AcDbEntity
  8
SLD-0_0
  6
Continuous
 62
   179
370
    25
100
AcDbCircle
 10
184.4363685777
 20
590.6246626254
 30
0.0
 40
0.9769637552465611
100
AcDbArc
 50
118.6571965441
 51
147.2137231206
  0
ARC
  5
34C
330
1F
100
AcDbEntity
  8
SLD-0_0
  6
Continuous
 62
   179
370
    25
100
AcDbCircle
 10
184.4245251346
 20
574.6341853654
 30
0.0
 40
16.53933111321891
100
AcDbArc
 50
92.8053547322
 51
96.6880622804
  0
ARC
  5
34D
330
1F
100
AcDbEntity
  8
SLD-0_0
  6
Continuous
 62
   179
370
    25
100
AcDbCircle
 10
194.9370266493
 20
590.5817998175
 30
0.0
 40
12.44796074235955
100
AcDbArc
 50
177.7939403942
 51
182.2060596055
  0
ARC
  5
34E
330
1F
100
AcDbEntity
  8
SLD-0_0
  6
Continuous
 62
   179
370
    25
100
AcDbCircle
 10
184.4245251357
 20
573.6758544362
 30
0.0
 40
16.53933111324163
100
AcDbArc
 50
92.8053547359
 51
96.6880622843
  0
ARC
  5
34F
330
1F
100
AcDbEntity
  8
SLD-0_0
  6
Continuous
 62
   179
370
    25
100
AcDbCircle
 10
184.4363685777
 20
590.7243968618
 30
0.0
 40
0.9769637552517859
100
AcDbArc
 50
212.7862768784
 51
241.3428034559
  0
ARC
  5
350
330
1F
100
AcDbEntity
  8
SLD-0_0
  6
Continuous
 62
   179
370
    25
100
AcDbCircle
 10
184.4828479071
 20
589.7829161227
 30
0.0
 40
4.005809060310065
100
AcDbArc
 50
183.0860876442
 51
356.9139123558
  0
ARC
  5
351
330
1F
100
AcDbEntity
  8
SLD-0_0
  6
Continuous
 62
   179
370
    25
100
AcDbCircle
 10
184.4427327229
 20
589.802836405
 30
0.0
 40
0.8239250501584696
100
AcDbArc
 50
125.1955539314
 51
140.6755208235
  0
ARC
  5
352
330
1F
100
AcDbEntity
  8
SLD-0_0
  6
Continuous
 62
   179
370
    25
100
AcDbCircle
 10
184.5229630913
 20
589.802836405
 30
0.0
 40
0.8239250501858806
100
AcDbArc
 50
39.3244791754
 51
54.8044460658
  0
ARC
  5
353
330
1F
100
AcDbEntity
  8
SLD-0_0
  6
Continuous
 62
   179
370
    25
100
AcDbCircle
 10
184.4828479071
 20
589.9540034638
 30
0.0
 40
0.9003697139021422
100
AcDbArc
 50
235.1110832636
 51
304.8889167364
  0
ARC
  5
354
330
1F
100
AcDbEntity
  8
SLD-0_0
  6
Continuous
 62
   179
370
    25
100
AcDbCircle
 10
184.4828479071
 20
589.7375998638
 30
0.0
 40
0.9003697138823656
100
AcDbArc
 50
55.1110832617
 51
124.8889167362
  0
ARC
  5
355
330
1F
100
AcDbEntity
  8
SLD-0_0
  6
Continuous
 62
   179
370
    25
100
AcDbCircle
 10
242.542007763
 20
658.3539286883
 30
0.0
 40
16.52922355529096
100
AcDbArc
 50
83.3107501305
 51
87.1958328496
  0
ARC
  5
356
330
1F
100
AcDbEntity
  8
SLD-0_0
  6
Continuous
 62
   179
370
    25
100
AcDbCircle
 10
232.0286022396
 20
675.2497991149
 30
0.0
 40
12.44802795505893
100
AcDbArc
 50
357.793935152
 51
2.2060648476
  0
ARC
  5
357
330
1F
100
AcDbEntity
  8
SLD-0_0
  6
Continuous
 62
   179
370
    25
100
AcDbCircle
 10
242.5403324208
 20
659.2920909037
 30
0.0
 40
16.54945753644725
100
AcDbArc
 50
83.3131260646
 51
87.19345692
  0
ARC
  5
358
330
1F
100
AcDbEntity
  8
SLD-0_0
  6
Continuous
 62
   179
370
    25
100
AcDbCircle
 10
242.5292874062
 20
675.2926226304
 30
0.0
 40
0.9770206977931332
100
AcDbArc
 50
32.7871267059
 51
61.3419536237
  0
ARC
  5
359
330
1F
100
AcDbEntity
  8
SLD-0_0
  6
Continuous
 62
   179
370
    25
100
AcDbCircle
 10
242.4828481008
 20
668.4692169882
 30
0.0
 40
8.642410097942768
100
AcDbArc
 50
86.5837289416
 51
93.416271058
  0
ARC
  5
35A
330
1F
100
AcDbEntity
  8
SLD-0_0
  6
Continuous
 62
   179
370
    25
100
AcDbCircle
 10
242.4364087955
 20
675.2926226304
 30
0.0
 40
0.977020697784958
100
AcDbArc
 50
118.6580463724
 51
147.2128732938
  0
ARC
  5
35B
330
1F
100
AcDbEntity
  8
SLD-0_0
  6
Continuous
 62
   179
370
    25
100
AcDbCircle
 10
242.4253637817
 20
659.2920909038
 30
0.0
 40
16.54945753640801
100
AcDbArc
 50
92.8065430829
 51
96.686873938
  0
ARC
  5
35C
330
1F
100
AcDbEntity
  8
SLD-0_0
  6
Continuous
 62
   179
370
    25
100
AcDbCircle
 10
252.9370939621
 20
675.2497991151
 30
0.0
 40
12.44802795506656
100
AcDbArc
 50
177.7939351535
 51
182.206064849
  0
ARC
  5
35D
330
1F
100
AcDbEntity
  8
SLD-0_0
  6
Continuous
 62
   179
370
    25
100
AcDbCircle
 10
242.4236884387
 20
658.3539286882
 30
0.0
 40
16.52922355533203
100
AcDbArc
 50
92.8041671504
 51
96.6892498696
  0
ARC
  5
35E
330
1F
100
AcDbEntity
  8
SLD-0_0
  6
Continuous
 62
   179
370
    25
100
AcDbCircle
 10
242.4364087955
 20
675.3924354515
 30
0.0
 40
0.9770206977824067
100
AcDbArc
 50
212.7871267089
 51
241.3419536283
  0
ARC
  5
35F
330
1F
100
AcDbEntity
  8
SLD-0_0
  6
Continuous
 62
   179
370
    25
100
AcDbCircle
 10
242.4828481009
 20
747.3340169615
 30
0.0
 40
73.9324815043106
100
AcDbArc
 50
269.6008849916
 51
270.3991150085
  0
ARC
  5
360
330
1F
100
AcDbEntity
  8
SLD-0_0
  6
Continuous
 62
   179
370
    25
100
AcDbCircle
 10
242.5292874062
 20
675.3924354515
 30
0.0
 40
0.977020697785634
100
AcDbArc
 50
298.6580463725
 51
327.2128732911
  0
ARC
  5
361
330
1F
100
AcDbEntity
  8
SLD-0_0
  6
Continuous
 62
   179
370
    25
100
AcDbCircle
 10
242.4828481008
 20
674.4491016358
 30
0.0
 40
4.005711623415938
100
AcDbArc
 50
183.0601285597
 51
356.9398714403
  0
ARC
  5
362
330
1F
100
AcDbEntity
  8
SLD-0_0
  6
Continuous
 62
   179
370
    25
100
AcDbCircle
 10
242.4432308858
 20
674.4703042151
 30
0.0
 40
0.8246494401499578
100
AcDbArc
 50
125.2023945103
 51
140.6686802486
  0
ARC
  5
363
330
1F
100
AcDbEntity
  8
SLD-0_0
  6
Continuous
 62
   179
370
    25
100
AcDbCircle
 10
242.5224653159
 20
674.4703042151
 30
0.0
 40
0.8246494401155123
100
AcDbArc
 50
39.3313197546
 51
54.7976054915
  0
ARC
  5
364
330
1F
100
AcDbEntity
  8
SLD-0_0
  6
Continuous
 62
   179
370
    25
100
AcDbCircle
 10
242.4828481008
 20
674.6220129138
 30
0.0
 40
0.9003810974828488
100
AcDbArc
 50
235.1115883984
 51
304.8884116016
  0
ARC
  5
365
330
1F
100
AcDbEntity
  8
SLD-0_0
  6
Continuous
 62
   179
370
    25
100
AcDbCircle
 10
242.4828481008
 20
674.4055890085
 30
0.0
 40
0.9003810974836551
100
AcDbArc
 50
55.1115883951
 51
124.8884115997
  0
ARC
  5
366
330
1F
100
AcDbEntity
  8
SLD-0_0
  6
Continuous
 62
   179
370
    25
100
AcDbCircle
 10
184.4828479072
 20
747.3340169614
 30
0.0
 40
73.9324815043106
100
AcDbArc
 50
269.6008849916
 51
270.3991150085
  0
ARC
  5
367
330
1F
100
AcDbEntity
  8
SLD-0_0
  6
Continuous
 62
   179
370
    25
100
AcDbCircle
 10
184.5292872125
 20
675.3924354514
 30
0.0
 40
0.977020697784936
100
AcDbArc
 50
298.6580463725
 51
327.2128732938
  0
ARC
  5
368
330
1F
100
AcDbEntity
  8
SLD-0_0
  6
Continuous
 62
   179
370
    25
100
AcDbCircle
 10
184.5420075693
 20
658.3539286883
 30
0.0
 40
16.52922355531159
100
AcDbArc
 50
83.3107501305
 51
87.1958328495
  0
ARC
  5
369
330
1F
100
AcDbEntity
  8
SLD-0_0
  6
Continuous
 62
   179
370
    25
100
AcDbCircle
 10
174.0286020459
 20
675.2497991149
 30
0.0
 40
12.44802795505896
100
AcDbArc
 50
357.793935152
 51
2.2060648476
  0
ARC
  5
36A
330
1F
100
AcDbEntity
  8
SLD-0_0
  6
Continuous
 62
   179
370
    25
100
AcDbCircle
 10
184.5403322271
 20
659.2920909037
 30
0.0
 40
16.54945753644939
100
AcDbArc
 50
83.3131260648
 51
87.1934569202
  0
ARC
  5
36B
330
1F
100
AcDbEntity
  8
SLD-0_0
  6
Continuous
 62
   179
370
    25
100
AcDbCircle
 10
184.5292872125
 20
675.2926226304
 30
0.0
 40
0.977020697793084
100
AcDbArc
 50
32.7871267049
 51
61.3419536243
  0
ARC
  5
36C
330
1F
100
AcDbEntity
  8
SLD-0_0
  6
Continuous
 62
   179
370
    25
100
AcDbCircle
 10
184.4828479071
 20
668.4692169882
 30
0.0
 40
8.642410097942859
100
AcDbArc
 50
86.5837289416
 51
93.416271058
  0
ARC
  5
36D
330
1F
100
AcDbEntity
  8
SLD-0_0
  6
Continuous
 62
   179
370
    25
100
AcDbCircle
 10
184.4364086018
 20
675.2926226304
 30
0.0
 40
0.9770206977849498
100
AcDbArc
 50
118.6580463724
 51
147.2128732938
  0
ARC
  5
36E
330
1F
100
AcDbEntity
  8
SLD-0_0
  6
Continuous
 62
   179
370
    25
100
AcDbCircle
 10
184.425363588
 20
659.2920909038
 30
0.0
 40
16.54945753640792
100
AcDbArc
 50
92.806543083
 51
96.6868739381
  0
ARC
  5
36F
330
1F
100
AcDbEntity
  8
SLD-0_0
  6
Continuous
 62
   179
370
    25
100
AcDbCircle
 10
194.9370937684
 20
675.2497991154
 30
0.0
 40
12.44802795506655
100
AcDbArc
 50
177.7939351548
 51
182.2060648505
  0
ARC
  5
370
330
1F
100
AcDbEntity
  8
SLD-0_0
  6
Continuous
 62
   179
370
    25
100
AcDbCircle
 10
184.4236882451
 20
658.3539286882
 30
0.0
 40
16.52922355533202
100
AcDbArc
 50
92.8041671504
 51
96.6892498696
  0
ARC
  5
371
330
1F
100
AcDbEntity
  8
SLD-0_0
  6
Continuous
 62
   179
370
    25
100
AcDbCircle
 10
184.4364086019
 20
675.3924354514
 30
0.0
 40
0.9770206977856718
100
AcDbArc
 50
212.7871267089
 51
241.3419536275
  0
ARC
  5
372
330
1F
100
AcDbEntity
  8
SLD-0_0
  6
Continuous
 62
   179
370
    25
100
AcDbCircle
 10
184.4828479071
 20
674.4509164692
 30
0.0
 40
4.005808916239496
100
AcDbArc
 50
183.086049423
 51
356.913950577
  0
ARC
  5
373
330
1F
100
AcDbEntity
  8
SLD-0_0
  6
Continuous
 62
   179
370
    25
100
AcDbCircle
 10
184.4432306921
 20
674.4703042151
 30
0.0
 40
0.8246494401601031
100
AcDbArc
 50
125.2023945104
 51
140.6686802486
  0
ARC
  5
374
330
1F
100
AcDbEntity
  8
SLD-0_0
  6
Continuous
 62
   179
370
    25
100
AcDbCircle
 10
184.5224651222
 20
674.4703042151
 30
0.0
 40
0.8246494401200924
100
AcDbArc
 50
39.3313197553
 51
54.7976054947
  0
ARC
  5
375
330
1F
100
AcDbEntity
  8
SLD-0_0
  6
Continuous
 62
   179
370
    25
100
AcDbCircle
 10
184.4828479071
 20
674.6220129138
 30
0.0
 40
0.900381097482865
100
AcDbArc
 50
235.1115883984
 51
304.8884116016
  0
ARC
  5
376
330
1F
100
AcDbEntity
  8
SLD-0_0
  6
Continuous
 62
   179
370
    25
100
AcDbCircle
 10
184.4828479071
 20
674.4055890085
 30
0.0
 40
0.9003810974968717
100
AcDbArc
 50
55.111588398
 51
124.8884115999
  0
ARC
  5
377
330
1F
100
AcDbEntity
  8
SLD-0_0
  6
Continuous
 62
   179
370
    25
100
AcDbCircle
 10
193.2819899901
 20
667.1104236412
 30
0.0
 40
4.99914209038433
100
AcDbArc
 50
89.99015718
 51
179.9903094227
  0
ARC
  5
378
330
1F
100
AcDbEntity
  8
SLD-0_0
  6
Continuous
 62
   179
370
    25
100
AcDbCircle
 10
234.6837061818
 20
667.1104236412
 30
0.0
 40
4.99914209038433
100
AcDbArc
 50
0.0096905773
 51
90.00984282
  0
ARC
  5
379
330
1F
100
AcDbEntity
  8
SLD-0_0
  6
Continuous
 62
   179
370
    25
100
AcDbCircle
 10
184.2914361508
 20
587.5739761403
 30
0.0
 40
5.512426936394605
100
AcDbArc
 50
182.1387335
 51
271.9899300983
  0
ARC
  5
37A
330
1F
100
AcDbEntity
  8
SLD-0_0
  6
Continuous
 62
   179
370
    25
100
AcDbCircle
 10
243.6742554836
 20
587.5739829519
 30
0.0
 40
5.51243358628107
100
AcDbArc
 50
268.0101194937
 51
357.8611982329
  0
ARC
  5
37B
330
1F
100
AcDbEntity
  8
SLD-0_0
  6
Continuous
 62
   179
370
    25
100
AcDbCircle
 10
242.482848004
 20
223.4887727528
 30
0.0
 40
6.499999999999981
100
AcDbArc
 50
59.9457950223
 51
120.0542049777
  0
ARC
  5
37C
330
1F
100
AcDbEntity
  8
SLD-0_0
  6
Continuous
 62
   179
370
    25
100
AcDbCircle
 10
184.482848004
 20
223.4887727528
 30
0.0
 40
6.499999999999996
100
AcDbArc
 50
59.9457950223
 51
120.0542049777
  0
CIRCLE
  5
37D
330
1F
100
AcDbEntity
  8
SLD-0_0
  6
Continuous
 62
   179
370
    25
100
AcDbCircle
 10
213.482848004
 20
123.5154283816
 30
0.0
 40
10.55269119346985
  0
CIRCLE
  5
37E
330
1F
100
AcDbEntity
  8
SLD-0_0
  6
Continuous
 62
   179
370
    25
100
AcDbCircle
 10
213.482848004
 20
123.5154283816
 30
0.0
 40
26.9526911934698
  0
CIRCLE
  5
37F
330
1F
100
AcDbEntity
  8
SLD-0_0
  6
Continuous
 62
   179
370
    25
100
AcDbCircle
 10
213.482848004
 20
123.5154283816
 30
0.0
 40
43.94730880655351
  0
CIRCLE
  5
380
330
1F
100
AcDbEntity
  8
SLD-0_0
  6
Continuous
 62
   179
370
    25
100
AcDbCircle
 10
213.482848004
 20
123.5154283816
 30
0.0
 40
66.50000000001165
  0
ARC
  5
381
330
1F
100
AcDbEntity
  8
SLD-0_0
  6
Continuous
 62
   179
370
    25
100
AcDbCircle
 10
160.9828476762
 20
117.5154283816
 30
0.0
 40
14.00000032785002
100
AcDbArc
 50
180.0000002132
 51
200.7767014572
  0
ARC
  5
382
330
1F
100
AcDbEntity
  8
SLD-0_0
  6
Continuous
 62
   179
370
    25
100
AcDbCircle
 10
160.982848004
 20
129.5154283816
 30
0.0
 40
14.0
100
AcDbArc
 50
159.2232985428
 51
180.0
  0
CIRCLE
  5
383
330
1F
100
AcDbEntity
  8
SLD-0_0
  6
Continuous
 62
   179
370
    25
100
AcDbCircle
 10
213.482848004
 20
123.5154283816
 30
0.0
 40
67.50000000001171
  0
CIRCLE
  5
384
330
1F
100
AcDbEntity
  8
SLD-0_0
  6
Continuous
 62
   179
370
    25
100
AcDbCircle
 10
270.0513904989
 20
66.9468858867
 30
0.0
 40
5.0
  0
CIRCLE
  5
385
330
1F
100
AcDbEntity
  8
SLD-0_0
  6
Continuous
 62
   179
370
    25
100
AcDbCircle
 10
156.9143055091
 20
180.0839708765
 30
0.0
 40
5.0
  0
ARC
  5
386
330
1F
100
AcDbEntity
  8
SLD-0_0
  6
Continuous
 62
   179
370
    25
100
AcDbCircle
 10
213.482848004
 20
123.5154283816
 30
0.0
 40
90.0000007098257
100
AcDbArc
 50
33.5573097619
 51
56.4426913086
  0
ARC
  5
387
330
1F
100
AcDbEntity
  8
SLD-0_0
  6
Continuous
 62
   179
370
    25
100
AcDbCircle
 10
213.482848004
 20
123.5154283816
 30
0.0
 40
90.0000000000055
100
AcDbArc
 50
303.5573097619
 51
326.4426919187
  0
ARC
  5
388
330
1F
100
AcDbEntity
  8
SLD-0_0
  6
Continuous
 62
   179
370
    25
100
AcDbCircle
 10
213.482848004
 20
123.5154283816
 30
0.0
 40
90.00000182526603
100
AcDbArc
 50
123.5573097619
 51
146.4426919187
  0
ARC
  5
389
330
1F
100
AcDbEntity
  8
SLD-0_0
  6
Continuous
 62
   179
370
    25
100
AcDbCircle
 10
213.482848004
 20
123.5154283816
 30
0.0
 40
90.00000182520218
100
AcDbArc
 50
213.5573080813
 51
236.4426919186
  0
ARC
  5
38A
330
1F
100
AcDbEntity
  8
SLD-0_0
  6
Continuous
 62
   179
370
    25
100
AcDbCircle
 10
130.4828475569
 20
105.5154283816
 30
0.0
 40
2.000000447050078
100
AcDbArc
 50
179.9999778008
 51
269.9999999992
  0
ARC
  5
38B
330
1F
100
AcDbEntity
  8
SLD-0_0
  6
Continuous
 62
   179
370
    25
100
AcDbCircle
 10
130.4828475569
 20
141.5154283816
 30
0.0
 40
2.000000447050078
100
AcDbArc
 50
90.0000000008
 51
180.0000221964
  0
ARC
  5
38C
330
1F
100
AcDbEntity
  8
SLD-0_0
  6
Continuous
 62
   179
370
    25
100
AcDbCircle
 10
154.1919541722
 20
105.3883827874
 30
0.0
 40
4.39499895433582
100
AcDbArc
 50
150.0000013581
 51
209.9999986419
  0
ARC
  5
38D
330
1F
100
AcDbEntity
  8
SLD-0_0
  6
Continuous
 62
   179
370
    25
100
AcDbCircle
 10
154.1919541722
 20
105.3883827874
 30
0.0
 40
4.39499895433582
100
AcDbArc
 50
209.9999986419
 51
270.000019474
  0
ARC
  5
38E
330
1F
100
AcDbEntity
  8
SLD-0_0
  6
Continuous
 62
   179
370
    25
100
AcDbCircle
 10
154.1919541722
 20
105.3883827874
 30
0.0
 40
4.394998954335803
100
AcDbArc
 50
330.0000151802
 51
29.9999870473
  0
ARC
  5
38F
330
1F
100
AcDbEntity
  8
SLD-0_0
  6
Continuous
 62
   179
370
    25
100
AcDbCircle
 10
154.1919541722
 20
105.3883827874
 30
0.0
 40
4.39499895433582
100
AcDbArc
 50
89.999980526
 51
150.0000013581
  0
ARC
  5
390
330
1F
100
AcDbEntity
  8
SLD-0_0
  6
Continuous
 62
   179
370
    25
100
AcDbCircle
 10
154.1919541722
 20
105.3883827874
 30
0.0
 40
4.394998954335817
100
AcDbArc
 50
270.000019474
 51
330.0000151802
  0
ARC
  5
391
330
1F
100
AcDbEntity
  8
SLD-0_0
  6
Continuous
 62
   179
370
    25
100
AcDbCircle
 10
154.1919541722
 20
105.3883827874
 30
0.0
 40
4.394998954335817
100
AcDbArc
 50
29.9999870473
 51
89.999980526
  0
ARC
  5
392
330
1F
100
AcDbEntity
  8
SLD-0_0
  6
Continuous
 62
   179
370
    25
100
AcDbCircle
 10
195.3558010757
 20
182.8063217575
 30
0.0
 40
4.394999465914866
100
AcDbArc
 50
149.9999911886
 51
210.0000088114
  0
ARC
  5
393
330
1F
100
AcDbEntity
  8
SLD-0_0
  6
Continuous
 62
   179
370
    25
100
AcDbCircle
 10
195.3558010757
 20
182.8063217575
 30
0.0
 40
4.394999465914852
100
AcDbArc
 50
210.0000088114
 51
269.9999891444
  0
ARC
  5
394
330
1F
100
AcDbEntity
  8
SLD-0_0
  6
Continuous
 62
   179
370
    25
100
AcDbCircle
 10
195.3558010757
 20
182.8063217575
 30
0.0
 40
4.394999465914866
100
AcDbArc
 50
90.0000108556
 51
149.9999911886
  0
ARC
  5
395
330
1F
100
AcDbEntity
  8
SLD-0_0
  6
Continuous
 62
   179
370
    25
100
AcDbCircle
 10
195.3558010757
 20
182.8063217575
 30
0.0
 40
4.394999465914831
100
AcDbArc
 50
329.9999775922
 51
29.9999886778
  0
ARC
  5
396
330
1F
100
AcDbEntity
  8
SLD-0_0
  6
Continuous
 62
   179
370
    25
100
AcDbCircle
 10
195.3558010757
 20
182.8063217575
 30
0.0
 40
4.394999465914844
100
AcDbArc
 50
269.9999891444
 51
329.9999775922
  0
ARC
  5
397
330
1F
100
AcDbEntity
  8
SLD-0_0
  6
Continuous
 62
   179
370
    25
100
AcDbCircle
 10
195.3558010757
 20
182.8063217575
 30
0.0
 40
4.394999465914844
100
AcDbArc
 50
29.9999886778
 51
90.0000108556
  0
ARC
  5
398
330
1F
100
AcDbEntity
  8
SLD-0_0
  6
Continuous
 62
   179
370
    25
100
AcDbCircle
 10
231.6098932648
 20
64.2245350058
 30
0.0
 40
4.394999526133557
100
AcDbArc
 50
149.9999916426
 51
210.0000083574
  0
ARC
  5
399
330
1F
100
AcDbEntity
  8
SLD-0_0
  6
Continuous
 62
   179
370
    25
100
AcDbCircle
 10
231.6098932648
 20
64.2245350058
 30
0.0
 40
4.394999526133575
100
AcDbArc
 50
210.0000083574
 51
270.0000108556
  0
ARC
  5
39A
330
1F
100
AcDbEntity
  8
SLD-0_0
  6
Continuous
 62
   179
370
    25
100
AcDbCircle
 10
231.6098932648
 20
64.2245350058
 30
0.0
 40
4.394999526133581
100
AcDbArc
 50
270.0000108556
 51
330.0000161084
  0
ARC
  5
39B
330
1F
100
AcDbEntity
  8
SLD-0_0
  6
Continuous
 62
   179
370
    25
100
AcDbCircle
 10
231.6098932648
 20
64.2245350058
 30
0.0
 40
4.394999526133581
100
AcDbArc
 50
330.0000161084
 51
30.0000176227
  0
ARC
  5
39C
330
1F
100
AcDbEntity
  8
SLD-0_0
  6
Continuous
 62
   179
370
    25
100
AcDbCircle
 10
231.6098932648
 20
64.2245350058
 30
0.0
 40
4.394999526133568
100
AcDbArc
 50
30.0000176227
 51
89.9999891444
  0
ARC
  5
39D
330
1F
100
AcDbEntity
  8
SLD-0_0
  6
Continuous
 62
   179
370
    25
100
AcDbCircle
 10
231.6098932648
 20
64.2245350058
 30
0.0
 40
4.394999526133568
100
AcDbArc
 50
89.9999891444
 51
149.9999916426
  0
ARC
  5
39E
330
1F
100
AcDbEntity
  8
SLD-0_0
  6
Continuous
 62
   179
370
    25
100
AcDbCircle
 10
272.7737422469
 20
141.6424739757
 30
0.0
 40
4.395000100072892
100
AcDbArc
 50
150.0000099817
 51
209.9999900183
  0
ARC
  5
39F
330
1F
100
AcDbEntity
  8
SLD-0_0
  6
Continuous
 62
   179
370
    25
100
AcDbCircle
 10
272.7737422469
 20
141.6424739757
 30
0.0
 40
4.395000100072876
100
AcDbArc
 50
269.999980526
 51
329.9999934787
  0
ARC
  5
3A0
330
1F
100
AcDbEntity
  8
SLD-0_0
  6
Continuous
 62
   179
370
    25
100
AcDbCircle
 10
272.7737422469
 20
141.6424739757
 30
0.0
 40
4.395000100072892
100
AcDbArc
 50
209.9999900183
 51
269.999980526
  0
ARC
  5
3A1
330
1F
100
AcDbEntity
  8
SLD-0_0
  6
Continuous
 62
   179
370
    25
100
AcDbCircle
 10
272.7737422469
 20
141.6424739757
 30
0.0
 40
4.395000100072859
100
AcDbArc
 50
329.9999934787
 51
30.0000042938
  0
ARC
  5
3A2
330
1F
100
AcDbEntity
  8
SLD-0_0
  6
Continuous
 62
   179
370
    25
100
AcDbCircle
 10
272.7737422469
 20
141.6424739757
 30
0.0
 40
4.395000100072892
100
AcDbArc
 50
90.000019474
 51
150.0000099817
  0
ARC
  5
3A3
330
1F
100
AcDbEntity
  8
SLD-0_0
  6
Continuous
 62
   179
370
    25
100
AcDbCircle
 10
272.7737422469
 20
141.6424739757
 30
0.0
 40
4.395000100072876
100
AcDbArc
 50
30.0000042938
 51
90.000019474
  0
ARC
  5
3A4
330
1F
100
AcDbEntity
  8
SLD-0_0
  6
Continuous
 62
   179
370
    25
100
AcDbCircle
 10
213.482848004
 20
159.6631470385
 30
0.0
 40
45.33668818751217
100
AcDbArc
 50
85.5723505067
 51
94.4276494935
  0
ARC
  5
3A5
330
1F
100
AcDbEntity
  8
SLD-0_0
  6
Continuous
 62
   179
370
    25
100
AcDbCircle
 10
224.4786463776
 20
202.2463767798
 30
0.0
 40
2.6646872779515
100
AcDbArc
 50
90.2457418405
 51
100.723087793
  0
ARC
  5
3A6
330
1F
100
AcDbEntity
  8
SLD-0_0
  6
Continuous
 62
   179
370
    25
100
AcDbCircle
 10
213.1411059906
 20
194.8443417245
 30
0.0
 40
13.04279403265672
100
AcDbArc
 50
90.6952297612
 51
92.3037487586
  0
ARC
  5
3A7
330
1F
100
AcDbEntity
  8
SLD-0_0
  6
Continuous
 62
   179
370
    25
100
AcDbCircle
 10
213.8245900174
 20
194.8443417245
 30
0.0
 40
13.04279403265627
100
AcDbArc
 50
87.6962512415
 51
89.3047702389
  0
ARC
  5
3A8
330
1F
100
AcDbEntity
  8
SLD-0_0
  6
Continuous
 62
   179
370
    25
100
AcDbCircle
 10
241.225790101
 20
225.2881898938
 30
0.0
 40
3.399493718123664
100
AcDbArc
 50
236.1491555628
 51
257.3764283331
  0
ARC
  5
3A9
330
1F
100
AcDbEntity
  8
SLD-0_0
  6
Continuous
 62
   179
370
    25
100
AcDbCircle
 10
238.1346145003
 20
220.777229176
 30
0.0
 40
2.069418641181779
100
AcDbArc
 50
54.6417409104
 51
69.7660557585
  0
ARC
  5
3AA
330
1F
100
AcDbEntity
  8
SLD-0_0
  6
Continuous
 62
   179
370
    25
100
AcDbCircle
 10
188.8310815077
 20
220.777229176
 30
0.0
 40
2.069418641213518
100
AcDbArc
 50
110.2339442415
 51
125.3582590889
  0
ARC
  5
3AB
330
1F
100
AcDbEntity
  8
SLD-0_0
  6
Continuous
 62
   179
370
    25
100
AcDbCircle
 10
185.739905907
 20
225.2881898938
 30
0.0
 40
3.399493718091582
100
AcDbArc
 50
282.6235716669
 51
303.8508444376
  0
ARC
  5
3AC
330
1F
100
AcDbEntity
  8
SLD-0_0
  6
Continuous
 62
   179
370
    25
100
AcDbCircle
 10
185.9930683605
 20
226.1309728597
 30
0.0
 40
4.592436447629763
100
AcDbArc
 50
280.188727371
 51
303.588756983
  0
ARC
  5
3AD
330
1F
100
AcDbEntity
  8
SLD-0_0
  6
Continuous
 62
   179
370
    25
100
AcDbCircle
 10
189.8986901201
 20
219.8715649003
 30
0.0
 40
2.79040335505167
100
AcDbArc
 50
86.6023263683
 51
119.2854606342
  0
ARC
  5
3AE
330
1F
100
AcDbEntity
  8
SLD-0_0
  6
Continuous
 62
   179
370
    25
100
AcDbCircle
 10
237.0670058878
 20
219.8715649003
 30
0.0
 40
2.790403355057807
100
AcDbArc
 50
60.7145393654
 51
93.3976736309
  0
ARC
  5
3AF
330
1F
100
AcDbEntity
  8
SLD-0_0
  6
Continuous
 62
   179
370
    25
100
AcDbCircle
 10
240.9726276474
 20
226.1309728597
 30
0.0
 40
4.59243644761903
100
AcDbArc
 50
236.4112430173
 51
259.8112726294
  0
ARC
  5
3B0
330
1F
100
AcDbEntity
  8
SLD-0_0
  6
Continuous
 62
   179
370
    25
100
AcDbCircle
 10
213.482848004
 20
205.4974015549
 30
0.0
 40
10.99871425411943
100
AcDbArc
 50
320.5949393747
 51
219.4050606253
  0
ARC
  5
3B1
330
1F
100
AcDbEntity
  8
SLD-0_0
  6
Continuous
 62
   179
370
    25
100
AcDbCircle
 10
213.4808237424
 20
205.4638703803
 30
0.0
 40
10.99797581735124
100
AcDbArc
 50
89.9894542733
 51
179.9909055672
  0
ARC
  5
3B2
330
1F
100
AcDbEntity
  8
SLD-0_0
  6
Continuous
 62
   179
370
    25
100
AcDbCircle
 10
213.4847123305
 20
205.4637103903
 30
0.0
 40
10.99813577904836
100
AcDbArc
 50
0.0099277826
 51
90.0097123769
  0
SPLINE
  5
3B3
330
1F
100
AcDbEntity
  8
SLD-0_0
  6
Continuous
 62
   179
370
    25
100
AcDbSpline
210
0.0
220
0.0
230
1.0
 70
     8
 71
     3
 72
    15
 73
    11
 74
     0
 42
0.000000001
 43
0.00000001
 40
0.0
 40
0.0
 40
0.0
 40
0.0
 40
0.1260912589997263
 40
0.2917156392837351
 40
0.424334471179526
 40
0.5127534446861838
 40
0.5954664215435561
 40
0.7063603872668628
 40
0.8890202460179463
 40
0.9999999999999999
 40
0.9999999999999999
 40
0.9999999999999999
 40
0.9999999999999999
 10
275.8756825779619
 20
557.6721680883445
 30
0.0
 10
275.7563946564986
 20
557.7053315871899
 30
0.0
 10
275.4804187280753
 20
557.7820562653582
 30
0.0
 10
275.117970268685
 20
557.981868967837
 30
0.0
 10
274.8292411458507
 20
558.1907274746243
 30
0.0
 10
274.6707377016464
 20
558.332906045072
 30
0.0
 10
274.5816220950049
 20
558.4229572412765
 30
0.0
 10
274.5316838433384
 20
558.4795139377908
 30
0.0
 10
274.4983595590869
 20
558.5210158261413
 30
0.0
 10
274.4920423537762
 20
558.5351610550539
 30
0.0
 10
274.4896547948065
 20
558.5405071798839
 30
0.0
  0
SPLINE
  5
3B4
330
1F
100
AcDbEntity
  8
SLD-0_0
  6
Continuous
 62
   179
370
    25
100
AcDbSpline
210
0.0
220
0.0
230
1.0
 70
     8
 71
     3
 72
    13
 73
     9
 74
     0
 42
0.000000001
 43
0.00000001
 40
0.0
 40
0.0
 40
0.0
 40
0.0
 40
0.009569626244438
 40
0.2482812888787728
 40
0.5929970301014766
 40
0.8179330327794956
 40
0.9713853781163675
 40
0.9999999999999999
 40
0.9999999999999999
 40
0.9999999999999999
 40
0.9999999999999999
 10
166.4321037088576
 20
659.7953950587787
 30
0.0
 10
166.4318767321714
 20
659.7943741983154
 30
0.0
 10
166.4259878852343
 20
659.7678882577844
 30
0.0
 10
166.3747048373558
 20
659.6693254511712
 30
0.0
 10
166.2562989553658
 20
659.5767739698421
 30
0.0
 10
166.1612663197861
 20
659.5481559270924
 30
0.0
 10
166.1256153731537
 20
659.5471877617186
 30
0.0
 10
166.1302490626479
 20
659.5470449491843
 30
0.0
 10
166.130977318162
 20
659.5470225039996
 30
0.0
  0
SPLINE
  5
3B5
330
1F
100
AcDbEntity
  8
SLD-0_0
  6
Continuous
 62
   179
370
    25
100
AcDbSpline
210
0.0
220
0.0
230
1.0
 70
     8
 71
     3
 72
    12
 73
     8
 74
     0
 42
0.000000001
 43
0.00000001
 40
0.0
 40
0.0
 40
0.0
 40
0.0
 40
0.0766815268876902
 40
0.2569686186225958
 40
0.526393930561163
 40
0.865641348449492
 40
0.9999999999999999
 40
0.9999999999999999
 40
0.9999999999999999
 40
0.9999999999999999
 10
260.8309635971728
 20
659.5475738469638
 30
0.0
 10
260.8286943636398
 20
659.5476311635347
 30
0.0
 10
260.8210899010005
 20
659.5478232379575
 30
0.0
 10
260.7625287558856
 20
659.5579727560482
 30
0.0
 10
260.6527319388758
 20
659.6114881268451
 30
0.0
 10
260.5619376190086
 20
659.7146784116221
 30
0.0
 10
260.5444243072136
 20
659.772356482694
 30
0.0
 10
260.5394559060278
 20
659.7887193385639
 30
0.0
  0
SPLINE
  5
3B6
330
1F
100
AcDbEntity
  8
SLD-0_0
  6
Continuous
 62
   179
370
    25
100
AcDbSpline
210
0.0
220
0.0
230
1.0
 70
     8
 71
     3
 72
     9
 73
     5
 74
     0
 42
0.000000001
 43
0.00000001
 40
0.0
 40
0.0
 40
0.0
 40
0.0
 40
0.9960055356832955
 40
1.0
 40
1.0
 40
1.0
 40
1.0
 10
166.4458463047686
 20
659.8669653359927
 30
0.0
 10
166.4492485365342
 20
659.8481332332194
 30
0.0
 10
166.4526644128961
 20
659.8292256045983
 30
0.0
 10
166.4321150121897
 20
659.7943868316024
 30
0.0
 10
166.4320329283419
 20
659.7942476693668
 30
0.0
  0
SPLINE
  5
3B7
330
1F
100
AcDbEntity
  8
SLD-0_0
  6
Continuous
 62
   179
370
    25
100
AcDbSpline
210
0.0
220
0.0
230
1.0
 70
     8
 71
     3
 72
     9
 73
     5
 74
     0
 42
0.000000001
 43
0.00000001
 40
0.0
 40
0.0
 40
0.0
 40
0.0
 40
0.452552780046142
 40
0.9999999999999999
 40
0.9999999999999999
 40
0.9999999999999999
 40
0.9999999999999999
 10
260.5425329958144
 20
659.7866033736743
 30
0.0
 10
260.5348478000934
 20
659.8040394243823
 30
0.0
 10
260.5178659229294
 20
659.8425676391598
 30
0.0
 10
260.5200001042966
 20
659.8547326179091
 30
0.0
 10
260.5211684559526
 20
659.8613923017062
 30
0.0
  0
SPLINE
  5
3B8
330
1F
100
AcDbEntity
  8
SLD-0_0
  6
Continuous
 62
   179
370
    25
100
AcDbSpline
210
0.0
220
0.0
230
1.0
 70
     8
 71
     3
 72
    11
 73
     7
 74
     0
 42
0.000000001
 43
0.00000001
 40
0.0
 40
0.0
 40
0.0
 40
0.0
 40
0.2596615625381776
 40
0.5451960331305071
 40
0.8642745539404956
 40
1.0
 40
1.0
 40
1.0
 40
1.0
 10
267.0649500642958
 20
657.5556611243762
 30
0.0
 10
267.0454432859718
 20
657.5526951866152
 30
0.0
 10
267.0044860566559
 20
657.5464677824277
 30
0.0
 10
266.9741044469031
 20
657.5467098655789
 30
0.0
 10
266.9560490307486
 20
657.5502992401679
 30
0.0
 10
266.9614282669721
 20
657.5483922188305
 30
0.0
 10
266.9630335723105
 20
657.5478231135883
 30
0.0
  0
SPLINE
  5
3B9
330
1F
100
AcDbEntity
  8
SLD-0_0
  6
Continuous
 62
   179
370
    25
100
AcDbSpline
210
0.0
220
0.0
230
1.0
 70
     8
 71
     3
 72
    13
 73
     9
 74
     0
 42
0.000000001
 43
0.00000001
 40
0.0
 40
0.0
 40
0.0
 40
0.0
 40
0.1081041977537623
 40
0.2870343402798123
 40
0.466458214937818
 40
0.64565361080978
 40
0.8241152703532421
 40
1.0
 40
1.0
 40
1.0
 40
1.0
 10
184.4828488384472
 20
679.964295548537
 30
0.0
 10
184.2107130616806
 20
679.9532309545136
 30
0.0
 10
183.488148029297
 20
679.923852646252
 30
0.0
 10
182.3427697659528
 20
679.6206458187032
 30
0.0
 10
181.1400586642643
 20
679.0005008192635
 30
0.0
 10
180.1303771385422
 20
678.1191322270955
 30
0.0
 10
179.3475130900672
 20
677.0434087534364
 30
0.0
 10
179.0762608702788
 20
676.2183021785495
 30
0.0
 10
178.9416210805165
 20
675.808749121764
 30
0.0
  0
SPLINE
  5
3BA
330
1F
100
AcDbEntity
  8
SLD-0_0
  6
Continuous
 62
   179
370
    25
100
AcDbSpline
210
0.0
220
0.0
230
1.0
 70
     8
 71
     3
 72
    14
 73
    10
 74
     0
 42
0.000000001
 43
0.00000001
 40
0.0
 40
0.0
 40
0.0
 40
0.0
 40
0.0945614463334769
 40
0.2430282858935427
 40
0.3915205135393574
 40
0.5404009692671761
 40
0.6900594727990339
 40
0.8406516145749389
 40
1.0
 40
1.0
 40
1.0
 40
1.0
 10
249.1828488265263
 20
674.5426272574451
 30
0.0
 10
249.170186376496
 20
674.8130406732635
 30
0.0
 10
249.1376431609956
 20
675.5080185048964
 30
0.0
 10
248.8122547124312
 20
676.5966482304921
 30
0.0
 10
248.1686256528557
 20
677.7182340345871
 30
0.0
 10
247.2653117978874
 20
678.6666648752679
 30
0.0
 10
246.1556126807632
 20
679.384762429225
 30
0.0
 10
244.8735078531263
 20
679.8694187813506
 30
0.0
 10
243.9550500693692
 20
679.9320798723113
 30
0.0
 10
243.48284733343
 20
679.964295548537
 30
0.0
  0
SPLINE
  5
3BB
330
1F
100
AcDbEntity
  8
SLD-0_0
  6
Continuous
 62
   179
370
    25
100
AcDbSpline
210
0.0
220
0.0
230
1.0
 70
     8
 71
     3
 72
    12
 73
     8
 74
     0
 42
0.000000001
 43
0.00000001
 40
0.0
 40
0.0
 40
0.0
 40
0.0
 40
0.249999999999992
 40
0.249999999999992
 40
0.4999999999999839
 40
0.4999999999999839
 40
1.0
 40
1.0
 40
1.0
 40
1.0
 10
147.8932680252687
 20
276.5947482981051
 30
0.0
 10
147.8932680252687
 20
276.6983583351912
 30
0.0
 10
147.9086791568548
 20
276.7954606156925
 30
0.0
 10
147.9542964640693
 20
276.9581253376323
 30
0.0
 10
147.9829157142576
 20
277.0240923017759
 30
0.0
 10
148.0769804191683
 20
277.2028547031827
 30
0.0
 10
148.1487482321687
 20
277.2928656590796
 30
0.0
 10
148.2259039056573
 20
277.3740510552337
 30
0.0
  0
SPLINE
  5
3BC
330
1F
100
AcDbEntity
  8
SLD-0_0
  6
Continuous
 62
   179
370
    25
100
AcDbSpline
210
0.0
220
0.0
230
1.0
 70
     8
 71
     3
 72
    14
 73
    10
 74
     0
 42
0.000000001
 43
0.00000001
 40
0.0
 40
0.0
 40
0.0
 40
0.0
 40
0.25
 40
0.25
 40
0.5
 40
0.5
 40
0.75
 40
0.75
 40
1.0
 40
1.0
 40
1.0
 40
1.0
 10
148.2259039056573
 20
277.3740510552337
 30
0.0
 10
148.284081519754
 20
277.4352671970169
 30
0.0
 10
148.342856202365
 20
277.503845267886
 30
0.0
 10
148.4577179356993
 20
277.659514424094
 30
0.0
 10
148.5141109493228
 20
277.7465823669103
 30
0.0
 10
148.6200849984353
 20
277.9510382709711
 30
0.0
 10
148.669717090596
 20
278.0689159736425
 30
0.0
 10
148.7437675722825
 20
278.3396485162982
 30
0.0
 10
148.7666785584212
 20
278.4902405505634
 30
0.0
 10
148.7666785584213
 20
278.6470781747396
 30
0.0
  0
SPLINE
  5
3BD
330
1F
100
AcDbEntity
  8
SLD-0_0
  6
Continuous
 62
   179
370
    25
100
AcDbSpline
210
0.0
220
0.0
230
1.0
 70
     8
 71
     3
 72
    32
 73
    28
 74
     0
 42
0.000000001
 43
0.00000001
 40
0.0
 40
0.0
 40
0.0
 40
0.0
 40
0.0624999999999979
 40
0.0624999999999979
 40
0.1249999999999957
 40
0.1249999999999957
 40
0.1874999999999936
 40
0.1874999999999936
 40
0.2499999999999915
 40
0.2499999999999915
 40
0.3124999999999893
 40
0.3124999999999893
 40
0.3749999999999872
 40
0.3749999999999872
 40
0.4999999999999853
 40
0.4999999999999853
 40
0.5624999999999852
 40
0.5624999999999852
 40
0.624999999999985
 40
0.624999999999985
 40
0.6874999999999849
 40
0.6874999999999849
 40
0.7499999999999848
 40
0.7499999999999848
 40
0.8749999999999923
 40
0.8749999999999923
 40
1.0
 40
1.0
 40
1.0
 40
1.0
 10
197.1821035542795
 20
277.6470781747379
 30
0.0
 10
197.1459854414379
 20
277.517506421034
 30
0.0
 10
197.1018724521545
 20
277.3939975487577
 30
0.0
 10
196.994523592279
 20
277.1591651767226
 30
0.0
 10
196.9306429807265
 20
277.0469673605317
 30
0.0
 10
196.7816467488885
 20
276.8396172923657
 30
0.0
 10
196.6977055559087
 20
276.7457615493531
 30
0.0
 10
196.5089617846425
 20
276.5762822756283
 30
0.0
 10
196.4026314005449
 20
276.4998950385306
 30
0.0
 10
196.1752004913903
 20
276.3691138642984
 30
0.0
 10
196.0544581471051
 20
276.31438043066
 30
0.0
 10
195.7994044748559
 20
276.2223337796563
 30
0.0
 10
195.6647750730972
 20
276.1851920249695
 30
0.0
 10
195.2593368372276
 20
276.0994526903514
 30
0.0
 10
194.9770717296788
 20
276.073384171104
 30
0.0
 10
194.5761197108981
 20
276.0731832498228
 30
0.0
 10
194.443663315009
 20
276.0797723539281
 30
0.0
 10
194.1919776275821
 20
276.1068968316542
 30
0.0
 10
194.0728412210094
 20
276.1272310058338
 30
0.0
 10
193.8477071132583
 20
276.1841050304475
 30
0.0
 10
193.7412276812285
 20
276.2211506666627
 30
0.0
 10
193.5506719743231
 20
276.3124559384417
 30
0.0
 10
193.4653086109542
 20
276.3669091009563
 30
0.0
 10
193.2371218444923
 20
276.5632149695521
 30
0.0
 10
193.1295204883118
 20
276.734431778036
 30
0.0
 10
192.9830728383407
 20
277.149184331403
 30
0.0
 10
192.9439445114155
 20
277.3877430536794
 30
0.0
 10
192.9200921773768
 20
277.6470781747379
 30
0.0
  0
SPLINE
  5
3BE
330
1F
100
AcDbEntity
  8
SLD-0_0
  6
Continuous
 62
   179
370
    25
100
AcDbSpline
210
0.0
220
0.0
230
1.0
 70
     8
 71
     3
 72
    14
 73
    10
 74
     0
 42
0.000000001
 43
0.00000001
 40
0.0
 40
0.0
 40
0.0
 40
0.0
 40
0.0040894423964997
 40
0.1718843654457123
 40
0.3377324863709555
 40
0.5035806465573806
 40
0.674368216093678
 40
0.8451558887271163
 40
1.0
 40
1.0
 40
1.0
 40
1.0
 10
229.225398004501
 20
275.6866284732085
 30
0.0
 10
229.2685841968429
 20
275.6865589965976
 30
0.0
 10
231.083753735131
 20
275.6836388079702
 30
0.0
 10
234.5518668900581
 20
275.6772538649643
 30
0.0
 10
239.5731923826371
 20
275.6682155956664
 30
0.0
 10
244.4273022280721
 20
275.6597251908986
 30
0.0
 10
249.0978262231107
 20
275.6528029558281
 30
0.0
 10
253.4292235334255
 20
275.6480225124334
 30
0.0
 10
256.0358669443988
 20
275.6473842820809
 30
0.0
 10
257.2753755007674
 20
275.6470807914001
 30
0.0
  0
SPLINE
  5
3BF
330
1F
100
AcDbEntity
  8
SLD-0_0
  6
Continuous
 62
   179
370
    25
100
AcDbSpline
210
0.0
220
0.0
230
1.0
 70
     8
 71
     3
 72
    22
 73
    18
 74
     0
 42
0.000000001
 43
0.00000001
 40
0.0
 40
0.0
 40
0.0
 40
0.0
 40
0.125
 40
0.125
 40
0.25
 40
0.25
 40
0.375
 40
0.375
 40
0.5
 40
0.5
 40
0.625
 40
0.625
 40
0.75
 40
0.75
 40
0.875
 40
0.875
 40
1.0
 40
1.0
 40
1.0
 40
1.0
 10
273.3948274680957
 20
275.6470781747378
 30
0.0
 10
273.2401017883853
 20
275.6470781747378
 30
0.0
 10
273.0841895930992
 20
275.6563890061029
 30
0.0
 10
272.7706198320487
 20
275.6986827715112
 30
0.0
 10
272.611310258087
 20
275.7324498256141
 30
0.0
 10
272.3093087242261
 20
275.8242409500815
 30
0.0
 10
272.1639853165686
 20
275.8825782275533
 30
0.0
 10
271.8886199204014
 20
276.024023356466
 30
0.0
 10
271.7620443406322
 20
276.1051632033145
 30
0.0
 10
271.5280965330808
 20
276.2875228591677
 30
0.0
 10
271.4209533120222
 20
276.3889898947456
 30
0.0
 10
271.2307071253371
 20
276.6042155464142
 30
0.0
 10
271.1463964808231
 20
276.7188399687155
 30
0.0
 10
270.9963662768569
 20
276.9626314191498
 30
0.0
 10
270.930626650027
 20
277.0922576698231
 30
0.0
 10
270.8188532355358
 20
277.360909591647
 30
0.0
 10
270.7722823928752
 20
277.5006597139588
 30
0.0
 10
270.7341944774611
 20
277.647078174737
 30
0.0
  0
SPLINE
  5
3C0
330
1F
100
AcDbEntity
  8
SLD-0_0
  6
Continuous
 62
   179
370
    25
100
AcDbSpline
210
0.0
220
0.0
230
1.0
 70
     8
 71
     3
 72
     9
 73
     5
 74
     0
 42
0.000000001
 43
0.00000001
 40
0.0
 40
0.0
 40
0.0
 40
0.0
 40
0.756268645455151
 40
1.0
 40
1.0
 40
1.0
 40
1.0
 10
271.7032792125883
 20
277.6470845166721
 30
0.0
 10
271.8975730134013
 20
277.2661060603293
 30
0.0
 10
272.1544841017831
 20
276.7623453152127
 30
0.0
 10
272.6123073821111
 20
276.4284565683408
 30
0.0
 10
272.7238932703676
 20
276.3470774117984
 30
0.0
  0
SPLINE
  5
3C1
330
1F
100
AcDbEntity
  8
SLD-0_0
  6
Continuous
 62
   179
370
    25
100
AcDbSpline
210
0.0
220
0.0
230
1.0
 70
     8
 71
     3
 72
    30
 73
    26
 74
     0
 42
0.000000001
 43
0.00000001
 40
0.0
 40
0.0
 40
0.0
 40
0.0
 40
0.0312500000000025
 40
0.0312500000000025
 40
0.0625000000000051
 40
0.0625000000000051
 40
0.1250000000000049
 40
0.1250000000000049
 40
0.1875000000000048
 40
0.1875000000000048
 40
0.2500000000000047
 40
0.2500000000000047
 40
0.3750000000000042
 40
0.3750000000000042
 40
0.5000000000000031
 40
0.5000000000000031
 40
0.6250000000000019
 40
0.6250000000000019
 40
0.7500000000000007
 40
0.7500000000000007
 40
0.8125000000000006
 40
0.8125000000000006
 40
0.8750000000000004
 40
0.8750000000000004
 40
1.0
 40
1.0
 40
1.0
 40
1.0
 10
148.7666785584213
 20
279.6470781747379
 30
0.0
 10
148.7666785584213
 20
279.8220862293325
 30
0.0
 10
148.7770886908998
 20
279.9931623345365
 30
0.0
 10
148.8161066779199
 20
280.3286031415335
 30
0.0
 10
148.8451149708819
 20
280.4943546416682
 30
0.0
 10
148.9520134398742
 20
280.9672112652362
 30
0.0
 10
149.0494294305394
 20
281.2562936515549
 30
0.0
 10
149.2775236114934
 20
281.8030231394167
 30
0.0
 10
149.4061154054849
 20
282.055219964235
 30
0.0
 10
149.6859936014357
 20
282.5364022994838
 30
0.0
 10
149.8374331964892
 20
282.7649949779491
 30
0.0
 10
150.323106206813
 20
283.4268712378612
 30
0.0
 10
150.6911108663737
 20
283.8390360442465
 30
0.0
 10
151.4912924527445
 20
284.6061174121286
 30
0.0
 10
151.9243561739459
 20
284.9622448718725
 30
0.0
 10
152.8596904011047
 20
285.6265920259378
 30
0.0
 10
153.361883876879
 20
285.934689106427
 30
0.0
 10
154.4466871223063
 20
286.4978093682657
 30
0.0
 10
155.018195500612
 20
286.7467440074781
 30
0.0
 10
155.916933175288
 20
287.0614686011575
 30
0.0
 10
156.2238060860022
 20
287.1566898903959
 30
0.0
 10
156.8535011660549
 20
287.3253682223389
 30
0.0
 10
157.1780491619473
 20
287.3991163184857
 30
0.0
 10
158.1635928575407
 20
287.5796814989682
 30
0.0
 10
158.8352548967682
 20
287.6470781747382
 30
0.0
 10
159.5236144426771
 20
287.6470781747382
 30
0.0
  0
SPLINE
  5
3C2
330
1F
100
AcDbEntity
  8
SLD-0_0
  6
Continuous
 62
   179
370
    25
100
AcDbSpline
210
0.0
220
0.0
230
1.0
 70
     8
 71
     3
 72
    22
 73
    18
 74
     0
 42
0.000000001
 43
0.00000001
 40
0.0
 40
0.0
 40
0.0
 40
0.0
 40
0.125
 40
0.125
 40
0.25
 40
0.25
 40
0.375
 40
0.375
 40
0.5
 40
0.5
 40
0.625
 40
0.625
 40
0.75
 40
0.75
 40
0.875
 40
0.875
 40
1.0
 40
1.0
 40
1.0
 40
1.0
 10
272.3262662966645
 20
282.7221643360137
 30
0.0
 10
272.1743582936166
 20
283.0860591210763
 30
0.0
 10
271.9962575829744
 20
283.4373092755935
 30
0.0
 10
271.5872518547068
 20
284.1143175109817
 30
0.0
 10
271.3588474945192
 20
284.4355305977786
 30
0.0
 10
270.860946665982
 20
285.0376916644657
 30
0.0
 10
270.5907301112887
 20
285.3198339848616
 30
0.0
 10
270.0071257112514
 20
285.8456714896452
 30
0.0
 10
269.692405390513
 20
286.0896373033713
 30
0.0
 10
269.0397741067713
 20
286.5228248039048
 30
0.0
 10
268.69960377317
 20
286.7143718597137
 30
0.0
 10
267.9916880258796
 20
287.0476112807412
 30
0.0
 10
267.6209842169243
 20
287.1900871980794
 30
0.0
 10
266.8668661259568
 20
287.4176196807298
 30
0.0
 10
266.4842930798558
 20
287.5030011571311
 30
0.0
 10
265.7082704460822
 20
287.6177631095686
 30
0.0
 10
265.3131515818562
 20
287.6470781747379
 30
0.0
 10
264.917214228334
 20
287.6470781747379
 30
0.0
  0
SPLINE
  5
3C3
330
1F
100
AcDbEntity
  8
SLD-0_0
  6
Continuous
 62
   179
370
    25
100
AcDbSpline
210
0.0
220
0.0
230
1.0
 70
     8
 71
     3
 72
    12
 73
     8
 74
     0
 42
0.000000001
 43
0.00000001
 40
0.0
 40
0.0
 40
0.0
 40
0.0
 40
0.5000000000000054
 40
0.5000000000000054
 40
0.7500000000000027
 40
0.7500000000000027
 40
1.0
 40
1.0
 40
1.0
 40
1.0
 10
272.4828480039784
 20
282.480049281939
 30
0.0
 10
272.4828480039784
 20
282.4593030527177
 30
0.0
 10
272.4734845026224
 20
282.4599435127892
 30
0.0
 10
272.4375452811764
 20
282.5131527258872
 30
0.0
 10
272.4217575886584
 20
282.5399817690998
 30
0.0
 10
272.3815011601158
 20
282.6141586695679
 30
0.0
 10
272.3562579049745
 20
282.6631054746067
 30
0.0
 10
272.3262662966645
 20
282.7221643360137
 30
0.0
  0
SPLINE
  5
3C4
330
1F
100
AcDbEntity
  8
SLD-0_0
  6
Continuous
 62
   179
370
    25
100
AcDbSpline
210
0.0
220
0.0
230
1.0
 70
     8
 71
     3
 72
     8
 73
     4
 74
     0
 42
0.000000001
 43
0.00000001
 40
0.0
 40
0.0
 40
0.0
 40
0.0
 40
1.0
 40
1.0
 40
1.0
 40
1.0
 10
158.3862715698137
 20
545.5470793966758
 30
0.0
 10
158.5421172596449
 20
545.5470793966758
 30
0.0
 10
158.6957878018943
 20
545.5332318924711
 30
0.0
 10
158.8473734399324
 20
545.5061113947122
 30
0.0
  0
SPLINE
  5
3C5
330
1F
100
AcDbEntity
  8
SLD-0_0
  6
Continuous
 62
   179
370
    25
100
AcDbSpline
210
0.0
220
0.0
230
1.0
 70
     8
 71
     3
 72
    18
 73
    14
 74
     0
 42
0.000000001
 43
0.00000001
 40
0.0
 40
0.0
 40
0.0
 40
0.0
 40
0.1249999999999988
 40
0.1249999999999988
 40
0.2499999999999977
 40
0.2499999999999977
 40
0.3749999999999965
 40
0.3749999999999965
 40
0.4999999999999953
 40
0.4999999999999953
 40
0.7499999999999977
 40
0.7499999999999977
 40
1.0
 40
1.0
 40
1.0
 40
1.0
 10
143.4828480039778
 20
555.5470781747379
 30
0.0
 10
143.4828480039778
 20
555.6797268833495
 30
0.0
 10
143.495913971538
 20
555.8101269847608
 30
0.0
 10
143.5470846291189
 20
556.0666180502785
 30
0.0
 10
143.5858315274731
 20
556.1940624988757
 30
0.0
 10
143.6867670800954
 20
556.4366587178458
 30
0.0
 10
143.7485010381991
 20
556.5516591996648
 30
0.0
 10
143.8942706954572
 20
556.7691929681197
 30
0.0
 10
143.9789373657255
 20
556.871935691253
 30
0.0
 10
144.2559986793759
 20
557.1479589705446
 30
0.0
 10
144.4789111922423
 20
557.2962174216373
 30
0.0
 10
144.9586773410383
 20
557.49454379526
 30
0.0
 10
145.223655402991
 20
557.547078174738
 30
0.0
 10
145.4828480039778
 20
557.547078174738
 30
0.0
  0
SPLINE
  5
3C6
330
1F
100
AcDbEntity
  8
SLD-0_0
  6
Continuous
 62
   179
370
    25
100
AcDbSpline
210
0.0
220
0.0
230
1.0
 70
     8
 71
     3
 72
    22
 73
    18
 74
     0
 42
0.000000001
 43
0.00000001
 40
0.0
 40
0.0
 40
0.0
 40
0.0
 40
0.125
 40
0.125
 40
0.25
 40
0.25
 40
0.375
 40
0.375
 40
0.5
 40
0.5
 40
0.625
 40
0.625
 40
0.75
 40
0.75
 40
0.875
 40
0.875
 40
1.0
 40
1.0
 40
1.0
 40
1.0
 10
143.7960495977922
 20
542.5470793966758
 30
0.0
 10
143.7960495977922
 20
542.7500187241428
 30
0.0
 10
143.8018894375296
 20
542.9493204099721
 30
0.0
 10
143.8248312390992
 20
543.3409719760614
 30
0.0
 10
143.8422525296521
 20
543.5354283075336
 30
0.0
 10
143.8876001997476
 20
543.9029503216443
 30
0.0
 10
143.9154128476041
 20
544.0767577850438
 30
0.0
 10
143.9816184201645
 20
544.4047002143537
 30
0.0
 10
144.019943821867
 20
544.5575761641751
 30
0.0
 10
144.1042945378857
 20
544.8309041039804
 30
0.0
 10
144.1509166561432
 20
544.9536872785392
 30
0.0
 10
144.2520763770677
 20
545.1674621458133
 30
0.0
 10
144.3055463876864
 20
545.256450926696
 30
0.0
 10
144.4183458940792
 20
545.4005068949972
 30
0.0
 10
144.4782370735557
 20
545.4557578604055
 30
0.0
 10
144.600788706854
 20
545.5287731780982
 30
0.0
 10
144.6635478598685
 20
545.5470793966758
 30
0.0
 10
144.7278491034289
 20
545.5470793966758
 30
0.0
  0
SPLINE
  5
3C7
330
1F
100
AcDbEntity
  8
SLD-0_0
  6
Continuous
 62
   179
370
    25
100
AcDbSpline
210
0.0
220
0.0
230
1.0
 70
     8
 71
     3
 72
    12
 73
     8
 74
     0
 42
0.000000001
 43
0.00000001
 40
0.0
 40
0.0
 40
0.0
 40
0.0
 40
0.2499999999999986
 40
0.2499999999999986
 40
0.4999999999999972
 40
0.4999999999999972
 40
1.0
 40
1.0
 40
1.0
 40
1.0
 10
143.4828480039778
 20
551.7073918688682
 30
0.0
 10
143.5314909731472
 20
551.4862169881604
 30
0.0
 10
143.5752309952563
 20
551.252309943413
 30
0.0
 10
143.6523142074994
 20
550.7595944444913
 30
0.0
 10
143.6857651616601
 20
550.4997672768934
 30
0.0
 10
143.7677765033687
 20
549.6868847493714
 30
0.0
 10
143.7960486801461
 20
549.1264578050069
 30
0.0
 10
143.7960486801461
 20
548.5470781747379
 30
0.0
  0
SPLINE
  5
3C8
330
1F
100
AcDbEntity
  8
SLD-0_0
  6
Continuous
 62
   179
370
    25
100
AcDbSpline
210
0.0
220
0.0
230
1.0
 70
     8
 71
     3
 72
    20
 73
    16
 74
     0
 42
0.000000001
 43
0.00000001
 40
0.0
 40
0.0
 40
0.0
 40
0.0
 40
0.1250000000000005
 40
0.1250000000000005
 40
0.2500000000000011
 40
0.2500000000000011
 40
0.3750000000000016
 40
0.3750000000000016
 40
0.5000000000000021
 40
0.5000000000000021
 40
0.7500000000000006
 40
0.7500000000000006
 40
0.8750000000000003
 40
0.8750000000000003
 40
1.0
 40
1.0
 40
1.0
 40
1.0
 10
158.8473734399324
 20
545.5061113947122
 30
0.0
 10
159.0470052771469
 20
545.470394852803
 30
0.0
 10
159.2463018262489
 20
545.4133778907884
 30
0.0
 10
159.6442027137724
 20
545.2638794254016
 30
0.0
 10
159.8432154048865
 20
545.1705903956511
 30
0.0
 10
160.2218601735537
 20
544.9623863222525
 30
0.0
 10
160.405707992071
 20
544.8454086477193
 30
0.0
 10
160.7537060952556
 20
544.5969227221037
 30
0.0
 10
160.9173520349786
 20
544.4660737079009
 30
0.0
 10
161.382774134494
 20
544.057260807392
 30
0.0
 10
161.6605641819912
 20
543.7607228015886
 30
0.0
 10
162.01646560657
 20
543.312239931272
 30
0.0
 10
162.125892444926
 20
543.16118039479
 30
0.0
 10
162.3273791210547
 20
542.8562119286116
 30
0.0
 10
162.4201805017277
 20
542.7009059206755
 30
0.0
 10
162.5026467925556
 20
542.5470793966758
 30
0.0
  0
SPLINE
  5
3C9
330
1F
100
AcDbEntity
  8
SLD-0_0
  6
Continuous
 62
   179
370
    25
100
AcDbSpline
210
0.0
220
0.0
230
1.0
 70
     8
 71
     3
 72
    10
 73
     6
 74
     0
 42
0.000000001
 43
0.00000001
 40
0.0
 40
0.0
 40
0.0
 40
0.0
 40
0.5
 40
0.5
 40
1.0
 40
1.0
 40
1.0
 40
1.0
 10
151.539783695708
 20
545.5470781747379
 30
0.0
 10
151.7055799977449
 20
545.5470781747379
 30
0.0
 10
151.8737078376071
 20
545.5466359645983
 30
0.0
 10
152.2147279553096
 20
545.5466344614007
 30
0.0
 10
152.3846139378856
 20
545.5470781747379
 30
0.0
 10
152.5499344882461
 20
545.5470781747379
 30
0.0
  0
SPLINE
  5
3CA
330
1F
100
AcDbEntity
  8
SLD-0_0
  6
Continuous
 62
   179
370
    25
100
AcDbSpline
210
0.0
220
0.0
230
1.0
 70
     8
 71
     3
 72
    18
 73
    14
 74
     0
 42
0.000000001
 43
0.00000001
 40
0.0
 40
0.0
 40
0.0
 40
0.0
 40
0.1249999999999985
 40
0.1249999999999985
 40
0.249999999999997
 40
0.249999999999997
 40
0.3749999999999955
 40
0.3749999999999955
 40
0.499999999999994
 40
0.499999999999994
 40
0.749999999999997
 40
0.749999999999997
 40
1.0
 40
1.0
 40
1.0
 40
1.0
 10
183.4828476687156
 20
289.6470770555869
 30
0.0
 10
183.4828476687156
 20
289.4330984850591
 30
0.0
 10
183.5158564548562
 20
289.2444198047551
 30
0.0
 10
183.6168505619135
 20
288.9059683628478
 30
0.0
 10
183.6832984901363
 20
288.7619457956232
 30
0.0
 10
183.8329196879546
 20
288.5070892259181
 30
0.0
 10
183.9163843996998
 20
288.3968879785215
 30
0.0
 10
184.0907415921717
 20
288.2052654960414
 30
0.0
 10
184.1823032804556
 20
288.1230480189549
 30
0.0
 10
184.4662996224339
 20
287.9084135139759
 30
0.0
 10
184.6651859245192
 20
287.8095342200229
 30
0.0
 10
185.0694599659726
 20
287.6787668646679
 30
0.0
 10
185.2774377509834
 20
287.6470770555869
 30
0.0
 10
185.4828476687156
 20
287.6470770555869
 30
0.0
  0
SPLINE
  5
3CB
330
1F
100
AcDbEntity
  8
SLD-0_0
  6
Continuous
 62
   179
370
    25
100
AcDbSpline
210
0.0
220
0.0
230
1.0
 70
     8
 71
     3
 72
    18
 73
    14
 74
     0
 42
0.000000001
 43
0.00000001
 40
0.0
 40
0.0
 40
0.0
 40
0.0
 40
0.1249999999999986
 40
0.1249999999999986
 40
0.2499999999999972
 40
0.2499999999999972
 40
0.3749999999999958
 40
0.3749999999999958
 40
0.4999999999999944
 40
0.4999999999999944
 40
0.7499999999999972
 40
0.7499999999999972
 40
1.0
 40
1.0
 40
1.0
 40
1.0
 10
243.482848004028
 20
289.647076720338
 30
0.0
 10
243.482848004028
 20
289.4330981498103
 30
0.0
 10
243.4498392178874
 20
289.2444194695062
 30
0.0
 10
243.3488451108301
 20
288.9059680275989
 30
0.0
 10
243.2823971826073
 20
288.7619454603743
 30
0.0
 10
243.1327759847889
 20
288.5070888906694
 30
0.0
 10
243.0493112730438
 20
288.3968876432726
 30
0.0
 10
242.8749540805719
 20
288.2052651607926
 30
0.0
 10
242.783392392288
 20
288.123047683706
 30
0.0
 10
242.4993960503097
 20
287.908413178727
 30
0.0
 10
242.3005097482243
 20
287.809533884774
 30
0.0
 10
241.8962357067711
 20
287.678766529419
 30
0.0
 10
241.6882579217601
 20
287.647076720338
 30
0.0
 10
241.482848004028
 20
287.647076720338
 30
0.0
  0
SPLINE
  5
3CC
330
1F
100
AcDbEntity
  8
SLD-0_0
  6
Continuous
 62
   179
370
    25
100
AcDbSpline
210
0.0
220
0.0
230
1.0
 70
    24
 71
     3
 72
    19
 73
    15
 74
     0
 42
0.000000001
 43
0.00000001
 40
0.0
 40
0.0
 40
0.0
 40
0.0
 40
0.2499999999999999
 40
0.2499999999999999
 40
0.3749999999999998
 40
0.3749999999999998
 40
0.4999999999999998
 40
0.6249999999999998
 40
0.6249999999999998
 40
0.7499999999999999
 40
0.7499999999999999
 40
0.8749999999999999
 40
0.8749999999999999
 40
1.0
 40
1.0
 40
1.0
 40
1.0
 10
272.4828480039778
 20
289.1418341410257
 30
0.0
 10
272.4828480039778
 20
288.4859108115617
 30
0.0
 10
272.4828480039779
 20
287.8469021154108
 30
0.0
 10
272.482848003978
 20
286.9091393677532
 30
0.0
 10
272.4828480039781
 20
286.5981642187062
 30
0.0
 10
272.4828480039781
 20
285.9957720489891
 30
0.0
 10
272.4828480039782
 20
285.4115192521125
 30
0.0
 10
272.4828480039782
 20
284.8601036850721
 30
0.0
 10
272.4828480039782
 20
284.3245341700502
 30
0.0
 10
272.4828480039782
 20
284.063664611731
 30
0.0
 10
272.4828480039783
 20
283.56361182426
 30
0.0
 10
272.4828480039783
 20
283.325285444412
 30
0.0
 10
272.4828480039783
 20
282.876916977261
 30
0.0
 10
272.4828480039784
 20
282.6654598811993
 30
0.0
 10
272.4828480039784
 20
282.480049281939
 30
0.0
  0
SPLINE
  5
3CD
330
1F
100
AcDbEntity
  8
SLD-0_0
  6
Continuous
 62
   179
370
    25
100
AcDbSpline
210
0.0
220
0.0
230
1.0
 70
     8
 71
     3
 72
    12
 73
     8
 74
     0
 42
0.000000001
 43
0.00000001
 40
0.0
 40
0.0
 40
0.0
 40
0.0
 40
0.2172470157338524
 40
0.4345302332775672
 40
0.6508321730927276
 40
0.8651891531191294
 40
1.0
 40
1.0
 40
1.0
 40
1.0
 10
156.9868657293994
 20
567.5470778709845
 30
0.0
 10
156.8812724342856
 20
567.5582792880905
 30
0.0
 10
156.6700682481044
 20
567.5806839888945
 30
0.0
 10
156.3888869021681
 20
567.755618877653
 30
0.0
 10
156.1780842287316
 20
568.0126260700746
 30
0.0
 10
156.0692403875295
 20
568.2932929383505
 30
0.0
 10
156.0584446876535
 20
568.4763855932259
 30
0.0
 10
156.0542765560824
 20
568.5470761722521
 30
0.0
  0
SPLINE
  5
3CE
330
1F
100
AcDbEntity
  8
SLD-0_0
  6
Continuous
 62
   179
370
    25
100
AcDbSpline
210
0.0
220
0.0
230
1.0
 70
     8
 71
     3
 72
    16
 73
    12
 74
     0
 42
0.000000001
 43
0.00000001
 40
0.0
 40
0.0
 40
0.0
 40
0.0
 40
0.7378250629578857
 40
0.790716473108237
 40
0.8205012981178335
 40
0.8403244026460881
 40
0.8552210306304492
 40
0.8701746392434584
 40
0.8882888038463296
 40
0.9196029913642654
 40
0.9999999999999999
 40
0.9999999999999999
 40
0.9999999999999999
 40
0.9999999999999999
 10
163.6043745579824
 20
571.5470785266443
 30
0.0
 10
163.6182284053498
 20
571.7111957343946
 30
0.0
 10
163.6330753736615
 20
571.8870777777184
 30
0.0
 10
163.6917837823824
 20
572.0449951193852
 30
0.0
 10
163.7017861405247
 20
572.0619662697262
 30
0.0
 10
163.7097245550513
 20
572.0699068782366
 30
0.0
 10
163.7168608434782
 20
572.0727278562157
 30
0.0
 10
163.7239652949544
 20
572.071460735818
 30
0.0
 10
163.7324116108668
 20
572.0647521445152
 30
0.0
 10
163.7456674582795
 20
572.0437807183739
 30
0.0
 10
163.7526774287029
 20
572.0214303586464
 30
0.0
 10
163.7577224078283
 20
572.0053451127096
 30
0.0
  0
SPLINE
  5
3CF
330
1F
100
AcDbEntity
  8
SLD-0_0
  6
Continuous
 62
   179
370
    25
100
AcDbSpline
210
0.0
220
0.0
230
1.0
 70
     8
 71
     3
 72
    16
 73
    12
 74
     0
 42
0.000000001
 43
0.00000001
 40
0.0
 40
0.0
 40
0.0
 40
0.0
 40
0.0956446225888204
 40
0.1148885092518258
 40
0.134340995585804
 40
0.1484569558210425
 40
0.1625319478738766
 40
0.1864034215802695
 40
0.2489337997266713
 40
0.4978743239698096
 40
1.0
 40
1.0
 40
1.0
 40
1.0
 10
169.3278740915972
 20
572.0053454010898
 30
0.0
 10
169.3346460046857
 20
572.0248531613809
 30
0.0
 10
169.3427804400409
 20
572.048285921509
 30
0.0
 10
169.3597624360209
 20
572.0675673919445
 30
0.0
 10
169.3679621000063
 20
572.0722784542443
 30
0.0
 10
169.3759661273506
 20
572.0723089093511
 30
0.0
 10
169.3841787038012
 20
572.068490067347
 30
0.0
 10
169.3974237107774
 20
572.0546557190106
 30
0.0
 10
169.4271167264879
 20
571.9911571687996
 30
0.0
 10
169.4645078073532
 20
571.817905507046
 30
0.0
 10
169.4864830422373
 20
571.6555929527154
 30
0.0
 10
169.5011745962816
 20
571.5470788150245
 30
0.0
  0
SPLINE
  5
3D0
330
1F
100
AcDbEntity
  8
SLD-0_0
  6
Continuous
 62
   179
370
    25
100
AcDbSpline
210
0.0
220
0.0
230
1.0
 70
     8
 71
     3
 72
    12
 73
     8
 74
     0
 42
0.000000001
 43
0.00000001
 40
0.0
 40
0.0
 40
0.0
 40
0.0
 40
0.2145882914254053
 40
0.4291751634884255
 40
0.6438282211104542
 40
0.8585684572758179
 40
1.0
 40
1.0
 40
1.0
 40
1.0
 10
191.4972789141576
 20
568.5470761722521
 30
0.0
 10
191.4869667925261
 20
568.4346917531882
 30
0.0
 10
191.466342617471
 20
568.2099236584104
 30
0.0
 10
191.3056371583114
 20
567.9103339338013
 30
0.0
 10
191.0694529891926
 20
567.6841560514582
 30
0.0
 10
190.808060138118
 20
567.5641920189374
 30
0.0
 10
190.6356563416024
 20
567.5519421478939
 30
0.0
 10
190.5671968612115
 20
567.5470778709845
 30
0.0
  0
SPLINE
  5
3D1
330
1F
100
AcDbEntity
  8
SLD-0_0
  6
Continuous
 62
   179
370
    25
100
AcDbSpline
210
0.0
220
0.0
230
1.0
 70
     8
 71
     3
 72
    26
 73
    22
 74
     0
 42
0.000000001
 43
0.00000001
 40
0.0
 40
0.0
 40
0.0
 40
0.0
 40
0.2491815316655783
 40
0.4972973081772273
 40
0.6633060325404322
 40
0.7743875032120254
 40
0.8487268806557796
 40
0.8984860454378738
 40
0.9318042734382341
 40
0.9541248205272462
 40
0.9690880611883311
 40
0.9791318675097445
 40
0.9858848847056713
 40
0.9904382221589182
 40
0.9935200388580142
 40
0.9956199463417862
 40
0.9970645563401581
 40
0.9985357645100664
 40
0.9991380106720266
 40
0.9996498302393538
 40
1.0
 40
1.0
 40
1.0
 40
1.0
 10
191.7909722599703
 20
571.5470788150245
 30
0.0
 10
191.7863773032235
 20
571.2139525294406
 30
0.0
 10
191.7772070424659
 20
570.5491247470741
 30
0.0
 10
191.7631419099582
 20
569.6625354584087
 30
0.0
 10
191.750241613422
 20
568.9607310484166
 30
0.0
 10
191.7401183950415
 20
568.4913270905681
 30
0.0
 10
191.732140371308
 20
568.1773810557592
 30
0.0
 10
191.7258178825174
 20
567.9674191835833
 30
0.0
 10
191.7207810709465
 20
567.8270117260182
 30
0.0
 10
191.7167464552992
 20
567.7331253345199
 30
0.0
 10
191.7135035345628
 20
567.6703560059996
 30
0.0
 10
191.7108824798814
 20
567.6283955697427
 30
0.0
 10
191.7087541859892
 20
567.6003552241465
 30
0.0
 10
191.7070156800038
 20
567.5816185282208
 30
0.0
 10
191.7055809931883
 20
567.5691219687942
 30
0.0
 10
191.704394193236
 20
567.5607776876572
 30
0.0
 10
191.7032875114781
 20
567.5547029610541
 30
0.0
 10
191.7023028943502
 20
567.5506542537294
 30
0.0
 10
191.7013282584101
 20
567.5482555948468
 30
0.0
 10
191.7006468949241
 20
567.5472397871703
 30
0.0
 10
191.7001953001198
 20
567.5471248505771
 30
0.0
 10
191.7000118467527
 20
567.5470781593734
 30
0.0
  0
SPLINE
  5
3D2
330
1F
100
AcDbEntity
  8
SLD-0_0
  6
Continuous
 62
   179
370
    25
100
AcDbSpline
210
0.0
220
0.0
230
1.0
 70
     8
 71
     3
 72
    12
 73
     8
 74
     0
 42
0.000000001
 43
0.00000001
 40
0.0
 40
0.0
 40
0.0
 40
0.0
 40
0.2153448700116976
 40
0.4306909446782473
 40
0.6459290693009238
 40
0.8606524553579065
 40
1.0
 40
1.0
 40
1.0
 40
1.0
 10
253.7121209653497
 20
567.5470778860066
 30
0.0
 10
253.6271213399151
 20
567.5581789083685
 30
0.0
 10
253.4571216135518
 20
567.5803810151925
 30
0.0
 10
253.2291774937753
 20
567.7534725052873
 30
0.0
 10
253.0567722156931
 20
568.0081052436826
 30
0.0
 10
252.9658030199584
 20
568.2891894909768
 30
0.0
 10
252.9565943002857
 20
568.4742457609307
 30
0.0
 10
252.9529701324582
 20
568.5470761872742
 30
0.0
  0
SPLINE
  5
3D3
330
1F
100
AcDbEntity
  8
SLD-0_0
  6
Continuous
 62
   179
370
    25
100
AcDbSpline
210
0.0
220
0.0
230
1.0
 70
     8
 71
     3
 72
    11
 73
     7
 74
     0
 42
0.000000001
 43
0.00000001
 40
0.0
 40
0.0
 40
0.0
 40
0.0
 40
0.0043759900235513
 40
0.4131428723754046
 40
0.7514582152315462
 40
1.0
 40
1.0
 40
1.0
 40
1.0
 10
161.4085688412155
 20
560.0470757189687
 30
0.0
 10
161.4080212246792
 20
560.0460189324642
 30
0.0
 10
161.3563200399121
 20
559.9462463530914
 30
0.0
 10
161.2622263438481
 20
559.7670005222869
 30
0.0
 10
161.1100897850638
 20
559.5800453337417
 30
0.0
 10
161.0078797679437
 20
559.5568838862137
 30
0.0
 10
160.9645924687351
 20
559.5470747056897
 30
0.0
  0
SPLINE
  5
3D4
330
1F
100
AcDbEntity
  8
SLD-0_0
  6
Continuous
 62
   179
370
    25
100
AcDbSpline
210
0.0
220
0.0
230
1.0
 70
     8
 71
     3
 72
    15
 73
    11
 74
     0
 42
0.000000001
 43
0.00000001
 40
0.0
 40
0.0
 40
0.0
 40
0.0
 40
0.0477622363565126
 40
0.1832828651364314
 40
0.2734777744291191
 40
0.3412572692050899
 40
0.4092960252196342
 40
0.4917152764998781
 40
0.6341944880042484
 40
1.0
 40
1.0
 40
1.0
 40
1.0
 10
257.5632843877144
 20
572.0429262257092
 30
0.0
 10
257.5642809083731
 20
572.0448077958482
 30
0.0
 10
257.5681049579872
 20
572.0520281354376
 30
0.0
 10
257.5747517988147
 20
572.0619634508441
 30
0.0
 10
257.5837129258181
 20
572.0699077749132
 30
0.0
 10
257.59176698083
 20
572.0727281206665
 30
0.0
 10
257.5997781043321
 20
572.0714611594624
 30
0.0
 10
257.6093075054304
 20
572.064752508727
 30
0.0
 10
257.6242415652209
 20
572.043781120592
 30
0.0
 10
257.6321396084262
 20
572.021430750543
 30
0.0
 10
257.6378237212963
 20
572.0053454971779
 30
0.0
  0
SPLINE
  5
3D5
330
1F
100
AcDbEntity
  8
SLD-0_0
  6
Continuous
 62
   179
370
    25
100
AcDbSpline
210
0.0
220
0.0
230
1.0
 70
     8
 71
     3
 72
    16
 73
    12
 74
     0
 42
0.000000001
 43
0.00000001
 40
0.0
 40
0.0
 40
0.0
 40
0.0
 40
0.0956446225888204
 40
0.1148885092518258
 40
0.134340995585804
 40
0.1484569558210425
 40
0.1625319478738766
 40
0.1864034215802695
 40
0.2489337997266713
 40
0.4978743239698096
 40
1.0
 40
1.0
 40
1.0
 40
1.0
 10
263.2079750152955
 20
572.005345485373
 30
0.0
 10
263.2139858175328
 20
572.0248532456641
 30
0.0
 10
263.2212060050329
 20
572.0482860057923
 30
0.0
 10
263.2362762733515
 20
572.0675674762277
 30
0.0
 10
263.2435415191122
 20
572.0722785385275
 30
0.0
 10
263.2506408280635
 20
572.0723089936344
 30
0.0
 10
263.2579141487153
 20
572.0684901516303
 30
0.0
 10
263.2696531409214
 20
572.0546558032938
 30
0.0
 10
263.2959192676398
 20
571.9911572530829
 30
0.0
 10
263.3289878810675
 20
571.8179055913292
 30
0.0
 10
263.3483669674496
 20
571.6555930369987
 30
0.0
 10
263.3613228651414
 20
571.5470788993077
 30
0.0
  0
SPLINE
  5
3D6
330
1F
100
AcDbEntity
  8
SLD-0_0
  6
Continuous
 62
   179
370
    25
100
AcDbSpline
210
0.0
220
0.0
230
1.0
 70
     8
 71
     3
 72
    15
 73
    11
 74
     0
 42
0.000000001
 43
0.00000001
 40
0.0
 40
0.0
 40
0.0
 40
0.0
 40
0.0004701847320052
 40
0.0010634923116519
 40
0.0024843213039978
 40
0.0077510573683238
 40
0.0286323587384287
 40
0.1118824895644471
 40
0.444601844515126
 40
1.0
 40
1.0
 40
1.0
 40
1.0
 10
252.5675508881708
 20
567.5470782554582
 30
0.0
 10
252.5671034985722
 20
567.5471633598995
 30
0.0
 10
252.566091565674
 20
567.5473558542803
 30
0.0
 10
252.5641410959178
 20
567.5493844534351
 30
0.0
 10
252.5601175663481
 20
567.557397257445
 30
0.0
 10
252.5519790036185
 20
567.5929003333932
 30
0.0
 10
252.5349272296193
 20
567.7370599874683
 30
0.0
 10
252.4990115957603
 20
568.320096724088
 30
0.0
 10
252.4531934078471
 20
569.617208461675
 30
0.0
 10
252.4229568196351
 20
570.8045538985683
 30
0.0
 10
252.4040478969713
 20
571.5470789111093
 30
0.0
  0
SPLINE
  5
3D7
330
1F
100
AcDbEntity
  8
SLD-0_0
  6
Continuous
 62
   179
370
    25
100
AcDbSpline
210
0.0
220
0.0
230
1.0
 70
     8
 71
     3
 72
    17
 73
    13
 74
     0
 42
0.000000001
 43
0.00000001
 40
0.4829279767813811
 40
0.4829279767813811
 40
0.4829279767813811
 40
0.4829279767813811
 40
0.5366498804268484
 40
0.5904066336147114
 40
0.644115360850852
 40
0.6977676496346626
 40
0.7514126267809239
 40
0.8050788117412316
 40
0.8587534435794618
 40
0.912423285327531
 40
0.9660955799739827
 40
1.0
 40
1.0
 40
1.0
 40
1.0
 10
170.525333479518
 20
672.4296575013677
 30
0.0
 10
170.6618326516548
 20
672.6440361396283
 30
0.0
 10
170.8839569625052
 20
673.1348709803224
 30
0.0
 10
171.0230691723144
 20
673.9741711453457
 30
0.0
 10
170.9506995180994
 20
674.8216497703912
 30
0.0
 10
170.6764538732601
 20
675.5813181695219
 30
0.0
 10
170.2347203112985
 20
676.1679952868255
 30
0.0
 10
169.6793930433831
 20
676.5156091400912
 30
0.0
 10
169.0752140780306
 20
676.5855941388818
 30
0.0
 10
168.4941953140682
 20
676.3673301781052
 30
0.0
 10
168.0501486634083
 20
675.9531925452453
 30
0.0
 10
167.8512923453877
 20
675.5911701673303
 30
0.0
 10
167.7743071769419
 20
675.451016945032
 30
0.0
  0
SPLINE
  5
3D8
330
1F
100
AcDbEntity
  8
SLD-0_0
  6
Continuous
 62
   179
370
    25
100
AcDbSpline
210
0.0
220
0.0
230
1.0
 70
     8
 71
     3
 72
    16
 73
    12
 74
     0
 42
0.000000001
 43
0.00000001
 40
0.0
 40
0.0
 40
0.0
 40
0.0
 40
0.0536452874627784
 40
0.1072898765738979
 40
0.1609450300474416
 40
0.2146608298468657
 40
0.268418787855856
 40
0.322133062054661
 40
0.3757450147184089
 40
0.4293067653278935
 40
0.4829279767813811
 40
0.4829279767813811
 40
0.4829279767813811
 40
0.4829279767813811
 10
167.7743071769419
 20
675.451016945032
 30
0.0
 10
167.6776862789057
 20
675.2030318485198
 30
0.0
 10
167.4844457406394
 20
674.7070648837527
 30
0.0
 10
167.4254588123644
 20
673.8465635535342
 30
0.0
 10
167.549220438344
 20
673.0199715846275
 30
0.0
 10
167.8583844291758
 20
672.3056105372439
 30
0.0
 10
168.3183962590115
 20
671.7880875390896
 30
0.0
 10
168.8821001139021
 20
671.5253443090584
 30
0.0
 10
169.4873884823013
 20
671.5470174544553
 30
0.0
 10
170.0660274593525
 20
671.8496166288948
 30
0.0
 10
170.3890901508996
 20
672.215680677889
 30
0.0
 10
170.525333479518
 20
672.4296575013677
 30
0.0
  0
SPLINE
  5
3D9
330
1F
100
AcDbEntity
  8
SLD-0_0
  6
Continuous
 62
   179
370
    25
100
AcDbSpline
210
0.0
220
0.0
230
1.0
 70
    24
 71
     3
 72
     9
 73
     5
 74
     0
 42
0.000000001
 43
0.00000001
 40
0.0
 40
0.0
 40
0.0
 40
0.0
 40
0.8971002319833269
 40
0.9999999999999999
 40
0.9999999999999999
 40
0.9999999999999999
 40
0.9999999999999999
 10
252.5585207844874
 20
571.5470789111093
 30
0.0
 10
252.5152174363455
 20
571.5470789111093
 30
0.0
 10
252.466947079703
 20
571.5470789111092
 30
0.0
 10
252.4099163462168
 20
571.5470789111092
 30
0.0
 10
252.4040478969713
 20
571.5470789111092
 30
0.0
  0
SPLINE
  5
3DA
330
1F
100
AcDbEntity
  8
SLD-0_0
  6
Continuous
 62
   179
370
    25
100
AcDbSpline
210
0.0
220
0.0
230
1.0
 70
     8
 71
     3
 72
    11
 73
     7
 74
     0
 42
0.000000001
 43
0.00000001
 40
0.0
 40
0.0
 40
0.0
 40
0.0
 40
0.2282132468751547
 40
0.4548218317711415
 40
0.8026658871051678
 40
1.0
 40
1.0
 40
1.0
 40
1.0
 10
149.4933060526804
 20
572.3857997063565
 30
0.0
 10
149.448072325217
 20
572.364728439408
 30
0.0
 10
149.3579229273866
 20
572.3227340663271
 30
0.0
 10
149.2280485253666
 20
572.1101938791378
 30
0.0
 10
149.1350377086765
 20
571.8417285446347
 30
0.0
 10
149.0945833542954
 20
571.6253849609717
 30
0.0
 10
149.0799403905824
 20
571.5470766726899
 30
0.0
  0
SPLINE
  5
3DB
330
1F
100
AcDbEntity
  8
SLD-0_0
  6
Continuous
 62
   179
370
    25
100
AcDbSpline
210
0.0
220
0.0
230
1.0
 70
     8
 71
     3
 72
    14
 73
    10
 74
     0
 42
0.000000001
 43
0.00000001
 40
0.0
 40
0.0
 40
0.0
 40
0.0
 40
0.0359075157321386
 40
0.0866567387028302
 40
0.1999937327793789
 40
0.4062454019944641
 40
0.740124407930789
 40
0.9953631818321664
 40
1.0
 40
1.0
 40
1.0
 40
1.0
 10
270.3428553496542
 20
657.5470780555286
 30
0.0
 10
270.3234456531793
 20
657.5478637122955
 30
0.0
 10
270.2766036213251
 20
657.5497597625168
 30
0.0
 10
270.1970771989673
 20
657.5709255592742
 30
0.0
 10
270.1143555708705
 20
657.6259889225054
 30
0.0
 10
270.0593195689627
 20
657.7370761022207
 30
0.0
 10
270.0663955804268
 20
657.8783737676163
 30
0.0
 10
270.1057033398994
 20
657.98556482763
 30
0.0
 10
270.1289845469877
 20
658.0326125107966
 30
0.0
 10
270.1293999408426
 20
658.0334519568958
 30
0.0
  0
SPLINE
  5
3DC
330
1F
100
AcDbEntity
  8
SLD-0_0
  6
Continuous
 62
   179
370
    25
100
AcDbSpline
210
0.0
220
0.0
230
1.0
 70
     8
 71
     3
 72
    14
 73
    10
 74
     0
 42
0.000000001
 43
0.00000001
 40
0.0
 40
0.0
 40
0.0
 40
0.0
 40
0.0046362210135007
 40
0.2598753840422727
 40
0.5937546642081399
 40
0.8000061735335202
 40
0.9133441830620986
 40
0.9640922242083685
 40
1.0
 40
1.0
 40
1.0
 40
1.0
 10
156.6694254134837
 20
658.0334519568958
 30
0.0
 10
156.6697973462236
 20
658.0326125096979
 30
0.0
 10
156.6906453953877
 20
657.9855587427702
 30
0.0
 10
156.7243774054519
 20
657.8783774271441
 30
0.0
 10
156.7238854232451
 20
657.7370758592712
 30
0.0
 10
156.6626675003655
 20
657.6259882982832
 30
0.0
 10
156.5766436528325
 20
657.5709261653857
 30
0.0
 10
156.4956570200975
 20
657.5497596106048
 30
0.0
 10
156.4485173700273
 20
657.5478636777211
 30
0.0
 10
156.42898400175
 20
657.5470780555286
 30
0.0
  0
SPLINE
  5
3DD
330
1F
100
AcDbEntity
  8
SLD-0_0
  6
Continuous
 62
   179
370
    25
100
AcDbSpline
210
0.0
220
0.0
230
1.0
 70
     8
 71
     3
 72
     9
 73
     5
 74
     0
 42
0.000000001
 43
0.00000001
 40
0.0
 40
0.0
 40
0.0
 40
0.0
 40
0.0288292751943321
 40
1.0
 40
1.0
 40
1.0
 40
1.0
 10
270.1293999408426
 20
658.0334519568958
 30
0.0
 10
270.1293262480819
 20
658.0309484741864
 30
0.0
 10
270.1267700700222
 20
657.9441102622476
 30
0.0
 10
270.1302435892624
 20
657.8575883513917
 30
0.0
 10
270.1336169694605
 20
657.7735608045139
 30
0.0
  0
SPLINE
  5
3DE
330
1F
100
AcDbEntity
  8
SLD-0_0
  6
Continuous
 62
   179
370
    25
100
AcDbSpline
210
0.0
220
0.0
230
1.0
 70
     8
 71
     3
 72
     9
 73
     5
 74
     0
 42
0.000000001
 43
0.00000001
 40
0.0
 40
0.0
 40
0.0
 40
0.0
 40
0.9679251399493282
 40
1.0
 40
1.0
 40
1.0
 40
1.0
 10
156.6643180404845
 20
657.799861354021
 30
0.0
 10
156.6677833970546
 20
657.8751319712312
 30
0.0
 10
156.67136358774
 20
657.9528968872394
 30
0.0
 10
156.6694856481337
 20
658.0309484635103
 30
0.0
 10
156.6694254134837
 20
658.0334519568958
 30
0.0
  0
SPLINE
  5
3DF
330
1F
100
AcDbEntity
  8
SLD-0_0
  6
Continuous
 62
   179
370
    25
100
AcDbSpline
210
0.0
220
0.0
230
1.0
 70
     8
 71
     3
 72
    14
 73
    10
 74
     0
 42
0.000000001
 43
0.00000001
 40
0.0
 40
0.0
 40
0.0
 40
0.0
 40
0.0046364326381224
 40
0.2598754517225524
 40
0.5937546954162896
 40
0.8000062616304704
 40
0.9133441372352372
 40
0.9640924140441386
 40
1.0
 40
1.0
 40
1.0
 40
1.0
 10
270.9732564245405
 20
658.0334519568958
 30
0.0
 10
270.973376221864
 20
658.0326125100884
 30
0.0
 10
270.9800909497521
 20
657.9855609005235
 30
0.0
 10
271.0095099777927
 20
657.8783760921157
 30
0.0
 10
271.0945004438913
 20
657.7370760175237
 30
0.0
 10
271.2236095764481
 20
657.625988384831
 30
0.0
 10
271.3446800030759
 20
657.57092605597
 30
0.0
 10
271.4403455713658
 20
657.5497596565546
 30
0.0
 10
271.4898250091645
 20
657.5478636879528
 30
0.0
 10
271.5103278015795
 20
657.5470780555286
 30
0.0
  0
SPLINE
  5
3E0
330
1F
100
AcDbEntity
  8
SLD-0_0
  6
Continuous
 62
   179
370
    25
100
AcDbSpline
210
0.0
220
0.0
230
1.0
 70
     8
 71
     3
 72
    11
 73
     7
 74
     0
 42
0.000000001
 43
0.00000001
 40
0.0
 40
0.0
 40
0.0
 40
0.0
 40
0.1420803179113157
 40
0.3428842556972649
 40
0.7913351487642968
 40
1.0
 40
1.0
 40
1.0
 40
1.0
 10
271.5141350482645
 20
657.5470780555286
 30
0.0
 10
271.4936617181631
 20
657.547860021254
 30
0.0
 10
271.4442531677273
 20
657.5497471491803
 30
0.0
 10
271.3506189760481
 20
657.5710408763413
 30
0.0
 10
271.2753327188915
 20
657.6023774817197
 30
0.0
 10
271.2440753502407
 20
657.6304474307457
 30
0.0
 10
271.2341496800127
 20
657.6393609468021
 30
0.0
  0
SPLINE
  5
3E1
330
1F
100
AcDbEntity
  8
SLD-0_0
  6
Continuous
 62
   179
370
    25
100
AcDbSpline
210
0.0
220
0.0
230
1.0
 70
     8
 71
     3
 72
    14
 73
    10
 74
     0
 42
0.000000001
 43
0.00000001
 40
0.0
 40
0.0
 40
0.0
 40
0.0
 40
0.0359078901013073
 40
0.0866569722819106
 40
0.1999937498230144
 40
0.4062452753091534
 40
0.7401245779933199
 40
0.9953635703890129
 40
1.0
 40
1.0
 40
1.0
 40
1.0
 10
155.4515609596911
 20
657.5470780555286
 30
0.0
 10
155.472009270779
 20
657.5478637002299
 30
0.0
 10
155.5213574425082
 20
657.5497597066759
 30
0.0
 10
155.6158611490873
 20
657.5709255741042
 30
0.0
 10
155.7339817739073
 20
657.6259890133132
 30
0.0
 10
155.8572191379791
 20
657.737075798695
 30
0.0
 10
155.934797436426
 20
657.8783761384659
 30
0.0
 10
155.9585800916923
 20
657.9855608747912
 30
0.0
 10
155.9628589453514
 20
658.0326125100815
 30
0.0
 10
155.9629352842512
 20
658.0334519568958
 30
0.0
  0
SPLINE
  5
3E2
330
1F
100
AcDbEntity
  8
SLD-0_0
  6
Continuous
 62
   179
370
    25
100
AcDbSpline
210
0.0
220
0.0
230
1.0
 70
     8
 71
     3
 72
    10
 73
     6
 74
     0
 42
0.000000001
 43
0.00000001
 40
0.0
 40
0.0
 40
0.0
 40
0.0
 40
0.0699834323527492
 40
0.8866216497925465
 40
1.0
 40
1.0
 40
1.0
 40
1.0
 10
241.8053696011248
 20
590.3249671284
 30
0.0
 10
241.8007498208615
 20
590.3442937647168
 30
0.0
 10
241.7422217226964
 20
590.5891433469687
 30
0.0
 10
241.6791350339589
 20
590.8653957031107
 30
0.0
 10
241.6220038021777
 20
591.1223677389004
 30
0.0
 10
241.6150389318409
 20
591.1536952081958
 30
0.0
  0
SPLINE
  5
3E3
330
1F
100
AcDbEntity
  8
SLD-0_0
  6
Continuous
 62
   179
370
    25
100
AcDbSpline
210
0.0
220
0.0
230
1.0
 70
    24
 71
     3
 72
    10
 73
     6
 74
     0
 42
0.000000001
 43
0.00000001
 40
0.0
 40
0.0
 40
0.0
 40
0.0
 40
0.113376795792841
 40
0.9300191124436941
 40
0.9999999999999999
 40
0.9999999999999999
 40
0.9999999999999999
 40
0.9999999999999999
 10
241.9678481375068
 20
591.4819528881444
 30
0.0
 10
241.9678481375068
 20
591.4441481228688
 30
0.0
 10
241.9678481375068
 20
591.1340392156455
 30
0.0
 10
241.9678481375068
 20
590.799091184497
 30
0.0
 10
241.9678481375068
 20
590.4997651198184
 30
0.0
 10
241.9678481375068
 20
590.4761394087209
 30
0.0
  0
SPLINE
  5
3E4
330
1F
100
AcDbEntity
  8
SLD-0_0
  6
Continuous
 62
   179
370
    25
100
AcDbSpline
210
0.0
220
0.0
230
1.0
 70
    24
 71
     3
 72
    10
 73
     6
 74
     0
 42
0.000000001
 43
0.00000001
 40
0.0
 40
0.0
 40
0.0
 40
0.0
 40
0.0699808875563058
 40
0.8866232042071589
 40
0.9999999999999999
 40
0.9999999999999999
 40
0.9999999999999999
 40
0.9999999999999999
 10
242.9978480641931
 20
590.4761394086877
 30
0.0
 10
242.9978480641943
 20
590.4997651197851
 30
0.0
 10
242.9978480642093
 20
590.7990911844639
 30
0.0
 10
242.9978480642261
 20
591.1340392156123
 30
0.0
 10
242.9978480642417
 20
591.4441481228356
 30
0.0
 10
242.9978480642436
 20
591.4819528881112
 30
0.0
  0
SPLINE
  5
3E5
330
1F
100
AcDbEntity
  8
SLD-0_0
  6
Continuous
 62
   179
370
    25
100
AcDbSpline
210
0.0
220
0.0
230
1.0
 70
     8
 71
     3
 72
    10
 73
     6
 74
     0
 42
0.000000001
 43
0.00000001
 40
0.0
 40
0.0
 40
0.0
 40
0.0
 40
0.1133783502074535
 40
0.9300165676472507
 40
1.0
 40
1.0
 40
1.0
 40
1.0
 10
243.3506572698394
 20
591.1536952081666
 30
0.0
 10
243.3436923995027
 20
591.1223677388712
 30
0.0
 10
243.2865611677213
 20
590.8653957030815
 30
0.0
 10
243.2234744789839
 20
590.5891433469396
 30
0.0
 10
243.1649463808187
 20
590.3442937646877
 30
0.0
 10
243.1603266005555
 20
590.3249671283708
 30
0.0
  0
SPLINE
  5
3E6
330
1F
100
AcDbEntity
  8
SLD-0_0
  6
Continuous
 62
   179
370
    25
100
AcDbSpline
210
0.0
220
0.0
230
1.0
 70
     8
 71
     3
 72
    10
 73
     6
 74
     0
 42
0.000000001
 43
0.00000001
 40
0.0
 40
0.0
 40
0.0
 40
0.0
 40
0.0699834323527492
 40
0.8866216497925465
 40
1.0
 40
1.0
 40
1.0
 40
1.0
 10
183.8053694074097
 20
590.3249671284
 30
0.0
 10
183.8007496271465
 20
590.3442937647168
 30
0.0
 10
183.7422215289814
 20
590.5891433469687
 30
0.0
 10
183.6791348402438
 20
590.8653957031107
 30
0.0
 10
183.6220036084626
 20
591.1223677389004
 30
0.0
 10
183.6150387381258
 20
591.1536952081958
 30
0.0
  0
SPLINE
  5
3E7
330
1F
100
AcDbEntity
  8
SLD-0_0
  6
Continuous
 62
   179
370
    25
100
AcDbSpline
210
0.0
220
0.0
230
1.0
 70
    24
 71
     3
 72
    10
 73
     6
 74
     0
 42
0.000000001
 43
0.00000001
 40
0.0
 40
0.0
 40
0.0
 40
0.0
 40
0.113376795792841
 40
0.9300191124436941
 40
0.9999999999999999
 40
0.9999999999999999
 40
0.9999999999999999
 40
0.9999999999999999
 10
183.9678479437917
 20
591.4819528881444
 30
0.0
 10
183.9678479437917
 20
591.4441481228688
 30
0.0
 10
183.9678479437917
 20
591.1340392156455
 30
0.0
 10
183.9678479437918
 20
590.799091184497
 30
0.0
 10
183.9678479437918
 20
590.4997651198184
 30
0.0
 10
183.9678479437918
 20
590.4761394087209
 30
0.0
  0
SPLINE
  5
3E8
330
1F
100
AcDbEntity
  8
SLD-0_0
  6
Continuous
 62
   179
370
    25
100
AcDbSpline
210
0.0
220
0.0
230
1.0
 70
    24
 71
     3
 72
    10
 73
     6
 74
     0
 42
0.000000001
 43
0.00000001
 40
0.0
 40
0.0
 40
0.0
 40
0.0
 40
0.0699808875563058
 40
0.8866232042071589
 40
0.9999999999999999
 40
0.9999999999999999
 40
0.9999999999999999
 40
0.9999999999999999
 10
184.9978478704781
 20
590.4761394087019
 30
0.0
 10
184.9978478704792
 20
590.4997651197993
 30
0.0
 10
184.9978478704943
 20
590.7990911844781
 30
0.0
 10
184.997847870511
 20
591.1340392156266
 30
0.0
 10
184.9978478705266
 20
591.4441481228498
 30
0.0
 10
184.9978478705285
 20
591.4819528881254
 30
0.0
  0
SPLINE
  5
3E9
330
1F
100
AcDbEntity
  8
SLD-0_0
  6
Continuous
 62
   179
370
    25
100
AcDbSpline
210
0.0
220
0.0
230
1.0
 70
     8
 71
     3
 72
    10
 73
     6
 74
     0
 42
0.000000001
 43
0.00000001
 40
0.0
 40
0.0
 40
0.0
 40
0.0
 40
0.1133783502074535
 40
0.9300165676472507
 40
1.0
 40
1.0
 40
1.0
 40
1.0
 10
185.3506570761264
 20
591.153695208183
 30
0.0
 10
185.3436922057896
 20
591.1223677388875
 30
0.0
 10
185.2865609740082
 20
590.8653957030979
 30
0.0
 10
185.2234742852708
 20
590.589143346956
 30
0.0
 10
185.1649461871057
 20
590.3442937647039
 30
0.0
 10
185.1603264068425
 20
590.3249671283871
 30
0.0
  0
SPLINE
  5
3EA
330
1F
100
AcDbEntity
  8
SLD-0_0
  6
Continuous
 62
   179
370
    25
100
AcDbSpline
210
0.0
220
0.0
230
1.0
 70
     8
 71
     3
 72
    10
 73
     6
 74
     0
 42
0.000000001
 43
0.00000001
 40
0.0
 40
0.0
 40
0.0
 40
0.0
 40
0.0699806020607217
 40
0.8866213047515528
 40
1.0
 40
1.0
 40
1.0
 40
1.0
 10
241.8053696011248
 20
674.9929701511
 30
0.0
 10
241.8007498113809
 20
675.0122968290044
 30
0.0
 10
241.7422192487712
 20
675.2571567455457
 30
0.0
 10
241.6791351394745
 20
675.533398284906
 30
0.0
 10
241.6220038136422
 20
675.7903707136902
 30
0.0
 10
241.6150389318396
 20
675.8216982308957
 30
0.0
  0
SPLINE
  5
3EB
330
1F
100
AcDbEntity
  8
SLD-0_0
  6
Continuous
 62
   179
370
    25
100
AcDbSpline
210
0.0
220
0.0
230
1.0
 70
    24
 71
     3
 72
    10
 73
     6
 74
     0
 42
0.000000001
 43
0.00000001
 40
0.0
 40
0.0
 40
0.0
 40
0.0
 40
0.1133785791628755
 40
0.9300203703695477
 40
1.0
 40
1.0
 40
1.0
 40
1.0
 10
241.9678481374812
 20
676.1499559108304
 30
0.0
 10
241.9678481374812
 20
676.1121486380208
 30
0.0
 10
241.9678481374812
 20
675.8020236203971
 30
0.0
 10
241.9678481374812
 20
675.4670639735583
 30
0.0
 10
241.9678481374812
 20
675.1677655812125
 30
0.0
 10
241.9678481374812
 20
675.1441424314069
 30
0.0
  0
SPLINE
  5
3EC
330
1F
100
AcDbEntity
  8
SLD-0_0
  6
Continuous
 62
   179
370
    25
100
AcDbSpline
210
0.0
220
0.0
230
1.0
 70
     8
 71
     3
 72
    10
 73
     6
 74
     0
 42
0.000000001
 43
0.00000001
 40
0.0
 40
0.0
 40
0.0
 40
0.0
 40
0.1133786952484473
 40
0.9300193979392783
 40
1.0
 40
1.0
 40
1.0
 40
1.0
 10
243.3506572698103
 20
675.82169823087
 30
0.0
 10
243.3436923880079
 20
675.7903707136645
 30
0.0
 10
243.2865610621771
 20
675.53339828488
 30
0.0
 10
243.2234769528818
 20
675.2571567455192
 30
0.0
 10
243.1649463902736
 20
675.0122968289778
 30
0.0
 10
243.1603266005299
 20
674.9929701510735
 30
0.0
  0
SPLINE
  5
3ED
330
1F
100
AcDbEntity
  8
SLD-0_0
  6
Continuous
 62
   179
370
    25
100
AcDbSpline
210
0.0
220
0.0
230
1.0
 70
    24
 71
     3
 72
    10
 73
     6
 74
     0
 42
0.000000001
 43
0.00000001
 40
0.0
 40
0.0
 40
0.0
 40
0.0
 40
0.0699796296304523
 40
0.8866214208371246
 40
1.0
 40
1.0
 40
1.0
 40
1.0
 10
242.9978480641849
 20
675.1441424313572
 30
0.0
 10
242.9978480641857
 20
675.1677655811628
 30
0.0
 10
242.997848064196
 20
675.4670639735083
 30
0.0
 10
242.9978480642077
 20
675.8020236203474
 30
0.0
 10
242.9978480642185
 20
676.1121486379712
 30
0.0
 10
242.9978480642198
 20
676.1499559107807
 30
0.0
  0
SPLINE
  5
3EE
330
1F
100
AcDbEntity
  8
SLD-0_0
  6
Continuous
 62
   179
370
    25
100
AcDbSpline
210
0.0
220
0.0
230
1.0
 70
     8
 71
     3
 72
    10
 73
     6
 74
     0
 42
0.000000001
 43
0.00000001
 40
0.0
 40
0.0
 40
0.0
 40
0.0
 40
0.0699806020607217
 40
0.8866213047515528
 40
1.0
 40
1.0
 40
1.0
 40
1.0
 10
183.8053694074097
 20
674.9929701511
 30
0.0
 10
183.8007496176658
 20
675.0122968290044
 30
0.0
 10
183.7422190550562
 20
675.2571567455458
 30
0.0
 10
183.6791349457594
 20
675.5333982849061
 30
0.0
 10
183.6220036199271
 20
675.7903707136902
 30
0.0
 10
183.6150387381246
 20
675.8216982308957
 30
0.0
  0
SPLINE
  5
3EF
330
1F
100
AcDbEntity
  8
SLD-0_0
  6
Continuous
 62
   179
370
    25
100
AcDbSpline
210
0.0
220
0.0
230
1.0
 70
    24
 71
     3
 72
    10
 73
     6
 74
     0
 42
0.000000001
 43
0.00000001
 40
0.0
 40
0.0
 40
0.0
 40
0.0
 40
0.1133785791628755
 40
0.9300203703695477
 40
1.0
 40
1.0
 40
1.0
 40
1.0
 10
183.9678479437661
 20
676.1499559108304
 30
0.0
 10
183.9678479437661
 20
676.1121486380208
 30
0.0
 10
183.9678479437661
 20
675.8020236203971
 30
0.0
 10
183.9678479437661
 20
675.4670639735583
 30
0.0
 10
183.9678479437661
 20
675.1677655812125
 30
0.0
 10
183.9678479437661
 20
675.1441424314069
 30
0.0
  0
SPLINE
  5
3F0
330
1F
100
AcDbEntity
  8
SLD-0_0
  6
Continuous
 62
   179
370
    25
100
AcDbSpline
210
0.0
220
0.0
230
1.0
 70
    24
 71
     3
 72
    10
 73
     6
 74
     0
 42
0.000000001
 43
0.00000001
 40
0.0
 40
0.0
 40
0.0
 40
0.0
 40
0.0699796296304523
 40
0.8866214208371246
 40
1.0
 40
1.0
 40
1.0
 40
1.0
 10
184.9978478704524
 20
675.1441424313879
 30
0.0
 10
184.9978478704536
 20
675.1677655811935
 30
0.0
 10
184.9978478704692
 20
675.467063973539
 30
0.0
 10
184.9978478704866
 20
675.8020236203781
 30
0.0
 10
184.9978478705027
 20
676.1121486380018
 30
0.0
 10
184.9978478705047
 20
676.1499559108114
 30
0.0
  0
SPLINE
  5
3F1
330
1F
100
AcDbEntity
  8
SLD-0_0
  6
Continuous
 62
   179
370
    25
100
AcDbSpline
210
0.0
220
0.0
230
1.0
 70
     8
 71
     3
 72
    10
 73
     6
 74
     0
 42
0.000000001
 43
0.00000001
 40
0.0
 40
0.0
 40
0.0
 40
0.0
 40
0.1133786952484473
 40
0.9300193979392783
 40
1.0
 40
1.0
 40
1.0
 40
1.0
 10
185.3506570761127
 20
675.8216982308813
 30
0.0
 10
185.3436921943102
 20
675.7903707136759
 30
0.0
 10
185.2865608684782
 20
675.5333982848916
 30
0.0
 10
185.2234767591817
 20
675.2571567455311
 30
0.0
 10
185.1649461965723
 20
675.01229682899
 30
0.0
 10
185.1603264068285
 20
674.9929701510856
 30
0.0
  0
SPLINE
  5
3F2
330
1F
100
AcDbEntity
  8
SLD-0_0
  6
Continuous
 62
   179
370
    25
100
AcDbSpline
210
0.0
220
0.0
230
1.0
 70
     8
 71
     3
 72
    11
 73
     7
 74
     0
 42
0.000000001
 43
0.00000001
 40
0.0
 40
0.0
 40
0.0
 40
0.0
 40
0.1854186002179601
 40
0.517609578153502
 40
0.8572124792190235
 40
1.0
 40
1.0
 40
1.0
 40
1.0
 10
211.4899091967436
 20
207.580344157868
 30
0.0
 10
211.3779763500018
 20
207.5151721434243
 30
0.0
 10
211.065507625098
 20
207.3332397004874
 30
0.0
 10
210.7055546750472
 20
206.8425843774376
 30
0.0
 10
210.4801261151408
 20
206.299960948151
 30
0.0
 10
210.5068280391703
 20
205.9637082045487
 30
0.0
 10
210.5147318062427
 20
205.8641774231725
 30
0.0
  0
SPLINE
  5
3F3
330
1F
100
AcDbEntity
  8
SLD-0_0
  6
Continuous
 62
   179
370
    25
100
AcDbSpline
210
0.0
220
0.0
230
1.0
 70
     8
 71
     3
 72
    11
 73
     7
 74
     0
 42
0.000000001
 43
0.00000001
 40
0.0
 40
0.0
 40
0.0
 40
0.0
 40
0.3526950887188786
 40
0.6353468135278426
 40
0.8709148331250838
 40
1.0
 40
1.0
 40
1.0
 40
1.0
 10
216.4828480301
 20
205.8641923243
 30
0.0
 10
216.4568225751348
 20
206.1110758198004
 30
0.0
 10
216.4099401817824
 20
206.5558130650753
 30
0.0
 10
216.0921812564433
 20
207.0853277203372
 30
0.0
 10
215.7781055089552
 20
207.4155633423394
 30
0.0
 10
215.5581001090697
 20
207.5422045186224
 30
0.0
 10
215.4802194410511
 20
207.5870347792103
 30
0.0
  0
SPLINE
  5
3F4
330
1F
100
AcDbEntity
  8
SLD-0_0
  6
Continuous
 62
   179
370
    25
100
AcDbSpline
210
0.0
220
0.0
230
1.0
 70
     8
 71
     3
 72
    15
 73
    11
 74
     0
 42
0.000000001
 43
0.00000001
 40
0.0
 40
0.0
 40
0.0
 40
0.0
 40
0.0820689399757566
 40
0.2387266039997573
 40
0.3991847490743595
 40
0.5695546371809926
 40
0.7095685172900094
 40
0.8280933957353641
 40
0.941679921979214
 40
1.0
 40
1.0
 40
1.0
 40
1.0
 10
184.4828488384512
 20
228.2364902669721
 30
0.0
 10
184.2573941105152
 20
228.2328412507123
 30
0.0
 10
183.6015791143456
 20
228.2222267934049
 30
0.0
 10
182.5288205632126
 20
228.1027816732249
 30
0.0
 10
181.337979331621
 20
227.8288115794427
 30
0.0
 10
180.3511271822903
 20
227.4248682785393
 30
0.0
 10
179.5911163326942
 20
226.8949764437698
 30
0.0
 10
179.0655481073054
 20
226.2509582889739
 30
0.0
 10
178.8127943930894
 20
225.6107351701435
 30
0.0
 10
178.7904347993547
 20
225.2073391431092
 30
0.0
 10
178.782849208
 20
225.0704852515989
 30
0.0
  0
SPLINE
  5
3F5
330
1F
100
AcDbEntity
  8
SLD-0_0
  6
Continuous
 62
   179
370
    25
100
AcDbSpline
210
0.0
220
0.0
230
1.0
 70
     8
 71
     3
 72
    15
 73
    11
 74
     0
 42
0.000000001
 43
0.00000001
 40
0.0
 40
0.0
 40
0.0
 40
0.0
 40
0.1238231399728536
 40
0.2337450852305579
 40
0.3477308701991447
 40
0.4797675044019138
 40
0.6395334327481287
 40
0.8046348170973125
 40
0.9532176665230458
 40
0.9999999999999999
 40
0.9999999999999999
 40
0.9999999999999999
 40
0.9999999999999999
 10
249.1828488265303
 20
225.0704852515989
 30
0.0
 10
249.1489834390824
 20
225.3617885089487
 30
0.0
 10
249.0850546138474
 20
225.9116914166935
 30
0.0
 10
248.6517715044909
 20
226.5909916385937
 30
0.0
 10
248.0865906086937
 20
227.1197192846176
 30
0.0
 10
247.3225519381131
 20
227.561060908659
 30
0.0
 10
246.3217484973903
 20
227.9160868995708
 30
0.0
 10
245.1291086019356
 20
228.1489804015044
 30
0.0
 10
244.1476986958675
 20
228.23017115198
 30
0.0
 10
243.6112950607326
 20
228.235269428744
 30
0.0
 10
243.482847333434
 20
228.2364902669721
 30
0.0
  0
SPLINE
  5
3F6
330
1F
100
AcDbEntity
  8
SLD-0_0
  6
Continuous
 62
   179
370
    25
100
AcDbSpline
210
0.0
220
0.0
230
1.0
 70
     8
 71
     3
 72
    17
 73
    13
 74
     0
 42
0.000000001
 43
0.00000001
 40
0.0
 40
0.0
 40
0.0
 40
0.0
 40
0.0739081580841124
 40
0.2172935343365361
 40
0.3642064494704724
 40
0.5175131729221553
 40
0.6127510162408518
 40
0.6874656927697788
 40
0.7313160485982542
 40
0.8017871969468057
 40
0.9023933188401476
 40
1.0
 40
1.0
 40
1.0
 40
1.0
 10
193.2828487907591
 20
229.6268803650671
 30
0.0
 10
193.1168363702433
 20
229.626650808341
 30
0.0
 10
192.6287518808885
 20
229.6259759005416
 30
0.0
 10
191.8417791310983
 20
229.6184146306257
 30
0.0
 10
191.0395606563498
 20
229.6018044264507
 30
0.0
 10
190.516302588344
 20
229.5816488088398
 30
0.0
 10
190.2115025548732
 20
229.5589103419671
 30
0.0
 10
189.9713941914341
 20
229.5326347434641
 30
0.0
 10
189.6080062526543
 20
229.4412440780683
 30
0.0
 10
189.1722926481912
 20
229.2400642396955
 30
0.0
 10
188.6990591920999
 20
228.8424146982042
 30
0.0
 10
188.5053184066053
 20
228.4379497843104
 30
0.0
 10
188.4099138979855
 20
228.2387775952154
 30
0.0
  0
SPLINE
  5
3F7
330
1F
100
AcDbEntity
  8
SLD-0_0
  6
Continuous
 62
   179
370
    25
100
AcDbSpline
210
0.0
220
0.0
230
1.0
 70
     8
 71
     3
 72
    18
 73
    14
 74
     0
 42
0.000000001
 43
0.00000001
 40
0.0
 40
0.0
 40
0.0
 40
0.0
 40
0.0587029853832401
 40
0.1284265070241345
 40
0.1853531865334791
 40
0.2271941608279895
 40
0.2647149909185432
 40
0.3220695269851194
 40
0.4573057196777584
 40
0.624115162238685
 40
0.7970494547124966
 40
0.9512961906022499
 40
1.0
 40
1.0
 40
1.0
 40
1.0
 10
239.134878486866
 20
228.9021102363401
 30
0.0
 10
239.0547064081649
 20
228.9866004958755
 30
0.0
 10
238.8793112393973
 20
229.1714426949364
 30
0.0
 10
238.5597932432416
 20
229.35421124956
 30
0.0
 10
238.2575172959897
 20
229.4689869424727
 30
0.0
 10
238.0389988187972
 20
229.5194532016233
 30
0.0
 10
237.8761255083834
 20
229.5451852491999
 30
0.0
 10
237.6706339005772
 20
229.5668856797454
 30
0.0
 10
237.354448234523
 20
229.5859038559928
 30
0.0
 10
236.7490957217542
 20
229.6066556952139
 30
0.0
 10
235.9154774736886
 20
229.6211569203583
 30
0.0
 10
235.1816677784363
 20
229.6264788006046
 30
0.0
 10
234.7793863565047
 20
229.6268026484741
 30
0.0
 10
234.6828473811093
 20
229.6268803650671
 30
0.0
  0
SPLINE
  5
3F8
330
1F
100
AcDbEntity
  8
SLD-0_0
  6
Continuous
 62
   179
370
    25
100
AcDbSpline
210
0.0
220
0.0
230
1.0
 70
     8
 71
     3
 72
    10
 73
     6
 74
     0
 42
0.000000001
 43
0.00000001
 40
0.0
 40
0.0
 40
0.0
 40
0.0
 40
0.1224235870475471
 40
0.6420010577592542
 40
1.0
 40
1.0
 40
1.0
 40
1.0
 10
211.482847909
 20
207.5717238361
 30
0.0
 10
211.5247810146285
 20
207.5958825459308
 30
0.0
 10
211.7446822511295
 20
207.7225731424044
 30
0.0
 10
212.1279490254797
 20
207.8527030045191
 30
0.0
 10
212.4751750556908
 20
207.8696718603643
 30
0.0
 10
212.6168226087692
 20
207.8765941435455
 30
0.0
  0
SPLINE
  5
3F9
330
1F
100
AcDbEntity
  8
SLD-0_0
  6
Continuous
 62
   179
370
    25
100
AcDbSpline
210
0.0
220
0.0
230
1.0
 70
    24
 71
     3
 72
    10
 73
     6
 74
     0
 42
0.000000001
 43
0.00000001
 40
0.0
 40
0.0
 40
0.0
 40
0.0
 40
0.3583504137028553
 40
0.9554885374730121
 40
1.0
 40
1.0
 40
1.0
 40
1.0
 10
212.982847980263
 20
207.8861755901938
 30
0.0
 10
212.982847980263
 20
207.883032855668
 30
0.0
 10
212.982847980263
 20
207.8746532174678
 30
0.0
 10
212.982847980263
 20
207.743557690544
 30
0.0
 10
212.982847980263
 20
207.6195882037242
 30
0.0
 10
212.982847980263
 20
207.6109883958464
 30
0.0
  0
SPLINE
  5
3FA
330
1F
100
AcDbEntity
  8
SLD-0_0
  6
Continuous
 62
   179
370
    25
100
AcDbSpline
210
0.0
220
0.0
230
1.0
 70
     8
 71
     3
 72
     9
 73
     5
 74
     0
 42
0.000000001
 43
0.00000001
 40
0.0
 40
0.0
 40
0.0
 40
0.0
 40
0.5000000000135991
 40
1.0
 40
1.0
 40
1.0
 40
1.0
 10
212.982847980263
 20
207.6109883958464
 30
0.0
 10
213.1495146548505
 20
207.6294956380495
 30
0.0
 10
213.4828480040163
 20
207.6665101224547
 30
0.0
 10
213.8161813531821
 20
207.6294956380488
 30
0.0
 10
213.9828480277604
 20
207.6109883958464
 30
0.0
  0
SPLINE
  5
3FB
330
1F
100
AcDbEntity
  8
SLD-0_0
  6
Continuous
 62
   179
370
    25
100
AcDbSpline
210
0.0
220
0.0
230
1.0
 70
    24
 71
     3
 72
    10
 73
     6
 74
     0
 42
0.000000001
 43
0.00000001
 40
0.0
 40
0.0
 40
0.0
 40
0.0
 40
0.1224220395737135
 40
0.6420011658147035
 40
1.0
 40
1.0
 40
1.0
 40
1.0
 10
213.9828480277604
 20
207.6109883958464
 30
0.0
 10
213.9828480277604
 20
207.6340503240392
 30
0.0
 10
213.9828480277604
 20
207.7549908412637
 30
0.0
 10
213.9828480277604
 20
207.875084545622
 30
0.0
 10
213.9828480277604
 20
207.8829620456825
 30
0.0
 10
213.9828480277604
 20
207.8861755901938
 30
0.0
  0
SPLINE
  5
3FC
330
1F
100
AcDbEntity
  8
SLD-0_0
  6
Continuous
 62
   179
370
    25
100
AcDbSpline
210
0.0
220
0.0
230
1.0
 70
     8
 71
     3
 72
    10
 73
     6
 74
     0
 42
0.000000001
 43
0.00000001
 40
0.0
 40
0.0
 40
0.0
 40
0.0
 40
0.3583502710841815
 40
0.9554857908300854
 40
1.0
 40
1.0
 40
1.0
 40
1.0
 10
214.348873399259
 20
207.8765941435461
 30
0.0
 10
214.4905195297217
 20
207.8697418681092
 30
0.0
 10
214.8681971147661
 20
207.8514713313097
 30
0.0
 10
215.2500295538779
 20
207.7103934615548
 30
0.0
 10
215.4677442253878
 20
207.5807198913731
 30
0.0
 10
215.4828480990282
 20
207.5717238361006
 30
0.0
  0
ELLIPSE
  5
3FD
330
1F
100
AcDbEntity
  8
SLD-0_0
  6
Continuous
 62
   179
370
    25
100
AcDbEllipse
 10
162.1366571935
 20
502.5470781747
 30
0.0
 11
0.0
 21
5.0
 31
0.0
210
0.0
220
0.0
230
1.0
 40
0.9571285965
 41
4.712388980384726
 42
6.283185307179586
  0
ELLIPSE
  5
3FE
330
1F
100
AcDbEntity
  8
SLD-0_0
  6
Continuous
 62
   179
370
    25
100
AcDbEllipse
 10
161.6054071935
 20
502.5470781747
 30
0.0
 11
-5.002440810494392
 21
0.0
 31
0.0
210
0.0
220
0.0
230
1.0
 40
0.9995120761
 41
3.141592653589793
 42
4.712388980384709
  0
ELLIPSE
  5
3FF
330
1F
100
AcDbEntity
  8
SLD-0_0
  6
Continuous
 62
   179
370
    25
100
AcDbEllipse
 10
177.8290388145
 20
502.5470781747
 30
0.0
 11
0.0
 21
5.0
 31
0.0
210
0.0
220
0.0
230
1.0
 40
0.9571285965
 41
0.0
 42
1.570796326794897
  0
ELLIPSE
  5
400
330
1F
100
AcDbEntity
  8
SLD-0_0
  6
Continuous
 62
   179
370
    25
100
AcDbEllipse
 10
178.9852888145
 20
502.5470781747
 30
0.0
 11
-5.00244081049442
 21
0.0
 31
0.0
210
0.0
220
0.0
230
1.0
 40
0.9995120761
 41
4.712388980384715
 42
6.283185307179586
  0
ELLIPSE
  5
401
330
1F
100
AcDbEntity
  8
SLD-0_0
  6
Continuous
 62
   179
370
    25
100
AcDbEllipse
 10
247.4804071935
 20
502.5470781747
 30
0.0
 11
-5.00244081049442
 21
0.0
 31
0.0
210
0.0
220
0.0
230
1.0
 40
0.9995120761
 41
3.141592653590296
 42
4.712388980384715
  0
ELLIPSE
  5
402
330
1F
100
AcDbEntity
  8
SLD-0_0
  6
Continuous
 62
   179
370
    25
100
AcDbEllipse
 10
248.6366571935
 20
502.5470781747
 30
0.0
 11
0.0
 21
5.0
 31
0.0
210
0.0
220
0.0
230
1.0
 40
0.9571285965
 41
4.712388980384726
 42
6.283185307179586
  0
ELLIPSE
  5
403
330
1F
100
AcDbEntity
  8
SLD-0_0
  6
Continuous
 62
   179
370
    25
100
AcDbEllipse
 10
264.3290388145
 20
502.5470781747
 30
0.0
 11
0.0
 21
5.0
 31
0.0
210
0.0
220
0.0
230
1.0
 40
0.9571285965
 41
0.0
 42
1.570796326794897
  0
ELLIPSE
  5
404
330
1F
100
AcDbEntity
  8
SLD-0_0
  6
Continuous
 62
   179
370
    25
100
AcDbEllipse
 10
265.2352888145
 20
502.5470781747
 30
0.0
 11
0.0
 21
5.0
 31
0.0
210
0.0
220
0.0
230
1.0
 40
0.9874025105
 41
0.0
 42
1.570796326794897
  0
ELLIPSE
  5
405
330
1F
100
AcDbEntity
  8
SLD-0_0
  6
Continuous
 62
   179
370
    25
100
AcDbEllipse
 10
163.6063835177
 20
290.6470781747
 30
0.0
 11
3.001464486296697
 21
0.0
 31
0.0
210
0.0
220
0.0
230
1.0
 40
0.9995120761
 41
4.712388980384713
 42
6.283186268812909
  0
ELLIPSE
  5
406
330
1F
100
AcDbEntity
  8
SLD-0_0
  6
Continuous
 62
   179
370
    25
100
AcDbEllipse
 10
187.6544226239
 20
314.6470800338
 30
0.0
 11
0.8274063377089079
 21
1.997535602090238
 31
0.0
210
0.0
220
0.0
230
1.0
 40
0.1199589741
 41
4.762036781754578
 42
6.233532921641889
  0
ELLIPSE
  5
407
330
1F
100
AcDbEntity
  8
SLD-0_0
  6
Continuous
 62
   179
370
    25
100
AcDbEllipse
 10
205.6078478848
 20
296.69365105
 30
0.0
 11
-14.05332644999481
 21
14.33789938490571
 31
0.0
210
0.0
220
0.0
230
1.0
 40
0.0991177711
 41
0.0014866452277394
 42
0.1007822479675343
  0
ELLIPSE
  5
408
330
1F
100
AcDbEntity
  8
SLD-0_0
  6
Continuous
 62
   179
370
    25
100
AcDbEllipse
 10
221.357848004
 20
296.69365105
 30
0.0
 11
14.05332644999447
 21
14.33789938490542
 31
0.0
210
0.0
220
0.0
230
1.0
 40
0.0991177711
 41
6.182402283956568
 42
6.281698661952086
  0
ELLIPSE
  5
409
330
1F
100
AcDbEntity
  8
SLD-0_0
  6
Continuous
 62
   179
370
    25
100
AcDbEllipse
 10
239.3112751288
 20
314.6470781748
 30
0.0
 11
-0.8274063377088796
 21
1.997535602090238
 31
0.0
210
0.0
220
0.0
230
1.0
 40
0.1199589741
 41
0.0496478013700443
 42
1.521148525425009
  0
ELLIPSE
  5
40A
330
1F
100
AcDbEntity
  8
SLD-0_0
  6
Continuous
 62
   179
370
    25
100
AcDbEllipse
 10
191.3419576216
 20
310.9595413131
 30
0.0
 11
1.414213562373135
 21
1.414213562373106
 31
0.0
210
0.0
220
0.0
230
1.0
 40
0.0499358265
 41
4.811684583160794
 42
6.283145584811615
  0
ELLIPSE
  5
40B
330
1F
100
AcDbEntity
  8
SLD-0_0
  6
Continuous
 62
   179
370
    25
100
AcDbEllipse
 10
235.6237382672
 20
310.9595413132
 30
0.0
 11
1.414213562373078
 21
-1.41421356237305
 31
0.0
210
0.0
220
0.0
230
1.0
 40
0.0499358265
 41
3.141592653590271
 42
4.613093377643875
  0
ELLIPSE
  5
40C
330
1F
100
AcDbEntity
  8
SLD-0_0
  6
Continuous
 62
   179
370
    25
100
AcDbEllipse
 10
191.3419577408
 20
306.6470781747
 30
0.0
 11
0.0
 21
2.0
 31
0.0
210
0.0
220
0.0
230
1.0
 40
0.0704451316
 41
3.141591967139313
 42
4.712391734134672
  0
ELLIPSE
  5
40D
330
1F
100
AcDbEntity
  8
SLD-0_0
  6
Continuous
 62
   179
370
    25
100
AcDbEllipse
 10
235.6237382671
 20
306.6470781747
 30
0.0
 11
0.0
 21
2.0
 31
0.0
210
0.0
220
0.0
230
1.0
 40
0.0704451316
 41
1.570793573044943
 42
3.141593340750156
  0
ELLIPSE
  5
40E
330
1F
100
AcDbEntity
  8
SLD-0_0
  6
Continuous
 62
   179
370
    25
100
AcDbEllipse
 10
176.9843124903
 20
319.6470781747
 30
0.0
 11
3.00146448629664
 21
0.0
 31
0.0
210
0.0
220
0.0
230
1.0
 40
0.9995120761
 41
3.141591970123549
 42
4.712388980384713
  0
ELLIPSE
  5
40F
330
1F
100
AcDbEntity
  8
SLD-0_0
  6
Continuous
 62
   179
370
    25
100
AcDbEllipse
 10
249.4813835177
 20
319.6470781747
 30
0.0
 11
-3.00146448629664
 21
0.0
 31
0.0
210
0.0
220
0.0
230
1.0
 40
0.9995120761
 41
1.570796326794897
 42
3.14159333705645
  0
ELLIPSE
  5
410
330
1F
100
AcDbEntity
  8
SLD-0_0
  6
Continuous
 62
   179
370
    25
100
AcDbEllipse
 10
213.482848004
 20
3107.0796214276
 30
0.0
 11
47.03871986225369
 21
2539.532389819152
 31
0.0
210
0.0
220
0.0
230
1.0
 40
0.0185098944
 41
3.082672387306712
 42
3.08580164337899
  0
ELLIPSE
  5
411
330
1F
100
AcDbEntity
  8
SLD-0_0
  6
Continuous
 62
   179
370
    25
100
AcDbEllipse
 10
213.482848004
 20
3107.0796214276
 30
0.0
 11
47.03871995636838
 21
2539.532394900226
 31
0.0
210
0.0
220
0.0
230
1.0
 40
0.0185098944
 41
3.198069406599344
 42
3.201198657893562
  0
ELLIPSE
  5
412
330
1F
100
AcDbEntity
  8
SLD-0_0
  6
Continuous
 62
   179
370
    25
100
AcDbEllipse
 10
213.482848004
 20
3107.0796214276
 30
0.0
 11
-47.03871984756487
 21
2539.532389025298
 31
0.0
210
0.0
220
0.0
230
1.0
 40
0.0185098944
 41
3.081986687638121
 42
3.085115953319567
  0
ELLIPSE
  5
413
330
1F
100
AcDbEntity
  8
SLD-0_0
  6
Continuous
 62
   179
370
    25
100
AcDbEllipse
 10
213.482848004
 20
3107.0796214276
 30
0.0
 11
-47.03871993963074
 21
2539.532393995763
 31
0.0
210
0.0
220
0.0
230
1.0
 40
0.0185098944
 41
3.197383691121638
 42
3.200512950070209
  0
ELLIPSE
  5
414
330
1F
100
AcDbEntity
  8
SLD-0_0
  6
Continuous
 62
   179
370
    25
100
AcDbEllipse
 10
180.2362145565
 20
678.5470781747
 30
0.0
 11
1.414213562373106
 21
0.0
 31
0.0
210
0.0
220
0.0
230
1.0
 40
0.7071067812
 41
0.5714164436031501
 42
1.570796326794897
  0
ELLIPSE
  5
415
330
1F
100
AcDbEntity
  8
SLD-0_0
  6
Continuous
 62
   179
370
    25
100
AcDbEllipse
 10
246.7294814515
 20
678.5470781747
 30
0.0
 11
-1.414213562373135
 21
0.0
 31
0.0
210
0.0
220
0.0
230
1.0
 40
0.7071067812
 41
4.712388980384699
 42
5.322582907027472
  0
ELLIPSE
  5
416
330
1F
100
AcDbEntity
  8
SLD-0_0
  6
Continuous
 62
   179
370
    25
100
AcDbEllipse
 10
150.9017156967
 20
572.0818266185
 30
0.0
 11
0.99854842119845
 21
-0.3906656515763416
 31
0.0
210
0.0
220
0.0
230
1.0
 40
0.1378708387
 41
1.231984722634574
 42
2.690658158882964
  0
ELLIPSE
  5
417
330
1F
100
AcDbEntity
  8
SLD-0_0
  6
Continuous
 62
   179
370
    25
100
AcDbEllipse
 10
213.4828482396
 20
644.5470771451
 30
0.0
 11
71.10693282923312
 21
71.10693282923228
 31
0.0
210
0.0
220
0.0
230
1.0
 40
0.1989123674
 41
3.434644602452079
 42
3.448512186485384
  0
ENDSEC
  0
SECTION
  2
OBJECTS
  0
DICTIONARY
  5
C
330
0
100
AcDbDictionary
281
     1
  3
ACAD_GROUP
350
D
  3
ACAD_LAYOUT
350
1A
  3
ACAD_MLINESTYLE
350
17
  3
ACAD_PLOTSETTINGS
350
19
  3
ACAD_PLOTSTYLENAME
350
E
  3
ACAD_SCALELIST
350
47
  0
DICTIONARY
  5
D
102
{ACAD_REACTORS
330
C
102
}
330
C
100
AcDbDictionary
281
     1
  0
DICTIONARY
  5
1A
102
{ACAD_REACTORS
330
C
102
}
330
C
100
AcDbDictionary
281
     1
  3
Layout1
350
1E
  3
Layout2
350
26
  3
Model
350
22
  0
DICTIONARY
  5
17
102
{ACAD_REACTORS
330
C
102
}
330
C
100
AcDbDictionary
281
     1
  3
Standard
350
18
  0
DICTIONARY
  5
19
102
{ACAD_REACTORS
330
C
102
}
330
C
100
AcDbDictionary
281
     1
  0
ACDBDICTIONARYWDFLT
  5
E
102
{ACAD_REACTORS
330
C
102
}
330
C
100
AcDbDictionary
281
     1
  3
Normal
350
F
100
AcDbDictionaryWithDefault
340
F
  0
DICTIONARY
  5
47
102
{ACAD_REACTORS
330
C
102
}
330
C
100
AcDbDictionary
281
     1
  3
A0
350
48
  3
A1
350
49
  3
A2
350
4A
  3
A3
350
4B
  3
A4
350
4C
  3
A5
350
4D
  3
A6
350
4E
  3
A7
350
4F
  3
A8
350
50
  3
A9
350
51
  3
B0
350
52
  3
B1
350
53
  3
B2
350
54
  3
B3
350
55
  3
B4
350
56
  3
B5
350
57
  3
B6
350
58
  3
B7
350
59
  3
B8
350
5A
  3
B9
350
5B
  3
C0
350
5C
  3
C1
350
5D
  3
C2
350
5E
  3
C3
350
5F
  3
C4
350
60
  3
C5
350
61
  3
C6
350
62
  3
C7
350
63
  3
C8
350
64
  3
C9
350
65
  3
D0
350
66
  3
D1
350
67
  3
D2
350
68
  0
LAYOUT
  5
1E
102
{ACAD_REACTORS
330
1A
102
}
330
1A
100
AcDbPlotSettings
  1

  2
none_device
  4

  6

 40
0.0
 41
0.0
 42
0.0
 43
0.0
 44
0.0
 45
0.0
 46
0.0
 47
0.0
 48
0.0
 49
0.0
140
0.0
141
0.0
142
1.0
143
1.0
 70
   688
 72
     1
 73
     0
 74
     5
  7

 75
    16
147
1.0
148
0.0
149
0.0
100
AcDbLayout
  1
Layout1
 70
     1
 71
     1
 10
0.0
 20
0.0
 11
420.0
 21
297.0
 12
0.0
 22
0.0
 32
0.0
 14
1.0000000000E+20
 24
1.0000000000E+20
 34
1.0000000000E+20
 15
-1.0000000000E+20
 25
-1.0000000000E+20
 35
-1.0000000000E+20
146
0.0
 13
0.0
 23
0.0
 33
0.0
 16
1.0
 26
0.0
 36
0.0
 17
0.0
 27
1.0
 37
0.0
 76
     0
330
1B
  0
LAYOUT
  5
26
102
{ACAD_REACTORS
330
1A
102
}
330
1A
100
AcDbPlotSettings
  1

  2
none_device
  4

  6

 40
0.0
 41
0.0
 42
0.0
 43
0.0
 44
0.0
 45
0.0
 46
0.0
 47
0.0
 48
0.0
 49
0.0
140
0.0
141
0.0
142
1.0
143
1.0
 70
   688
 72
     1
 73
     0
 74
     5
  7

 75
    16
147
1.0
148
0.0
149
0.0
100
AcDbLayout
  1
Layout2
 70
     1
 71
     2
 10
0.0
 20
0.0
 11
0.0
 21
0.0
 12
0.0
 22
0.0
 32
0.0
 14
0.0
 24
0.0
 34
0.0
 15
0.0
 25
0.0
 35
0.0
146
0.0
 13
0.0
 23
0.0
 33
0.0
 16
1.0
 26
0.0
 36
0.0
 17
0.0
 27
1.0
 37
0.0
 76
     0
330
23
  0
LAYOUT
  5
22
102
{ACAD_REACTORS
330
1A
102
}
330
1A
100
AcDbPlotSettings
  1

  2
none_device
  4
Letter_(8.50_x_11.00_Inches)
  6

 40
6.35
 41
6.35
 42
6.35000508
 43
6.35000508
 44
215.9
 45
279.4
 46
0.0
 47
0.0
 48
0.0
 49
0.0
140
0.0
141
0.0
142
1.0
143
1.0
 70
  1712
 72
     1
 73
     0
 74
     0
  7

 75
     0
147
1.0
148
0.0
149
0.0
100
AcDbLayout
  1
Model
 70
     1
 71
     0
 10
0.0
 20
0.0
 11
420.0
 21
297.0
 12
0.0
 22
0.0
 32
0.0
 14
0.0
 24
0.0
 34
0.0
 15
420.0
 25
297.0
 35
0.0
146
0.0
 13
0.0
 23
0.0
 33
0.0
 16
1.0
 26
0.0
 36
0.0
 17
0.0
 27
1.0
 37
0.0
 76
     0
330
1F
331
29
  0
MLINESTYLE
  5
18
102
{ACAD_REACTORS
330
17
102
}
330
17
100
AcDbMlineStyle
  2
Standard
 70
     0
  3

 62
   256
 51
90.0
 52
90.0
 71
     2
 49
0.5
 62
   256
  6
BYLAYER
 49
-0.5
 62
   256
  6
BYLAYER
  0
ACDBPLACEHOLDER
  5
F
102
{ACAD_REACTORS
330
E
102
}
330
E
  0
SCALE
  5
48
102
{ACAD_REACTORS
330
47
102
}
330
47
100
AcDbScale
 70
     0
300
1:1
140
1.0
141
1.0
290
     1
  0
SCALE
  5
49
102
{ACAD_REACTORS
330
47
102
}
330
47
100
AcDbScale
 70
     0
300
1:2
140
1.0
141
2.0
290
     0
  0
SCALE
  5
4A
102
{ACAD_REACTORS
330
47
102
}
330
47
100
AcDbScale
 70
     0
300
1:4
140
1.0
141
4.0
290
     0
  0
SCALE
  5
4B
102
{ACAD_REACTORS
330
47
102
}
330
47
100
AcDbScale
 70
     0
300
1:5
140
1.0
141
5.0
290
     0
  0
SCALE
  5
4C
102
{ACAD_REACTORS
330
47
102
}
330
47
100
AcDbScale
 70
     0
300
1:8
140
1.0
141
8.0
290
     0
  0
SCALE
  5
4D
102
{ACAD_REACTORS
330
47
102
}
330
47
100
AcDbScale
 70
     0
300
1:10
140
1.0
141
10.0
290
     0
  0
SCALE
  5
4E
102
{ACAD_REACTORS
330
47
102
}
330
47
100
AcDbScale
 70
     0
300
1:16
140
1.0
141
16.0
290
     0
  0
SCALE
  5
4F
102
{ACAD_REACTORS
330
47
102
}
330
47
100
AcDbScale
 70
     0
300
1:20
140
1.0
141
20.0
290
     0
  0
SCALE
  5
50
102
{ACAD_REACTORS
330
47
102
}
330
47
100
AcDbScale
 70
     0
300
1:30
140
1.0
141
30.0
290
     0
  0
SCALE
  5
51
102
{ACAD_REACTORS
330
47
102
}
330
47
100
AcDbScale
 70
     0
300
1:40
140
1.0
141
40.0
290
     0
  0
SCALE
  5
52
102
{ACAD_REACTORS
330
47
102
}
330
47
100
AcDbScale
 70
     0
300
1:50
140
1.0
141
50.0
290
     0
  0
SCALE
  5
53
102
{ACAD_REACTORS
330
47
102
}
330
47
100
AcDbScale
 70
     0
300
1:100
140
1.0
141
100.0
290
     0
  0
SCALE
  5
54
102
{ACAD_REACTORS
330
47
102
}
330
47
100
AcDbScale
 70
     0
300
2:1
140
2.0
141
1.0
290
     0
  0
SCALE
  5
55
102
{ACAD_REACTORS
330
47
102
}
330
47
100
AcDbScale
 70
     0
300
4:1
140
4.0
141
1.0
290
     0
  0
SCALE
  5
56
102
{ACAD_REACTORS
330
47
102
}
330
47
100
AcDbScale
 70
     0
300
8:1
140
8.0
141
1.0
290
     0
  0
SCALE
  5
57
102
{ACAD_REACTORS
330
47
102
}
330
47
100
AcDbScale
 70
     0
300
10:1
140
10.0
141
1.0
290
     0
  0
SCALE
  5
58
102
{ACAD_REACTORS
330
47
102
}
330
47
100
AcDbScale
 70
     0
300
100:1
140
100.0
141
1.0
290
     0
  0
SCALE
  5
59
102
{ACAD_REACTORS
330
47
102
}
330
47
100
AcDbScale
 70
     0
300
1/128" = 1'-0"
140
0.0078125
141
12.0
290
     0
  0
SCALE
  5
5A
102
{ACAD_REACTORS
330
47
102
}
330
47
100
AcDbScale
 70
     0
300
1/64" = 1'-0"
140
0.015625
141
12.0
290
     0
  0
SCALE
  5
5B
102
{ACAD_REACTORS
330
47
102
}
330
47
100
AcDbScale
 70
     0
300
1/32" = 1'-0"
140
0.03125
141
12.0
290
     0
  0
SCALE
  5
5C
102
{ACAD_REACTORS
330
47
102
}
330
47
100
AcDbScale
 70
     0
300
1/16" = 1'-0"
140
0.0625
141
12.0
290
     0
  0
SCALE
  5
5D
102
{ACAD_REACTORS
330
47
102
}
330
47
100
AcDbScale
 70
     0
300
3/32" = 1'-0"
140
0.09375
141
12.0
290
     0
  0
SCALE
  5
5E
102
{ACAD_REACTORS
330
47
102
}
330
47
100
AcDbScale
 70
     0
300
1/8" = 1'-0"
140
0.125
141
12.0
290
     0
  0
SCALE
  5
5F
102
{ACAD_REACTORS
330
47
102
}
330
47
100
AcDbScale
 70
     0
300
3/16" = 1'-0"
140
0.1875
141
12.0
290
     0
  0
SCALE
  5
60
102
{ACAD_REACTORS
330
47
102
}
330
47
100
AcDbScale
 70
     0
300
1/4" = 1'-0"
140
0.25
141
12.0
290
     0
  0
SCALE
  5
61
102
{ACAD_REACTORS
330
47
102
}
330
47
100
AcDbScale
 70
     0
300
3/8" = 1'-0"
140
0.375
141
12.0
290
     0
  0
SCALE
  5
62
102
{ACAD_REACTORS
330
47
102
}
330
47
100
AcDbScale
 70
     0
300
1/2" = 1'-0"
140
0.5
141
12.0
290
     0
  0
SCALE
  5
63
102
{ACAD_REACTORS
330
47
102
}
330
47
100
AcDbScale
 70
     0
300
3/4" = 1'-0"
140
0.75
141
12.0
290
     0
  0
SCALE
  5
64
102
{ACAD_REACTORS
330
47
102
}
330
47
100
AcDbScale
 70
     0
300
1" = 1'-0"
140
1.0
141
12.0
290
     0
  0
SCALE
  5
65
102
{ACAD_REACTORS
330
47
102
}
330
47
100
AcDbScale
 70
     0
300
1-1/2" = 1'-0"
140
1.5
141
12.0
290
     0
  0
SCALE
  5
66
102
{ACAD_REACTORS
330
47
102
}
330
47
100
AcDbScale
 70
     0
300
3" = 1'-0"
140
3.0
141
12.0
290
     0
  0
SCALE
  5
67
102
{ACAD_REACTORS
330
47
102
}
330
47
100
AcDbScale
 70
     0
300
6" = 1'-0"
140
6.0
141
12.0
290
     0
  0
SCALE
  5
68
102
{ACAD_REACTORS
330
47
102
}
330
47
100
AcDbScale
 70
     0
300
1'-0" = 1'-0"
140
12.0
141
12.0
290
     0
  0
ENDSEC
  0
EOF
