  0
SECTION
  2
HEADER
  9
$ACADVER
  1
AC1015
  9
$ACADMAINTVER
 70
     6
  9
$DWGCODEPAGE
  3
DOS932
  9
$INSBASE
 10
0.0
 20
0.0
 30
0.0
  9
$EXTMIN
 10
0.0
 20
0.0
 30
0.0
  9
$EXTMAX
 10
420.0
 20
297.0
 30
0.0
  9
$LIMMIN
 10
0.0
 20
0.0
  9
$LIMMAX
 10
420.0
 20
297.0
  9
$ORTHOMODE
 70
     0
  9
$REGENMODE
 70
     1
  9
$FILLMODE
 70
     1
  9
$QTEXTMODE
 70
     0
  9
$MIRRTEXT
 70
     1
  9
$LTSCALE
 40
1.0
  9
$ATTMODE
 70
     1
  9
$TEXTSIZE
 40
3.5
  9
$TRACEWID
 40
1.0
  9
$TEXTSTYLE
  7
Standard
  9
$CLAYER
  8
0
  9
$CELTYPE
  6
ByLayer
  9
$CECOLOR
 62
   256
  9
$CELTSCALE
 40
1.0
  9
$DISPSILH
 70
     0
  9
$DIMSCALE
 40
1.0
  9
$DIMASZ
 40
2.0
  9
$DIMEXO
 40
1.0
  9
$DIMDLI
 40
3.75
  9
$DIMRND
 40
0.0
  9
$DIMDLE
 40
0.0
  9
$DIMEXE
 40
1.0
  9
$DIMTP
 40
0.0
  9
$DIMTM
 40
0.0
  9
$DIMTXT
 40
2.7999999523
  9
$DIMCEN
 40
2.5
  9
$DIMTSZ
 40
0.0
  9
$DIMTOL
 70
     0
  9
$DIMLIM
 70
     0
  9
$DIMTIH
 70
     1
  9
$DIMTOH
 70
     1
  9
$DIMSE1
 70
     0
  9
$DIMSE2
 70
     0
  9
$DIMTAD
 70
     1
  9
$DIMZIN
 70
     1
  9
$DIMBLK
  1

  9
$DIMASO
 70
     1
  9
$DIMSHO
 70
     1
  9
$DIMPOST
  1

  9
$DIMAPOST
  1

  9
$DIMALT
 70
     0
  9
$DIMALTD
 70
     3
  9
$DIMALTF
 40
0.0393700787
  9
$DIMLFAC
 40
1.0
  9
$DIMTOFL
 70
     1
  9
$DIMTVP
 40
0.0
  9
$DIMTIX
 70
     0
  9
$DIMSOXD
 70
     0
  9
$DIMSAH
 70
     0
  9
$DIMBLK1
  1

  9
$DIMBLK2
  1

  9
$DIMSTYLE
  2
ISO-25
  9
$DIMCLRD
 70
     0
  9
$DIMCLRE
 70
     0
  9
$DIMCLRT
 70
     0
  9
$DIMTFAC
 40
1.0
  9
$DIMGAP
 40
1.524
  9
$DIMJUST
 70
     0
  9
$DIMSD1
 70
     0
  9
$DIMSD2
 70
     0
  9
$DIMTOLJ
 70
     0
  9
$DIMTZIN
 70
     1
  9
$DIMALTZ
 70
     0
  9
$DIMALTTZ
 70
     0
  9
$DIMUPT
 70
     0
  9
$DIMDEC
 70
     3
  9
$DIMTDEC
 70
     3
  9
$DIMALTU
 70
     2
  9
$DIMALTTD
 70
     3
  9
$DIMTXSTY
  7
Standard
  9
$DIMAUNIT
 70
     0
  9
$DIMADEC
 70
     0
  9
$DIMALTRND
 40
0.0
  9
$DIMAZIN
 70
     0
  9
$DIMDSEP
 70
    44
  9
$DIMATFIT
 70
     3
  9
$DIMFRAC
 70
     0
  9
$DIMLDRBLK
  1

  9
$DIMLUNIT
 70
     2
  9
$DIMLWD
 70
    -2
  9
$DIMLWE
 70
    -2
  9
$DIMTMOVE
 70
     0
  9
$LUNITS
 70
     2
  9
$LUPREC
 70
     3
  9
$SKETCHINC
 40
1.0
  9
$FILLETRAD
 40
10.0
  9
$AUNITS
 70
     0
  9
$AUPREC
 70
     0
  9
$MENU
  1
.
  9
$ELEVATION
 40
0.0
  9
$PELEVATION
 40
0.0
  9
$THICKNESS
 40
0.0
  9
$LIMCHECK
 70
     0
  9
$CHAMFERA
 40
0.0
  9
$CHAMFERB
 40
0.0
  9
$CHAMFERC
 40
0.0
  9
$CHAMFERD
 40
0.0
  9
$SKPOLY
 70
     0
  9
$TDCREATE
 40
2460160.461545336
  9
$TDUCREATE
 40
2460160.086545336
  9
$TDUPDATE
 40
2460160.461545984
  9
$TDUUPDATE
 40
2460160.086545984
  9
$TDINDWG
 40
0.0000000116
  9
$TDUSRTIMER
 40
0.0000000116
  9
$USRTIMER
 70
     1
  9
$ANGBASE
 50
0.0
  9
$ANGDIR
 70
     0
  9
$PDMODE
 70
     0
  9
$PDSIZE
 40
-1.0
  9
$PLINEWID
 40
0.0
  9
$SPLFRAME
 70
     0
  9
$SPLINETYPE
 70
     6
  9
$SPLINESEGS
 70
     8
  9
$HANDSEED
  5
383
  9
$SURFTAB1
 70
     6
  9
$SURFTAB2
 70
     6
  9
$SURFTYPE
 70
     6
  9
$SURFU
 70
     6
  9
$SURFV
 70
     6
  9
$UCSBASE
  2

  9
$UCSNAME
  2

  9
$UCSORG
 10
0.0
 20
0.0
 30
0.0
  9
$UCSXDIR
 10
1.0
 20
0.0
 30
0.0
  9
$UCSYDIR
 10
0.0
 20
1.0
 30
0.0
  9
$UCSORTHOREF
  2

  9
$UCSORTHOVIEW
 70
     0
  9
$UCSORGTOP
 10
0.0
 20
0.0
 30
0.0
  9
$UCSORGBOTTOM
 10
0.0
 20
0.0
 30
0.0
  9
$UCSORGLEFT
 10
0.0
 20
0.0
 30
0.0
  9
$UCSORGRIGHT
 10
0.0
 20
0.0
 30
0.0
  9
$UCSORGFRONT
 10
0.0
 20
0.0
 30
0.0
  9
$UCSORGBACK
 10
0.0
 20
0.0
 30
0.0
  9
$PUCSBASE
  2

  9
$PUCSNAME
  2

  9
$PUCSORG
 10
0.0
 20
0.0
 30
0.0
  9
$PUCSXDIR
 10
1.0
 20
0.0
 30
0.0
  9
$PUCSYDIR
 10
0.0
 20
1.0
 30
0.0
  9
$PUCSORTHOREF
  2

  9
$PUCSORTHOVIEW
 70
     0
  9
$PUCSORGTOP
 10
0.0
 20
0.0
 30
0.0
  9
$PUCSORGBOTTOM
 10
0.0
 20
0.0
 30
0.0
  9
$PUCSORGLEFT
 10
0.0
 20
0.0
 30
0.0
  9
$PUCSORGRIGHT
 10
0.0
 20
0.0
 30
0.0
  9
$PUCSORGFRONT
 10
0.0
 20
0.0
 30
0.0
  9
$PUCSORGBACK
 10
0.0
 20
0.0
 30
0.0
  9
$USERI1
 70
     0
  9
$USERI2
 70
     0
  9
$USERI3
 70
     0
  9
$USERI4
 70
     0
  9
$USERI5
 70
     0
  9
$USERR1
 40
0.0
  9
$USERR2
 40
0.0
  9
$USERR3
 40
0.0
  9
$USERR4
 40
0.0
  9
$USERR5
 40
0.0
  9
$WORLDVIEW
 70
     1
  9
$SHADEDGE
 70
     3
  9
$SHADEDIF
 70
    70
  9
$TILEMODE
 70
     1
  9
$MAXACTVP
 70
    64
  9
$PINSBASE
 10
0.0
 20
0.0
 30
0.0
  9
$PLIMCHECK
 70
     0
  9
$PEXTMIN
 10
1.0000000000E+20
 20
1.0000000000E+20
 30
1.0000000000E+20
  9
$PEXTMAX
 10
-1.0000000000E+20
 20
-1.0000000000E+20
 30
-1.0000000000E+20
  9
$PLIMMIN
 10
0.0
 20
0.0
  9
$PLIMMAX
 10
420.0
 20
297.0
  9
$UNITMODE
 70
     0
  9
$VISRETAIN
 70
     1
  9
$PLINEGEN
 70
     0
  9
$PSLTSCALE
 70
     1
  9
$TREEDEPTH
 70
  3020
  9
$CMLSTYLE
  2
Standard
  9
$CMLJUST
 70
     0
  9
$CMLSCALE
 40
20.0
  9
$PROXYGRAPHICS
 70
     1
  9
$MEASUREMENT
 70
     1
  9
$CELWEIGHT
370
    -1
  9
$ENDCAPS
280
     0
  9
$JOINSTYLE
280
     0
  9
$LWDISPLAY
290
     1
  9
$INSUNITS
 70
     4
  9
$HYPERLINKBASE
  1

  9
$STYLESHEET
  1

  9
$XEDIT
290
     1
  9
$CEPSNTYPE
380
     0
  9
$PSTYLEMODE
290
     1
  9
$FINGERPRINTGUID
  2
{cdb905c8-d64c-49e5-8786-6d32e036e627}
  9
$VERSIONGUID
  2
{FAEB1C32-E019-11D5-929B-00C0DF256EC4}
  9
$EXTNAMES
290
     1
  9
$PSVPSCALE
 40
0.0
  9
$OLESTARTUP
290
     0
  0
ENDSEC
  0
SECTION
  2
CLASSES
  0
CLASS
  1
ACDBDICTIONARYWDFLT
  2
AcDbDictionaryWithDefault
  3
ObjectDBX Classes
 90
        0
280
     0
281
     0
  0
CLASS
  1
VISUALSTYLE
  2
AcDbVisualStyle
  3
ObjectDBX Classes
 90
     4095
280
     0
281
     0
  0
CLASS
  1
MATERIAL
  2
AcDbMaterial
  3
ObjectDBX Classes
 90
     1153
280
     0
281
     0
  0
CLASS
  1
SCALE
  2
AcDbScale
  3
ObjectDBX Classes
 90
     1153
280
     0
281
     0
  0
CLASS
  1
TABLESTYLE
  2
AcDbTableStyle
  3
ObjectDBX Classes
 90
     4095
280
     0
281
     0
  0
CLASS
  1
MLEADERSTYLE
  2
AcDbMLeaderStyle
  3
ACDB_MLEADERSTYLE_CLASS
 90
     4095
280
     0
281
     0
  0
CLASS
  1
SUN
  2
AcDbSun
  3
SCENEOE
 90
     1153
280
     0
281
     0
  0
CLASS
  1
ACDBPLACEHOLDER
  2
AcDbPlaceHolder
  3
ObjectDBX Classes
 90
        0
280
     0
281
     0
  0
CLASS
  1
LAYOUT
  2
AcDbLayout
  3
ObjectDBX Classes
 90
        0
280
     0
281
     0
  0
ENDSEC
  0
SECTION
  2
TABLES
  0
TABLE
  2
VPORT
  5
8
330
0
100
AcDbSymbolTable
 70
     1
  0
VPORT
  5
29
330
8
100
AcDbSymbolTableRecord
100
AcDbViewportTableRecord
  2
*Active
 70
     0
 10
0.0
 20
0.0
 11
1.0
 21
1.0
 12
210.0
 22
148.5
 13
0.0
 23
0.0
 14
10.0
 24
10.0
 15
10.0
 25
10.0
 16
0.0
 26
0.0
 36
1.0
 17
0.0
 27
0.0
 37
0.0
 40
297.0
 41
1.4141414141
 42
50.0
 43
0.0
 44
0.0
 50
0.0
 51
0.0
 71
     0
 72
  2000
 73
     1
 74
     3
 75
     0
 76
     0
 77
     0
 78
     0
281
     0
 65
     1
110
0.0
120
0.0
130
0.0
111
1.0
121
0.0
131
0.0
112
0.0
122
1.0
132
0.0
 79
     0
146
0.0
  0
ENDTAB
  0
TABLE
  2
LTYPE
  5
5
330
0
100
AcDbSymbolTable
 70
     6
  0
LTYPE
  5
14
330
5
100
AcDbSymbolTableRecord
100
AcDbLinetypeTableRecord
  2
ByBlock
 70
     0
  3

 72
    65
 73
     0
 40
0.0
  0
LTYPE
  5
15
330
5
100
AcDbSymbolTableRecord
100
AcDbLinetypeTableRecord
  2
ByLayer
 70
     0
  3

 72
    65
 73
     0
 40
0.0
  0
LTYPE
  5
16
330
5
100
AcDbSymbolTableRecord
100
AcDbLinetypeTableRecord
  2
Continuous
 70
     0
  3
Solid line
 72
    65
 73
     0
 40
0.0
  0
LTYPE
  5
6E
330
5
100
AcDbSymbolTableRecord
100
AcDbLinetypeTableRecord
  2
HIDDEN
 70
     0
  3
Hidden __ __ __ __ __ __ __ __ __ __ __ __ __ __
 72
    65
 73
     2
 40
1.905
 49
1.27
 74
     0
 49
-0.635
 74
     0
  0
LTYPE
  5
6F
330
5
100
AcDbSymbolTableRecord
100
AcDbLinetypeTableRecord
  2
PHANTOM
 70
     0
  3
Phantom ______  __  __  ______  __  __  ______
 72
    65
 73
     6
 40
12.7
 49
6.35
 74
     0
 49
-1.27
 74
     0
 49
1.27
 74
     0
 49
-1.27
 74
     0
 49
1.27
 74
     0
 49
-1.27
 74
     0
  0
LTYPE
  5
70
330
5
100
AcDbSymbolTableRecord
100
AcDbLinetypeTableRecord
  2
CENTER
 70
     0
  3
Center ____ _ ____ _ ____ _ ____ _ ____ _ ____
 72
    65
 73
     4
 40
10.16
 49
6.35
 74
     0
 49
-1.27
 74
     0
 49
1.27
 74
     0
 49
-1.27
 74
     0
  0
LTYPE
  5
71
330
5
100
AcDbSymbolTableRecord
100
AcDbLinetypeTableRecord
  2
CENTERX2
 70
     0
  3
Center (2x) ________  __  ________  __  _____
 72
    65
 73
     4
 40
20.32
 49
12.7
 74
     0
 49
-2.54
 74
     0
 49
2.54
 74
     0
 49
-2.54
 74
     0
  0
LTYPE
  5
72
330
5
100
AcDbSymbolTableRecord
100
AcDbLinetypeTableRecord
  2
DOT2
 70
     0
  3
Dot (.5x) ........................................
 72
    65
 73
     2
 40
0.635
 49
0.0
 74
     0
 49
-0.635
 74
     0
  0
ENDTAB
  0
TABLE
  2
LAYER
  5
2
330
0
100
AcDbSymbolTable
 70
     2
  0
LAYER
  5
10
330
2
100
AcDbSymbolTableRecord
100
AcDbLayerTableRecord
  2
0
 70
     0
 62
     7
  6
Continuous
370
    -3
390
F
  0
LAYER
  5
73
330
2
100
AcDbSymbolTableRecord
100
AcDbLayerTableRecord
  2
SLD-0
 70
     0
 62
     7
  6
Continuous
370
    -1
390
F
  0
ENDTAB
  0
TABLE
  2
STYLE
  5
3
330
0
100
AcDbSymbolTable
 70
     1
  0
STYLE
  5
11
330
3
100
AcDbSymbolTableRecord
100
AcDbTextStyleTableRecord
  2
Standard
 70
     0
 40
0.0
 41
1.0
 50
0.0
 71
     0
 42
3.5
  3
txt
  4
bigfont
  0
ENDTAB
  0
TABLE
  2
VIEW
  5
6
330
0
100
AcDbSymbolTable
 70
     0
  0
ENDTAB
  0
TABLE
  2
UCS
  5
7
330
0
100
AcDbSymbolTable
 70
     0
  0
ENDTAB
  0
TABLE
  2
APPID
  5
9
330
0
100
AcDbSymbolTable
 70
     1
  0
APPID
  5
12
330
9
100
AcDbSymbolTableRecord
100
AcDbRegAppTableRecord
  2
ACAD
 70
     0
  0
ENDTAB
  0
TABLE
  2
DIMSTYLE
  5
A
330
0
100
AcDbSymbolTable
 70
     1
100
AcDbDimStyleTable
  0
DIMSTYLE
105
27
330
A
100
AcDbSymbolTableRecord
100
AcDbDimStyleTableRecord
  2
ISO-25
 70
     0
 41
2.5
 42
0.625
 43
3.75
 44
1.25
 73
     0
 74
     0
 77
     1
 78
     8
140
2.5
141
2.5
143
0.0393700787
147
0.625
171
     3
172
     1
178
     0
271
     2
272
     2
274
     3
278
    44
283
     0
284
     8
340
11
  0
ENDTAB
  0
TABLE
  2
BLOCK_RECORD
  5
1
330
0
100
AcDbSymbolTable
 70
     1
  0
BLOCK_RECORD
  5
1F
330
1
100
AcDbSymbolTableRecord
100
AcDbBlockTableRecord
  2
*Model_Space
340
22
  0
BLOCK_RECORD
  5
1B
330
1
100
AcDbSymbolTableRecord
100
AcDbBlockTableRecord
  2
*Paper_Space
340
1E
  0
BLOCK_RECORD
  5
23
330
1
100
AcDbSymbolTableRecord
100
AcDbBlockTableRecord
  2
*Paper_Space0
340
26
  0
ENDTAB
  0
ENDSEC
  0
SECTION
  2
BLOCKS
  0
BLOCK
  5
20
330
1F
100
AcDbEntity
  8
0
100
AcDbBlockBegin
  2
*Model_Space
 70
     0
 10
0.0
 20
0.0
 30
0.0
  3
*Model_Space
  1

  0
ENDBLK
  5
21
330
1F
100
AcDbEntity
  8
0
100
AcDbBlockEnd
  0
BLOCK
  5
1C
330
1B
100
AcDbEntity
 67
     1
  8
0
100
AcDbBlockBegin
  2
*Paper_Space
 70
     0
 10
0.0
 20
0.0
 30
0.0
  3
*Paper_Space
  1

  0
ENDBLK
  5
1D
330
1B
100
AcDbEntity
 67
     1
  8
0
100
AcDbBlockEnd
  0
BLOCK
  5
24
330
23
100
AcDbEntity
  8
0
100
AcDbBlockBegin
  2
*Paper_Space0
 70
     0
 10
0.0
 20
0.0
 30
0.0
  3
*Paper_Space0
  1

  0
ENDBLK
  5
25
330
23
100
AcDbEntity
  8
0
100
AcDbBlockEnd
  0
ENDSEC
  0
SECTION
  2
ENTITIES
  0
LINE
  5
74
330
1F
100
AcDbEntity
  8
0
  6
Continuous
 62
     7
370
    25
100
AcDbLine
 10
146.8991663403
 20
560.4899133822
 30
0.0
 11
146.8991663403
 21
558.3899113616
 31
0.0
  0
ARC
  5
75
330
1F
100
AcDbEntity
  8
0
  6
Continuous
 62
     7
370
    25
100
AcDbCircle
 10
148.0991658884
 20
560.4899106762
 30
0.0
 40
1.200000000000017
100
AcDbArc
 50
90.0
 51
180.0
  0
LINE
  5
76
330
1F
100
AcDbEntity
  8
0
  6
Continuous
 62
     7
370
    25
100
AcDbLine
 10
148.8991629429
 20
546.3899093947
 30
0.0
 11
148.8991629429
 21
544.3899090669
 31
0.0
  0
LINE
  5
77
330
1F
100
AcDbEntity
  8
0
  6
Continuous
 62
     7
370
    25
100
AcDbLine
 10
153.8991656251
 20
544.3899090669
 30
0.0
 11
153.8991656251
 21
546.3899093947
 31
0.0
  0
LINE
  5
78
330
1F
100
AcDbEntity
  8
0
  6
Continuous
 62
     7
370
    25
100
AcDbLine
 10
276.7751466579
 20
544.3899090669
 30
0.0
 11
276.7751466579
 21
546.3899093947
 31
0.0
  0
LINE
  5
79
330
1F
100
AcDbEntity
  8
0
  6
Continuous
 62
     7
370
    25
100
AcDbLine
 10
237.8371551729
 20
575.8107732317
 30
0.0
 11
237.8371551729
 21
575.2824600121
 31
0.0
  0
LINE
  5
7A
330
1F
100
AcDbEntity
  8
0
  6
Continuous
 62
     7
370
    25
100
AcDbLine
 10
245.8371546216
 20
575.2824600121
 30
0.0
 11
245.8371546216
 21
575.8107732317
 31
0.0
  0
LINE
  5
7B
330
1F
100
AcDbEntity
  8
0
  6
Continuous
 62
     7
370
    25
100
AcDbLine
 10
179.8371549792
 20
661.3228003761
 30
0.0
 11
179.8371549792
 21
660.7944946071
 31
0.0
  0
LINE
  5
7C
330
1F
100
AcDbEntity
  8
0
  6
Continuous
 62
     7
370
    25
100
AcDbLine
 10
187.8371544279
 20
660.7944946071
 30
0.0
 11
187.8371544279
 21
661.3228003761
 31
0.0
  0
LINE
  5
7D
330
1F
100
AcDbEntity
  8
0
  6
Continuous
 62
     7
370
    25
100
AcDbLine
 10
179.8371549792
 20
575.8107732317
 30
0.0
 11
179.8371549792
 21
575.2824600121
 31
0.0
  0
LINE
  5
7E
330
1F
100
AcDbEntity
  8
0
  6
Continuous
 62
     7
370
    25
100
AcDbLine
 10
187.8371544279
 20
575.2824600121
 30
0.0
 11
187.8371544279
 21
575.8107732317
 31
0.0
  0
LINE
  5
7F
330
1F
100
AcDbEntity
  8
0
  6
Continuous
 62
     7
370
    25
100
AcDbLine
 10
237.8371551729
 20
661.3228003761
 30
0.0
 11
237.8371551729
 21
660.7944946071
 31
0.0
  0
LINE
  5
80
330
1F
100
AcDbEntity
  8
0
  6
Continuous
 62
     7
370
    25
100
AcDbLine
 10
245.8371546216
 20
660.7944946071
 30
0.0
 11
245.8371546216
 21
661.3228003761
 31
0.0
  0
SPLINE
  5
81
330
1F
100
AcDbEntity
  8
0
  6
Continuous
 62
     7
370
    25
100
AcDbSpline
210
0.0
220
0.0
230
1.0
 70
     8
 71
     3
 72
    14
 73
    10
 74
     0
 42
0.000000001
 43
0.00000001
 40
0.0
 40
0.0
 40
0.0
 40
0.0
 40
0.0943756747076994
 40
0.2430649516939565
 40
0.3918025137052235
 40
0.5408572225311244
 40
0.6905730855618377
 40
0.8410957225527457
 40
1.0
 40
1.0
 40
1.0
 40
1.0
 10
248.5371556229518
 20
661.1527483245709
 30
0.0
 10
248.5245733327573
 20
661.4241000236469
 30
0.0
 10
248.4921675908351
 20
662.1229674789763
 30
0.0
 10
248.1674268656515
 20
663.2186895603348
 30
0.0
 10
247.5235847043831
 20
664.3491009789919
 30
0.0
 10
246.6193120292861
 20
665.3051266478418
 30
0.0
 10
245.508491258082
 20
666.0286677038487
 30
0.0
 10
244.2263800262752
 20
666.5162156844953
 30
0.0
 10
243.3085170053301
 20
666.5791836816747
 30
0.0
 10
242.8371541298554
 20
666.6115205070355
 30
0.0
  0
SPLINE
  5
82
330
1F
100
AcDbEntity
  8
0
  6
Continuous
 62
     7
370
    25
100
AcDbSpline
210
0.0
220
0.0
230
1.0
 70
     8
 71
     3
 72
    13
 73
     9
 74
     0
 42
0.000000001
 43
0.00000001
 40
0.0
 40
0.0
 40
0.0
 40
0.0
 40
0.1094075175861003
 40
0.2898196825864873
 40
0.4706860829316634
 40
0.6513337921101515
 40
0.8313280329874685
 40
1.0
 40
1.0
 40
1.0
 40
1.0
 10
183.8371556348727
 20
666.6115205070355
 30
0.0
 10
183.5642552316443
 20
666.6003143455656
 30
0.0
 10
182.8413441375402
 20
666.5706293089988
 30
0.0
 10
181.6963891146694
 20
666.2649907081442
 30
0.0
 10
180.4952812906619
 20
665.6414513050822
 30
0.0
 10
179.4876398767981
 20
664.7556997421829
 30
0.0
 10
178.7161508268912
 20
663.6940996341893
 30
0.0
 10
178.4500570665461
 20
662.8866553391434
 30
0.0
 10
178.3213306314871
 20
662.4960433027127
 30
0.0
  0
LINE
  5
83
330
1F
100
AcDbEntity
  8
0
  6
Continuous
 62
     7
370
    25
100
AcDbLine
 10
242.8371541299
 20
666.611520507
 30
0.0
 11
183.8371556349
 21
666.611520507
 31
0.0
  0
LINE
  5
84
330
1F
100
AcDbEntity
  8
0
  6
Continuous
 62
     7
370
    25
100
AcDbLine
 10
198.8371543683
 20
492.3899107879
 30
0.0
 11
198.8371543683
 21
490.8899105421
 31
0.0
  0
LINE
  5
85
330
1F
100
AcDbEntity
  8
0
  6
Continuous
 62
     7
370
    25
100
AcDbLine
 10
226.8371552325
 20
490.8899105421
 30
0.0
 11
226.8371552325
 21
492.3899107879
 31
0.0
  0
LINE
  5
86
330
1F
100
AcDbEntity
  8
0
  6
Continuous
 62
     7
370
    25
100
AcDbLine
 10
198.8371543683
 20
490.8899105421
 30
0.0
 11
202.1583307631
 21
490.5993453494
 31
0.0
  0
LINE
  5
87
330
1F
100
AcDbEntity
  8
0
  6
Continuous
 62
     7
370
    25
100
AcDbLine
 10
223.5159788377
 20
490.5993453494
 30
0.0
 11
226.8371552325
 21
490.8899105421
 31
0.0
  0
ARC
  5
88
330
1F
100
AcDbEntity
  8
0
  6
Continuous
 62
     7
370
    25
100
AcDbCircle
 10
202.0275975237
 20
489.1050533499
 30
0.0
 40
1.500000000000041
100
AcDbArc
 50
18.0
 51
85.0
  0
ARC
  5
89
330
1F
100
AcDbEntity
  8
0
  6
Continuous
 62
     7
370
    25
100
AcDbCircle
 10
223.6467120771
 20
489.1050533499
 30
0.0
 40
1.500000000000043
100
AcDbArc
 50
95.0
 51
162.0
  0
LINE
  5
8A
330
1F
100
AcDbEntity
  8
0
  6
Continuous
 62
     7
370
    25
100
AcDbLine
 10
203.4541823066
 20
489.5685789442
 30
0.0
 11
203.8371551878
 21
488.3899110636
 31
0.0
  0
LINE
  5
8B
330
1F
100
AcDbEntity
  8
0
  6
Continuous
 62
     7
370
    25
100
AcDbLine
 10
221.837154413
 20
488.3899110636
 30
0.0
 11
222.2201272942
 21
489.5685789442
 31
0.0
  0
LINE
  5
8C
330
1F
100
AcDbEntity
  8
0
  6
Continuous
 62
     7
370
    25
100
AcDbLine
 10
228.3371545471
 20
668.3899144909
 30
0.0
 11
228.3371545471
 21
669.5899050018
 31
0.0
  0
LINE
  5
8D
330
1F
100
AcDbEntity
  8
0
  6
Continuous
 62
     7
370
    25
100
AcDbLine
 10
197.3371550537
 20
669.5899050018
 30
0.0
 11
197.3371550537
 21
668.3899144909
 31
0.0
  0
LINE
  5
8E
330
1F
100
AcDbEntity
  8
0
  6
Continuous
 62
     7
370
    25
100
AcDbLine
 10
200.2745958142
 20
321.1899082443
 30
0.0
 11
200.2745958142
 21
322.1899102709
 31
0.0
  0
LINE
  5
8F
330
1F
100
AcDbEntity
  8
0
  6
Continuous
 62
     7
370
    25
100
AcDbLine
 10
191.4845954723
 20
322.1899102709
 30
0.0
 11
191.4845954723
 21
321.1899082443
 31
0.0
  0
LINE
  5
90
330
1F
100
AcDbEntity
  8
0
  6
Continuous
 62
     7
370
    25
100
AcDbLine
 10
161.7664795465
 20
321.1899082443
 30
0.0
 11
161.7664795465
 21
322.1899102709
 31
0.0
  0
LINE
  5
91
330
1F
100
AcDbEntity
  8
0
  6
Continuous
 62
     7
370
    25
100
AcDbLine
 10
152.9764782734
 20
322.1899102709
 30
0.0
 11
152.9764782734
 21
321.1899082443
 31
0.0
  0
LINE
  5
92
330
1F
100
AcDbEntity
  8
0
  6
Continuous
 62
     7
370
    25
100
AcDbLine
 10
272.6978313274
 20
321.1899082443
 30
0.0
 11
272.6978313274
 21
322.1899102709
 31
0.0
  0
LINE
  5
93
330
1F
100
AcDbEntity
  8
0
  6
Continuous
 62
     7
370
    25
100
AcDbLine
 10
263.9078300543
 20
322.1899102709
 30
0.0
 11
263.9078300543
 21
321.1899082443
 31
0.0
  0
LINE
  5
94
330
1F
100
AcDbEntity
  8
0
  6
Continuous
 62
     7
370
    25
100
AcDbLine
 10
270.802832032
 20
332.4899058124
 30
0.0
 11
270.802832032
 21
333.1899176618
 31
0.0
  0
LINE
  5
95
330
1F
100
AcDbEntity
  8
0
  6
Continuous
 62
     7
370
    25
100
AcDbLine
 10
275.3371548004
 20
322.1899102709
 30
0.0
 11
275.3371548004
 21
324.4899045011
 31
0.0
  0
LINE
  5
96
330
1F
100
AcDbEntity
  8
0
  6
Continuous
 62
     7
370
    25
100
AcDbLine
 10
184.7844634302
 20
322.1899102709
 30
0.0
 11
185.8844634242
 21
321.0899065515
 31
0.0
  0
LINE
  5
97
330
1F
100
AcDbEntity
  8
0
  6
Continuous
 62
     7
370
    25
100
AcDbLine
 10
239.7898461766
 20
321.0899065515
 30
0.0
 11
240.8898461707
 21
322.1899102709
 31
0.0
  0
LINE
  5
98
330
1F
100
AcDbEntity
  8
0
  6
Continuous
 62
     7
370
    25
100
AcDbLine
 10
150.3371548004
 20
324.4899045011
 30
0.0
 11
150.3371548004
 21
322.1899102709
 31
0.0
  0
LWPOLYLINE
  5
99
330
1F
100
AcDbEntity
  8
0
  6
Continuous
 62
     7
370
    25
100
AcDbPolyline
 90
        3
 70
   128
 43
0.0
 10
199.6857773609
 20
320.7402657053
 10
199.82482289
 20
320.6359277746
 10
199.9702498413
 20
320.5041270038
  0
ARC
  5
9A
330
1F
100
AcDbEntity
  8
0
  6
Continuous
 62
     7
370
    25
100
AcDbCircle
 10
227.1182731186
 20
319.0899106762
 30
0.0
 40
2.0
100
AcDbArc
 50
90.0
 51
135.0
  0
LINE
  5
9B
330
1F
100
AcDbEntity
  8
0
  6
Continuous
 62
     7
370
    25
100
AcDbLine
 10
199.9702498413
 20
320.5041270038
 30
0.0
 11
202.2844635047
 21
318.1899170658
 31
0.0
  0
LINE
  5
9C
330
1F
100
AcDbEntity
  8
0
  6
Continuous
 62
     7
370
    25
100
AcDbLine
 10
223.3898460962
 20
318.1899170658
 30
0.0
 11
225.7040597595
 21
320.5041270038
 31
0.0
  0
LINE
  5
9D
330
1F
100
AcDbEntity
  8
0
  6
Continuous
 62
     7
370
    25
100
AcDbLine
 10
196.6545421727
 20
554.389910706
 30
0.0
 11
196.6545421727
 21
545.3899110934
 31
0.0
  0
LINE
  5
9E
330
1F
100
AcDbEntity
  8
0
  6
Continuous
 62
     7
370
    25
100
AcDbLine
 10
185.574778179
 20
567.8740869543
 30
0.0
 11
185.4015503175
 21
558.3899113616
 31
0.0
  0
LINE
  5
9F
330
1F
100
AcDbEntity
  8
0
  6
Continuous
 62
     7
370
    25
100
AcDbLine
 10
176.1052038617
 20
643.4118579409
 30
0.0
 11
174.2388781257
 21
558.3899113616
 31
0.0
  0
ARC
  5
A0
330
1F
100
AcDbEntity
  8
0
  6
Continuous
 62
     7
370
    25
100
AcDbCircle
 10
177.1049612973
 20
643.3899106762
 30
0.0
 40
1.0
100
AcDbArc
 50
90.0
 51
178.7424962696
  0
LINE
  5
A1
330
1F
100
AcDbEntity
  8
0
  6
Continuous
 62
     7
370
    25
100
AcDbLine
 10
264.4304212279
 20
664.7904048941
 30
0.0
 11
259.423467154
 21
665.1612947962
 31
0.0
  0
LINE
  5
A2
330
1F
100
AcDbEntity
  8
0
  6
Continuous
 62
     7
370
    25
100
AcDbLine
 10
245.2734064407
 20
666.2094424745
 30
0.0
 11
244.778058315
 21
666.2461440346
 31
0.0
  0
LINE
  5
A3
330
1F
100
AcDbEntity
  8
0
  6
Continuous
 62
     7
370
    25
100
AcDbLine
 10
181.911025951
 20
666.3213054916
 30
0.0
 11
180.4009031601
 21
666.2094424745
 31
0.0
  0
LINE
  5
A4
330
1F
100
AcDbEntity
  8
0
  6
Continuous
 62
     7
370
    25
100
AcDbLine
 10
166.2527237184
 20
665.1614289066
 30
0.0
 11
161.2438883729
 21
664.7904048941
 31
0.0
  0
LINE
  5
A5
330
1F
100
AcDbEntity
  8
0
  6
Continuous
 62
     7
370
    25
100
AcDbLine
 10
279.3371554561
 20
555.3899090072
 30
0.0
 11
279.3371554561
 21
558.3899113616
 31
0.0
  0
ARC
  5
A6
330
1F
100
AcDbEntity
  8
0
  6
Continuous
 62
     7
370
    25
100
AcDbCircle
 10
278.3371548004
 20
555.3899106762
 30
0.0
 40
1.0
100
AcDbArc
 50
270.0
 51
0.0
  0
LINE
  5
A7
330
1F
100
AcDbEntity
  8
0
  6
Continuous
 62
     7
370
    25
100
AcDbLine
 10
261.6689901895
 20
545.3899110934
 30
0.0
 11
261.6689901895
 21
554.389910706
 31
0.0
  0
LINE
  5
A8
330
1F
100
AcDbEntity
  8
0
  6
Continuous
 62
     7
370
    25
100
AcDbLine
 10
164.9683442063
 20
645.9022443077
 30
0.0
 11
162.8079217024
 21
558.3899113616
 31
0.0
  0
LINE
  5
A9
330
1F
100
AcDbEntity
  8
0
  6
Continuous
 62
     7
370
    25
100
AcDbLine
 10
262.8663878984
 20
558.3899113616
 30
0.0
 11
260.7059653945
 21
645.9022443077
 31
0.0
  0
ARC
  5
AA
330
1F
100
AcDbEntity
  8
0
  6
Continuous
 62
     7
370
    25
100
AcDbCircle
 10
260.2061180883
 20
645.8899106762
 30
0.0
 40
0.5000000000000383
100
AcDbArc
 50
1.9985287228
 51
90.0
  0
ARC
  5
AB
330
1F
100
AcDbEntity
  8
0
  6
Continuous
 62
     7
370
    25
100
AcDbCircle
 10
165.4681915126
 20
645.8899106762
 30
0.0
 40
0.500000000000009
100
AcDbArc
 50
90.0
 51
179.287378315
  0
SPLINE
  5
AC
330
1F
100
AcDbEntity
  8
0
  6
Continuous
 62
     7
370
    25
100
AcDbSpline
210
0.0
220
0.0
230
1.0
 70
     8
 71
     3
 72
    12
 73
     8
 74
     0
 42
0.000000001
 43
0.00000001
 40
0.0
 40
0.0
 40
0.0
 40
0.0
 40
0.0766815268876902
 40
0.2569686186225958
 40
0.526393930561163
 40
0.865641348449492
 40
0.9999999999999999
 40
0.9999999999999999
 40
0.9999999999999999
 40
0.9999999999999999
 10
260.1852703936029
 20
646.3904063484051
 30
0.0
 10
260.1830011600698
 20
646.390463664976
 30
0.0
 10
260.1753966974307
 20
646.3906557393988
 30
0.0
 10
260.1168355523158
 20
646.4008052574895
 30
0.0
 10
260.007038735306
 20
646.4543206282865
 30
0.0
 10
259.9162444154388
 20
646.5575109130634
 30
0.0
 10
259.8987311036437
 20
646.6151889841354
 30
0.0
 10
259.8937627024579
 20
646.6315518400052
 30
0.0
  0
SPLINE
  5
AD
330
1F
100
AcDbEntity
  8
0
  6
Continuous
 62
     7
370
    25
100
AcDbSpline
210
0.0
220
0.0
230
1.0
 70
     8
 71
     3
 72
    13
 73
     9
 74
     0
 42
0.000000001
 43
0.00000001
 40
0.0
 40
0.0
 40
0.0
 40
0.0
 40
0.009569626244438
 40
0.2482812888787728
 40
0.5929970301014766
 40
0.8179330327794956
 40
0.9713853781163675
 40
0.9999999999999999
 40
0.9999999999999999
 40
0.9999999999999999
 40
0.9999999999999999
 10
165.7864105052877
 20
646.63822756022
 30
0.0
 10
165.7861835286015
 20
646.6372066997567
 30
0.0
 10
165.7802946816645
 20
646.6107207592257
 30
0.0
 10
165.7290116337859
 20
646.5121579526125
 30
0.0
 10
165.6106057517959
 20
646.4196064712834
 30
0.0
 10
165.5155731162162
 20
646.3909884285337
 30
0.0
 10
165.4799221695839
 20
646.39002026316
 30
0.0
 10
165.4845558590781
 20
646.3898774506256
 30
0.0
 10
165.4852841145921
 20
646.389855005441
 30
0.0
  0
LINE
  5
AE
330
1F
100
AcDbEntity
  8
0
  6
Continuous
 62
     7
370
    25
100
AcDbLine
 10
259.8734896727
 20
646.7059235355
 30
0.0
 11
259.4172980733
 21
665.4143016121
 31
0.0
  0
LINE
  5
AF
330
1F
100
AcDbEntity
  8
0
  6
Continuous
 62
     7
370
    25
100
AcDbLine
 10
166.2588890738
 20
665.4142271063
 30
0.0
 11
165.8026490457
 21
646.7078606865
 31
0.0
  0
ARC
  5
B0
330
1F
100
AcDbEntity
  8
0
  6
Continuous
 62
     7
370
    25
100
AcDbCircle
 10
258.417911007
 20
665.3899106762
 30
0.0
 40
1.0
100
AcDbArc
 50
1.398147763
 51
90.0
  0
ARC
  5
B1
330
1F
100
AcDbEntity
  8
0
  6
Continuous
 62
     7
370
    25
100
AcDbCircle
 10
167.2563985938
 20
665.3899106762
 30
0.0
 40
1.0
100
AcDbArc
 50
90.0
 51
178.601852237
  0
SPLINE
  5
B2
330
1F
100
AcDbEntity
  8
0
  6
Continuous
 62
     7
370
    25
100
AcDbSpline
210
0.0
220
0.0
230
1.0
 70
     8
 71
     3
 72
     9
 73
     5
 74
     0
 42
0.000000001
 43
0.00000001
 40
0.0
 40
0.0
 40
0.0
 40
0.0
 40
0.452552780046142
 40
0.9999999999999999
 40
0.9999999999999999
 40
0.9999999999999999
 40
0.9999999999999999
 10
259.8968397922445
 20
646.6294358751156
 30
0.0
 10
259.8891545965235
 20
646.6468719258236
 30
0.0
 10
259.8721727193596
 20
646.6854001406011
 30
0.0
 10
259.8743069007265
 20
646.6975651193505
 30
0.0
 10
259.8754752523828
 20
646.7042248031476
 30
0.0
  0
SPLINE
  5
B3
330
1F
100
AcDbEntity
  8
0
  6
Continuous
 62
     7
370
    25
100
AcDbSpline
210
0.0
220
0.0
230
1.0
 70
     8
 71
     3
 72
     9
 73
     5
 74
     0
 42
0.000000001
 43
0.00000001
 40
0.0
 40
0.0
 40
0.0
 40
0.0
 40
0.9960055356832955
 40
1.0
 40
1.0
 40
1.0
 40
1.0
 10
165.8001531011987
 20
646.709797837434
 30
0.0
 10
165.8035553329644
 20
646.6909657346608
 30
0.0
 10
165.8069712093262
 20
646.6720581060396
 30
0.0
 10
165.7864218086199
 20
646.6372193330437
 30
0.0
 10
165.786339724772
 20
646.6370801708081
 30
0.0
  0
LINE
  5
B4
330
1F
100
AcDbEntity
  8
0
  6
Continuous
 62
     7
370
    25
100
AcDbLine
 10
273.8371554859
 20
545.3899110934
 30
0.0
 11
273.8371554859
 21
554.389910706
 31
0.0
  0
ARC
  5
B5
330
1F
100
AcDbEntity
  8
0
  6
Continuous
 62
     7
370
    25
100
AcDbCircle
 10
263.9871903836
 20
658.8068029868
 30
0.0
 40
5.999999999999975
100
AcDbArc
 50
1.5622249168
 51
85.7636052009
  0
ARC
  5
B6
330
1F
100
AcDbEntity
  8
0
  6
Continuous
 62
     7
370
    25
100
AcDbCircle
 10
161.6871192172
 20
658.8068029868
 30
0.0
 40
6.00000000000002
100
AcDbArc
 50
94.2363947991
 51
178.4377750832
  0
LINE
  5
B7
330
1F
100
AcDbEntity
  8
0
  6
Continuous
 62
     7
370
    25
100
AcDbLine
 10
270.369346077
 20
644.8762844583
 30
0.0
 11
269.9849594481
 21
658.9703838608
 31
0.0
  0
LINE
  5
B8
330
1F
100
AcDbEntity
  8
0
  6
Continuous
 62
     7
370
    25
100
AcDbLine
 10
155.6893501527
 20
658.9703838608
 30
0.0
 11
155.3049635239
 21
644.8762844583
 31
0.0
  0
LINE
  5
B9
330
1F
100
AcDbEntity
  8
0
  6
Continuous
 62
     7
370
    25
100
AcDbLine
 10
268.432519222
 20
558.3899113616
 30
0.0
 11
266.1745090134
 21
643.4164623997
 31
0.0
  0
ARC
  5
BA
330
1F
100
AcDbEntity
  8
0
  6
Continuous
 62
     7
370
    25
100
AcDbCircle
 10
265.1748604174
 20
643.3899106762
 30
0.0
 40
1.000000000000034
100
AcDbArc
 50
1.5212200305
 51
90.0
  0
LINE
  5
BB
330
1F
100
AcDbEntity
  8
0
  6
Continuous
 62
     7
370
    25
100
AcDbLine
 10
160.3594895549
 20
571.7484112164
 30
0.0
 11
148.7152528114
 21
559.144781836
 31
0.0
  0
ARC
  5
BC
330
1F
100
AcDbEntity
  8
0
  6
Continuous
 62
     7
370
    25
100
AcDbCircle
 10
243.8371548004
 20
667.3185763333
 30
0.0
 40
1.000000000000002
100
AcDbArc
 50
180.0
 51
229.6359328214
  0
ARC
  5
BD
330
1F
100
AcDbEntity
  8
0
  6
Continuous
 62
     7
370
    25
100
AcDbCircle
 10
181.8371548004
 20
667.3185763333
 30
0.0
 40
1.000000000000034
100
AcDbArc
 50
274.2363947991
 51
0.0
  0
ARC
  5
BE
330
1F
100
AcDbEntity
  8
0
  6
Continuous
 62
     7
370
    25
100
AcDbCircle
 10
241.8371548004
 20
667.3899106762
 30
0.0
 40
1.000000000000114
100
AcDbArc
 50
0.0
 51
90.0
  0
ARC
  5
BF
330
1F
100
AcDbEntity
  8
0
  6
Continuous
 62
     7
370
    25
100
AcDbCircle
 10
183.8371548004
 20
667.3899106762
 30
0.0
 40
1.000000000000114
100
AcDbArc
 50
90.0
 51
180.0
  0
LINE
  5
C0
330
1F
100
AcDbEntity
  8
0
  6
Continuous
 62
     7
370
    25
100
AcDbLine
 10
242.8371541299
 20
667.3185806057
 30
0.0
 11
242.8371541299
 21
667.3899124643
 31
0.0
  0
LINE
  5
C1
330
1F
100
AcDbEntity
  8
0
  6
Continuous
 62
     7
370
    25
100
AcDbLine
 10
182.837155471
 20
667.3899124643
 30
0.0
 11
182.837155471
 21
667.3185806057
 31
0.0
  0
LINE
  5
C2
330
1F
100
AcDbEntity
  8
0
  6
Continuous
 62
     7
370
    25
100
AcDbLine
 10
274.4089391179
 20
558.3899113616
 30
0.0
 11
272.0694791622
 21
643.417416074
 31
0.0
  0
ARC
  5
C3
330
1F
100
AcDbEntity
  8
0
  6
Continuous
 62
     7
370
    25
100
AcDbCircle
 10
271.0698589107
 20
643.3899106762
 30
0.0
 40
1.000000000000013
100
AcDbArc
 50
1.5760457195
 51
90.0
  0
SPLINE
  5
C4
330
1F
100
AcDbEntity
  8
0
  6
Continuous
 62
     7
370
    25
100
AcDbSpline
210
0.0
220
0.0
230
1.0
 70
     8
 71
     3
 72
    11
 73
     7
 74
     0
 42
0.000000001
 43
0.00000001
 40
0.0
 40
0.0
 40
0.0
 40
0.0
 40
0.2596615625381776
 40
0.5451960331305071
 40
0.8642745539404956
 40
1.0
 40
1.0
 40
1.0
 40
1.0
 10
266.4192568607261
 20
644.3984936258175
 30
0.0
 10
266.3997500824022
 20
644.3955276880565
 30
0.0
 10
266.3587928530864
 20
644.3893002838691
 30
0.0
 10
266.3284112433334
 20
644.3895423670203
 30
0.0
 10
266.310355827179
 20
644.3931317416092
 30
0.0
 10
266.3157350634025
 20
644.3912247202717
 30
0.0
 10
266.3173403687408
 20
644.3906556150296
 30
0.0
  0
ARC
  5
C5
330
1F
100
AcDbEntity
  8
0
  6
Continuous
 62
     7
370
    25
100
AcDbCircle
 10
143.6330875753
 20
546.8899106762
 30
0.0
 40
0.5
100
AcDbArc
 50
180.0
 51
270.0
  0
LINE
  5
C6
330
1F
100
AcDbEntity
  8
0
  6
Continuous
 62
     7
370
    25
100
AcDbLine
 10
143.1330841131
 20
558.3899113616
 30
0.0
 11
143.1330841131
 21
546.889910408
 31
0.0
  0
LINE
  5
C7
330
1F
100
AcDbEntity
  8
0
  6
Continuous
 62
     7
370
    25
100
AcDbLine
 10
278.0576001949
 20
558.3899113616
 30
0.0
 11
275.7266339011
 21
643.4173117658
 31
0.0
  0
ARC
  5
C8
330
1F
100
AcDbEntity
  8
0
  6
Continuous
 62
     7
370
    25
100
AcDbCircle
 10
274.7270072423
 20
643.3899106762
 30
0.0
 40
1.0
100
AcDbArc
 50
1.5703339601
 51
90.0
  0
LINE
  5
C9
330
1F
100
AcDbEntity
  8
0
  6
Continuous
 62
     7
370
    25
100
AcDbLine
 10
149.7363250799
 20
643.4172521612
 30
0.0
 11
147.4963005729
 21
561.5274812362
 31
0.0
  0
ARC
  5
CA
330
1F
100
AcDbEntity
  8
0
  6
Continuous
 62
     7
370
    25
100
AcDbCircle
 10
150.7359502099
 20
643.3899106762
 30
0.0
 40
1.000000000000023
100
AcDbArc
 50
90.0
 51
178.4331139741
  0
ARC
  5
CB
330
1F
100
AcDbEntity
  8
0
  6
Continuous
 62
     7
370
    25
100
AcDbCircle
 10
270.8691588981
 20
644.8899106762
 30
0.0
 40
0.5000000000000199
100
AcDbArc
 50
181.5622249168
 51
235.4544397603
  0
ARC
  5
CC
330
1F
100
AcDbEntity
  8
0
  6
Continuous
 62
     7
370
    25
100
AcDbCircle
 10
154.8051507027
 20
644.8899106762
 30
0.0
 40
0.4999999999999936
100
AcDbArc
 50
337.2820162845
 51
358.4377750832
  0
LINE
  5
CD
330
1F
100
AcDbEntity
  8
0
  6
Continuous
 62
     7
370
    25
100
AcDbLine
 10
155.1105108209
 20
644.4939802667
 30
0.0
 11
155.0886098392
 21
644.4780211231
 31
0.0
  0
LINE
  5
CE
330
1F
100
AcDbEntity
  8
0
  6
Continuous
 62
     7
370
    25
100
AcDbLine
 10
276.0041605778
 20
545.3899110934
 30
0.0
 11
276.0041605778
 21
554.389910706
 31
0.0
  0
ARC
  5
CF
330
1F
100
AcDbEntity
  8
0
  6
Continuous
 62
     7
370
    25
100
AcDbCircle
 10
282.0412220255
 20
546.8899106762
 30
0.0
 40
0.5
100
AcDbArc
 50
270.0
 51
0.0
  0
LINE
  5
D0
330
1F
100
AcDbEntity
  8
0
  6
Continuous
 62
     7
370
    25
100
AcDbLine
 10
282.5412254877
 20
546.889910408
 30
0.0
 11
282.5412254877
 21
558.3899113616
 31
0.0
  0
LINE
  5
D1
330
1F
100
AcDbEntity
  8
0
  6
Continuous
 62
     7
370
    25
100
AcDbLine
 10
204.4371550999
 20
494.3899106501
 30
0.0
 11
204.4371550999
 21
492.3899107879
 31
0.0
  0
LINE
  5
D2
330
1F
100
AcDbEntity
  8
0
  6
Continuous
 62
     7
370
    25
100
AcDbLine
 10
221.2371545009
 20
492.3899107879
 30
0.0
 11
221.2371545009
 21
494.3899106501
 31
0.0
  0
LINE
  5
D3
330
1F
100
AcDbEntity
  8
0
  6
Continuous
 62
     7
370
    25
100
AcDbLine
 10
205.0871549271
 20
486.3899107358
 30
0.0
 11
205.0871549271
 21
483.389910244
 31
0.0
  0
LINE
  5
D4
330
1F
100
AcDbEntity
  8
0
  6
Continuous
 62
     7
370
    25
100
AcDbLine
 10
220.5871546737
 20
483.389910244
 30
0.0
 11
220.5871546737
 21
486.3899107358
 31
0.0
  0
LINE
  5
D5
330
1F
100
AcDbEntity
  8
0
  6
Continuous
 62
     7
370
    25
100
AcDbLine
 10
205.4371547982
 20
488.3899110636
 30
0.0
 11
205.4371547982
 21
486.3899107358
 31
0.0
  0
LINE
  5
D6
330
1F
100
AcDbEntity
  8
0
  6
Continuous
 62
     7
370
    25
100
AcDbLine
 10
220.2371548026
 20
486.3899107358
 30
0.0
 11
220.2371548026
 21
488.3899110636
 31
0.0
  0
LINE
  5
D7
330
1F
100
AcDbEntity
  8
0
  6
Continuous
 62
     7
370
    25
100
AcDbLine
 10
205.587155009
 20
483.389910244
 30
0.0
 11
205.587155009
 21
344.48991523
 31
0.0
  0
LINE
  5
D8
330
1F
100
AcDbEntity
  8
0
  6
Continuous
 62
     7
370
    25
100
AcDbLine
 10
220.0871545918
 20
344.48991523
 30
0.0
 11
220.0871545918
 21
483.389910244
 31
0.0
  0
SPLINE
  5
D9
330
1F
100
AcDbEntity
  8
0
  6
Continuous
 62
     7
370
    25
100
AcDbSpline
210
0.0
220
0.0
230
1.0
 70
     8
 71
     3
 72
    10
 73
     6
 74
     0
 42
0.000000001
 43
0.00000001
 40
0.0
 40
0.0
 40
0.0
 40
0.0
 40
0.2150240828241528
 40
0.795293418400323
 40
1.0
 40
1.0
 40
1.0
 40
1.0
 10
150.3368716783457
 20
335.4447613736966
 30
0.0
 10
150.3368842177875
 20
335.4250998009017
 30
0.0
 10
150.3369305964787
 20
335.3523790189602
 30
0.0
 10
150.3371107845929
 20
335.2689877079207
 30
0.0
 10
150.337488447008
 20
335.2225268955179
 30
0.0
 10
150.337586934083
 20
335.210410811601
 30
0.0
  0
ARC
  5
DA
330
1F
100
AcDbEntity
  8
0
  6
Continuous
 62
     7
370
    25
100
AcDbCircle
 10
276.8371548004
 20
508.3899106762
 30
0.0
 40
3.0
100
AcDbArc
 50
180.0
 51
270.0
  0
LINE
  5
DB
330
1F
100
AcDbEntity
  8
0
  6
Continuous
 62
     7
370
    25
100
AcDbLine
 10
148.8371517606
 20
497.3899106762
 30
0.0
 11
148.8371517606
 21
492.960624796
 31
0.0
  0
LINE
  5
DC
330
1F
100
AcDbEntity
  8
0
  6
Continuous
 62
     7
370
    25
100
AcDbLine
 10
276.8371578402
 20
494.3899106501
 30
0.0
 11
276.8371578402
 21
497.3899106762
 31
0.0
  0
LINE
  5
DD
330
1F
100
AcDbEntity
  8
0
  6
Continuous
 62
     7
370
    25
100
AcDbLine
 10
150.3371548004
 20
335.464758732
 30
0.0
 11
150.3371548004
 21
324.4899045011
 31
0.0
  0
LINE
  5
DE
330
1F
100
AcDbEntity
  8
0
  6
Continuous
 62
     7
370
    25
100
AcDbLine
 10
275.3371548004
 20
324.4899045011
 30
0.0
 11
275.3371548004
 21
330.4899166605
 31
0.0
  0
LINE
  5
DF
330
1F
100
AcDbEntity
  8
0
  6
Continuous
 62
     7
370
    25
100
AcDbLine
 10
273.8371554859
 20
545.2972705743
 30
0.0
 11
273.8371554859
 21
545.3899110934
 31
0.0
  0
LINE
  5
E0
330
1F
100
AcDbEntity
  8
0
  6
Continuous
 62
     7
370
    25
100
AcDbLine
 10
273.8371554859
 20
508.3899106166
 30
0.0
 11
273.8371554859
 21
529.8631879768
 31
0.0
  0
ARC
  5
E1
330
1F
100
AcDbEntity
  8
0
  6
Continuous
 62
     7
370
    25
100
AcDbCircle
 10
237.8371548004
 20
345.4899106762
 30
0.0
 40
1.0
100
AcDbArc
 50
180.0
 51
270.0
  0
ARC
  5
E2
330
1F
100
AcDbEntity
  8
0
  6
Continuous
 62
     7
370
    25
100
AcDbCircle
 10
187.8371548004
 20
345.4899106762
 30
0.0
 40
1.000000000000028
100
AcDbArc
 50
270.0
 51
0.0
  0
ARC
  5
E3
330
1F
100
AcDbEntity
  8
0
  6
Continuous
 62
     7
370
    25
100
AcDbCircle
 10
235.8371548004
 20
346.4899106762
 30
0.0
 40
1.0
100
AcDbArc
 50
0.0
 51
90.0
  0
LINE
  5
E4
330
1F
100
AcDbEntity
  8
0
  6
Continuous
 62
     7
370
    25
100
AcDbLine
 10
236.837155009
 20
345.4899172565
 30
0.0
 11
236.837155009
 21
346.4899043819
 31
0.0
  0
ARC
  5
E5
330
1F
100
AcDbEntity
  8
0
  6
Continuous
 62
     7
370
    25
100
AcDbCircle
 10
189.8371548004
 20
346.4899106762
 30
0.0
 40
1.0
100
AcDbArc
 50
90.0
 51
180.0
  0
LINE
  5
E6
330
1F
100
AcDbEntity
  8
0
  6
Continuous
 62
     7
370
    25
100
AcDbLine
 10
188.8371545918
 20
346.4899043819
 30
0.0
 11
188.8371545918
 21
345.4899172565
 31
0.0
  0
SPLINE
  5
E7
330
1F
100
AcDbEntity
  8
0
  6
Continuous
 62
     7
370
    25
100
AcDbSpline
210
0.0
220
0.0
230
1.0
 70
     8
 71
     3
 72
    14
 73
    10
 74
     0
 42
0.000000001
 43
0.00000001
 40
0.0
 40
0.0
 40
0.0
 40
0.0
 40
0.0065145468180115
 40
0.1395564536854564
 40
0.2293583483648898
 40
0.3354909044052385
 40
0.5525617282060092
 40
0.7977205876091644
 40
0.9999999999999999
 40
0.9999999999999999
 40
0.9999999999999999
 40
0.9999999999999999
 10
273.8358888871603
 20
529.6884457847455
 30
0.0
 10
273.8358745188485
 20
529.6875780612371
 30
0.0
 10
273.8355667168317
 20
529.6689894442555
 30
0.0
 10
273.836664874372
 20
529.7221207280711
 30
0.0
 10
273.8538255689265
 20
529.8770591655286
 30
0.0
 10
273.9137913024301
 20
530.206261412887
 30
0.0
 10
274.0983210289443
 20
530.726250520269
 30
0.0
 10
274.4385417824259
 20
531.289582651854
 30
0.0
 10
274.7761578570859
 20
531.5739457833382
 30
0.0
 10
274.928788477891
 20
531.7025016328671
 30
0.0
  0
SPLINE
  5
E8
330
1F
100
AcDbEntity
  8
0
  6
Continuous
 62
     7
370
    25
100
AcDbSpline
210
0.0
220
0.0
230
1.0
 70
     8
 71
     3
 72
    14
 73
    10
 74
     0
 42
0.000000001
 43
0.00000001
 40
0.0
 40
0.0
 40
0.0
 40
0.0
 40
0.1369178399009471
 40
0.3969565593275441
 40
0.6091690218825413
 40
0.7621822969931796
 40
0.848320574101625
 40
0.9178434077472414
 40
1.0
 40
1.0
 40
1.0
 40
1.0
 10
274.1060469396048
 20
544.7167138835766
 30
0.0
 10
274.0798029140562
 20
544.7424959942293
 30
0.0
 10
274.0037153998786
 20
544.8172443100387
 30
0.0
 10
273.9256093490419
 20
544.9636440577063
 30
0.0
 10
273.8685709188992
 20
545.1195373594092
 30
0.0
 10
273.8463050166248
 20
545.2358621083839
 30
0.0
 10
273.83975216058
 20
545.2978152587558
 30
0.0
 10
273.837800841321
 20
545.3277710405054
 30
0.0
 10
273.8375127144027
 20
545.3358433724844
 30
0.0
 10
273.8373566515379
 20
545.3402157208302
 30
0.0
  0
SPLINE
  5
E9
330
1F
100
AcDbEntity
  8
0
  6
Continuous
 62
     7
370
    25
100
AcDbSpline
210
0.0
220
0.0
230
1.0
 70
     8
 71
     3
 72
    10
 73
     6
 74
     0
 42
0.000000001
 43
0.00000001
 40
0.0
 40
0.0
 40
0.0
 40
0.0
 40
0.689135639133635
 40
0.9752747445992624
 40
1.0
 40
1.0
 40
1.0
 40
1.0
 10
273.9133898265295
 20
332.3658685466626
 30
0.0
 10
273.7846884999604
 20
332.4161415186815
 30
0.0
 10
273.6025485172466
 20
332.4872885573217
 30
0.0
 10
273.3408869369443
 20
332.4906129626602
 30
0.0
 10
273.3034733823577
 20
332.4897508638752
 30
0.0
 10
273.300497616046
 20
332.4896822950223
 30
0.0
  0
LINE
  5
EA
330
1F
100
AcDbEntity
  8
0
  6
Continuous
 62
     7
370
    25
100
AcDbLine
 10
148.0991643019
 20
561.6899113438
 30
0.0
 11
151.0666448719
 21
561.6899113438
 31
0.0
  0
LINE
  5
EB
330
1F
100
AcDbEntity
  8
0
  6
Continuous
 62
     7
370
    25
100
AcDbLine
 10
241.3221549339
 20
575.500292637
 30
0.0
 11
241.3221549339
 21
574.3643547675
 31
0.0
  0
ARC
  5
EC
330
1F
100
AcDbEntity
  8
0
  6
Continuous
 62
     7
370
    25
100
AcDbCircle
 10
241.8371548973
 20
631.1080008717
 30
0.0
 40
56.74598310157482
100
AcDbArc
 50
269.4800032035
 51
270.5199967965
  0
LINE
  5
ED
330
1F
100
AcDbEntity
  8
0
  6
Continuous
 62
     7
370
    25
100
AcDbLine
 10
242.3521548606
 20
574.3643547675
 30
0.0
 11
242.3521548606
 21
575.500292637
 31
0.0
  0
ARC
  5
EE
330
1F
100
AcDbEntity
  8
0
  6
Continuous
 62
     7
370
    25
100
AcDbCircle
 10
241.8776171493
 20
576.3587711566
 30
0.0
 40
0.9809033631919793
100
AcDbArc
 50
298.932324083
 51
327.5066767867
  0
ARC
  5
EF
330
1F
100
AcDbEntity
  8
0
  6
Continuous
 62
     7
370
    25
100
AcDbCircle
 10
241.8963914472
 20
558.1486284241
 30
0.0
 40
17.70167667672987
100
AcDbArc
 50
83.7558823126
 51
87.381947222
  0
ARC
  5
F0
330
1F
100
AcDbEntity
  8
0
  6
Continuous
 62
     7
370
    25
100
AcDbCircle
 10
231.1334416246
 20
576.2292313656
 30
0.0
 40
12.69749508846903
100
AcDbArc
 50
357.8157494519
 51
2.1842505481
  0
ARC
  5
F1
330
1F
100
AcDbEntity
  8
0
  6
Continuous
 62
     7
370
    25
100
AcDbCircle
 10
241.8963914472
 20
559.1165109977
 30
0.0
 40
17.70167667672566
100
AcDbArc
 50
83.7558823126
 51
87.381947222
  0
ARC
  5
F2
330
1F
100
AcDbEntity
  8
0
  6
Continuous
 62
     7
370
    25
100
AcDbCircle
 10
241.8776283949
 20
576.2727612365
 30
0.0
 40
0.9808978134064652
100
AcDbArc
 50
32.4940369921
 51
61.0682472692
  0
LINE
  5
F3
330
1F
100
AcDbEntity
  8
0
  6
Continuous
 62
     7
370
    25
100
AcDbLine
 10
242.3521548606
 20
577.1312396309
 30
0.0
 11
242.3521548606
 21
578.0941005132
 31
0.0
  0
ARC
  5
F4
330
1F
100
AcDbEntity
  8
0
  6
Continuous
 62
     7
370
    25
100
AcDbCircle
 10
241.8371548973
 20
569.2571172655
 30
0.0
 40
8.851977060657473
100
AcDbArc
 50
86.6647003659
 51
93.3352996341
  0
LINE
  5
F5
330
1F
100
AcDbEntity
  8
0
  6
Continuous
 62
     7
370
    25
100
AcDbLine
 10
241.3221549339
 20
578.0941005132
 30
0.0
 11
241.3221549339
 21
577.1312396309
 31
0.0
  0
ARC
  5
F6
330
1F
100
AcDbEntity
  8
0
  6
Continuous
 62
     7
370
    25
100
AcDbCircle
 10
241.7966813996
 20
576.2727612365
 30
0.0
 40
0.9808978134063823
100
AcDbArc
 50
118.9317527308
 51
147.5059630079
  0
ARC
  5
F7
330
1F
100
AcDbEntity
  8
0
  6
Continuous
 62
     7
370
    25
100
AcDbCircle
 10
241.7779183473
 20
559.1165109977
 30
0.0
 40
17.70167667672566
100
AcDbArc
 50
92.618052778
 51
96.2441176874
  0
ARC
  5
F8
330
1F
100
AcDbEntity
  8
0
  6
Continuous
 62
     7
370
    25
100
AcDbCircle
 10
252.5408681699
 20
576.2292313656
 30
0.0
 40
12.69749508846903
100
AcDbArc
 50
177.8157494519
 51
182.1842505481
  0
ARC
  5
F9
330
1F
100
AcDbEntity
  8
0
  6
Continuous
 62
     7
370
    25
100
AcDbCircle
 10
241.7779183473
 20
558.1486284241
 30
0.0
 40
17.70167667672133
100
AcDbArc
 50
92.618052778
 51
96.2441176874
  0
ARC
  5
FA
330
1F
100
AcDbEntity
  8
0
  6
Continuous
 62
     7
370
    25
100
AcDbCircle
 10
241.7966926452
 20
576.3587711566
 30
0.0
 40
0.9809033631918935
100
AcDbArc
 50
212.4933232133
 51
241.067675917
  0
LINE
  5
FB
330
1F
100
AcDbEntity
  8
0
  6
Continuous
 62
     7
370
    25
100
AcDbLine
 10
241.3221549339
 20
574.6183748624
 30
0.0
 11
242.3521548606
 21
574.6183748624
 31
0.0
  0
LWPOLYLINE
  5
FC
330
1F
100
AcDbEntity
  8
0
  6
Continuous
 62
     7
370
    25
100
AcDbPolyline
 90
       22
 70
   128
 43
0.0
 10
245.8371546216
 20
575.8107732317
 10
245.6594470985
 20
576.9186894676
 10
245.1421085842
 20
577.9281686327
 10
244.3311128862
 20
578.7494982859
 10
243.2985182948
 20
579.3097148916
 10
242.1360749848
 20
579.5590336701
 10
240.9470703549
 20
579.4753040454
 10
239.8371555008
 20
579.0659691474
 10
238.9049481697
 20
578.3673878095
 10
238.2332801915
 20
577.4416457197
 10
237.8818307168
 20
576.3709898373
 10
237.8818307168
 20
575.250556626
 10
238.2332801915
 20
574.1799081942
 10
238.9049481697
 20
573.2541661045
 10
239.8371555008
 20
572.5555847666
 10
240.9470703549
 20
572.146242418
 10
242.1360749848
 20
572.0625127932
 10
243.2985182948
 20
572.3118315718
 10
244.3311128862
 20
572.8720481774
 10
245.1421085842
 20
573.6933852813
 10
245.6594470985
 20
574.7028569958
 10
245.8371546216
 20
575.8107732317
  0
ARC
  5
FD
330
1F
100
AcDbEntity
  8
0
  6
Continuous
 62
     7
370
    25
100
AcDbCircle
 10
241.8371548973
 20
575.4684167093
 30
0.0
 40
4.004319878312867
100
AcDbArc
 50
182.6617172277
 51
357.3382827723
  0
LINE
  5
FE
330
1F
100
AcDbEntity
  8
0
  6
Continuous
 62
     7
370
    25
100
AcDbLine
 10
242.8204741425
 20
575.8261214277
 30
0.0
 11
242.8204741425
 21
576.0263334295
 31
0.0
  0
LINE
  5
FF
330
1F
100
AcDbEntity
  8
0
  6
Continuous
 62
     7
370
    25
100
AcDbLine
 10
243.8217111028
 20
576.7131726524
 30
0.0
 11
242.8204741425
 21
576.0263334295
 31
0.0
  0
LINE
  5
100
330
1F
100
AcDbEntity
  8
0
  6
Continuous
 62
     7
370
    25
100
AcDbLine
 10
239.8525986917
 20
576.7131726524
 30
0.0
 11
240.853835652
 21
576.0263334295
 31
0.0
  0
LINE
  5
101
330
1F
100
AcDbEntity
  8
0
  6
Continuous
 62
     7
370
    25
100
AcDbLine
 10
240.853835652
 20
576.0263334295
 30
0.0
 11
240.853835652
 21
575.8261214277
 31
0.0
  0
LINE
  5
102
330
1F
100
AcDbEntity
  8
0
  6
Continuous
 62
     7
370
    25
100
AcDbLine
 10
242.514633397
 20
576.0263334295
 30
0.0
 11
242.8204741425
 21
576.0263334295
 31
0.0
  0
SPLINE
  5
103
330
1F
100
AcDbEntity
  8
0
  6
Continuous
 62
     7
370
    25
100
AcDbSpline
210
0.0
220
0.0
230
1.0
 70
     8
 71
     3
 72
    10
 73
     6
 74
     0
 42
0.000000001
 43
0.00000001
 40
0.0
 40
0.0
 40
0.0
 40
0.0
 40
0.1133743060308143
 40
0.930016455192713
 40
1.0
 40
1.0
 40
1.0
 40
1.0
 10
242.7049640662593
 20
576.7997111460545
 30
0.0
 10
242.6979991729402
 20
576.7704773755057
 30
0.0
 10
242.6408657216123
 20
576.5306709448456
 30
0.0
 10
242.5777815094974
 20
576.2728572924707
 30
0.0
 10
242.5192531817141
 20
576.0443686032394
 30
0.0
 10
242.5146333969754
 20
576.0263334295132
 30
0.0
  0
SPLINE
  5
104
330
1F
100
AcDbEntity
  8
0
  6
Continuous
 62
     7
370
    25
100
AcDbSpline
210
0.0
220
0.0
230
1.0
 70
    24
 71
     3
 72
    10
 73
     6
 74
     0
 42
0.000000001
 43
0.00000001
 40
0.0
 40
0.0
 40
0.0
 40
0.0
 40
0.0699820333442674
 40
0.8866221496150902
 40
1.0
 40
1.0
 40
1.0
 40
1.0
 10
242.352154860608
 20
576.179018177686
 30
0.0
 10
242.352154860608
 20
576.2013946762169
 30
0.0
 10
242.352154860608
 20
576.4848888572255
 30
0.0
 10
242.352154860608
 20
576.8019801898556
 30
0.0
 10
242.352154860608
 20
577.0954615234385
 30
0.0
 10
242.352154860608
 20
577.1312396308758
 30
0.0
  0
ARC
  5
105
330
1F
100
AcDbEntity
  8
0
  6
Continuous
 62
     7
370
    25
100
AcDbCircle
 10
241.8719610128
 20
575.5052302038
 30
0.0
 40
0.8273913011548409
100
AcDbArc
 50
39.0364546869
 51
54.523364837
  0
SPLINE
  5
106
330
1F
100
AcDbEntity
  8
0
  6
Continuous
 62
     7
370
    25
100
AcDbSpline
210
0.0
220
0.0
230
1.0
 70
     8
 71
     3
 72
    10
 73
     6
 74
     0
 42
0.000000001
 43
0.00000001
 40
0.0
 40
0.0
 40
0.0
 40
0.0
 40
0.0699835448072868
 40
0.8866256939691856
 40
1.0
 40
1.0
 40
1.0
 40
1.0
 10
241.1596763975543
 20
576.0263334295132
 30
0.0
 10
241.1550566128156
 20
576.0443686032394
 30
0.0
 10
241.0965282850323
 20
576.2728572924706
 30
0.0
 10
241.0334440729174
 20
576.5306709448457
 30
0.0
 10
240.9763106215895
 20
576.7704773755057
 30
0.0
 10
240.9693457282704
 20
576.7997111460545
 30
0.0
  0
LINE
  5
107
330
1F
100
AcDbEntity
  8
0
  6
Continuous
 62
     7
370
    25
100
AcDbLine
 10
240.853835652
 20
576.0263334295
 30
0.0
 11
241.1596763976
 21
576.0263334295
 31
0.0
  0
SPLINE
  5
108
330
1F
100
AcDbEntity
  8
0
  6
Continuous
 62
     7
370
    25
100
AcDbSpline
210
0.0
220
0.0
230
1.0
 70
    24
 71
     3
 72
    10
 73
     6
 74
     0
 42
0.000000001
 43
0.00000001
 40
0.0
 40
0.0
 40
0.0
 40
0.0
 40
0.1133778503849098
 40
0.9300179666557326
 40
1.0
 40
1.0
 40
1.0
 40
1.0
 10
241.3221549339217
 20
577.1312396308758
 30
0.0
 10
241.3221549339217
 20
577.0954615234385
 30
0.0
 10
241.3221549339217
 20
576.8019801898556
 30
0.0
 10
241.3221549339217
 20
576.4848888572255
 30
0.0
 10
241.3221549339217
 20
576.2013946762169
 30
0.0
 10
241.3221549339217
 20
576.179018177686
 30
0.0
  0
ARC
  5
109
330
1F
100
AcDbEntity
  8
0
  6
Continuous
 62
     7
370
    25
100
AcDbCircle
 10
241.8023487817
 20
575.5052302038
 30
0.0
 40
0.8273913011547991
100
AcDbArc
 50
125.476635163
 51
140.9635453132
  0
LINE
  5
10A
330
1F
100
AcDbEntity
  8
0
  6
Continuous
 62
     7
370
    25
100
AcDbLine
 10
242.3521548606
 20
576.4664094231
 30
0.0
 11
241.3221549339
 21
576.4664094231
 31
0.0
  0
ARC
  5
10B
330
1F
100
AcDbEntity
  8
0
  6
Continuous
 62
     7
370
    25
100
AcDbCircle
 10
241.8371548973
 20
575.6356808003
 30
0.0
 40
0.8933026050567398
100
AcDbArc
 50
234.7943897006
 51
305.2056102994
  0
ARC
  5
10C
330
1F
100
AcDbEntity
  8
0
  6
Continuous
 62
     7
370
    25
100
AcDbCircle
 10
241.9095849988
 20
575.5343734457
 30
0.0
 40
0.7798129197664407
100
AcDbArc
 50
16.9082892504
 51
39.1142826208
  0
ARC
  5
10D
330
1F
100
AcDbEntity
  8
0
  6
Continuous
 62
     7
370
    25
100
AcDbCircle
 10
241.7647247957
 20
575.5343734457
 30
0.0
 40
0.7798129197664407
100
AcDbArc
 50
140.8857173792
 51
163.0917107496
  0
ARC
  5
10E
330
1F
100
AcDbEntity
  8
0
  6
Continuous
 62
     7
370
    25
100
AcDbCircle
 10
241.8371548973
 20
575.4491109357
 30
0.0
 40
0.8933026050567234
100
AcDbArc
 50
54.7943897006
 51
125.2056102994
  0
LINE
  5
10F
330
1F
100
AcDbEntity
  8
0
  6
Continuous
 62
     7
370
    25
100
AcDbLine
 10
183.3221547402
 20
661.0123197815
 30
0.0
 11
183.3221547402
 21
659.8763893625
 31
0.0
  0
ARC
  5
110
330
1F
100
AcDbEntity
  8
0
  6
Continuous
 62
     7
370
    25
100
AcDbCircle
 10
183.8371547036
 20
716.4596525909
 30
0.0
 40
56.58560684953282
100
AcDbArc
 50
269.4785293758
 51
270.5214706242
  0
LINE
  5
111
330
1F
100
AcDbEntity
  8
0
  6
Continuous
 62
     7
370
    25
100
AcDbLine
 10
184.3521546669
 20
659.8763893625
 30
0.0
 11
184.3521546669
 21
661.0123197815
 31
0.0
  0
ARC
  5
112
330
1F
100
AcDbEntity
  8
0
  6
Continuous
 62
     7
370
    25
100
AcDbCircle
 10
183.8776366312
 20
661.870777363
 30
0.0
 40
0.9808755198462606
100
AcDbArc
 50
298.9319099034
 51
327.5070909663
  0
ARC
  5
113
330
1F
100
AcDbEntity
  8
0
  6
Continuous
 62
     7
370
    25
100
AcDbCircle
 10
183.8965937803
 20
643.6647837399
 30
0.0
 40
17.69754356329505
100
AcDbArc
 50
83.755077843
 51
87.3819917371
  0
ARC
  5
114
330
1F
100
AcDbEntity
  8
0
  6
Continuous
 62
     7
370
    25
100
AcDbCircle
 10
173.1332067428
 20
661.7412547848
 30
0.0
 40
12.69772974800544
100
AcDbArc
 50
357.8157730156
 51
2.1842269844
  0
ARC
  5
115
330
1F
100
AcDbEntity
  8
0
  6
Continuous
 62
     7
370
    25
100
AcDbCircle
 10
183.8971974154
 20
644.6374196812
 30
0.0
 40
17.69276014604508
100
AcDbArc
 50
83.7553492126
 51
87.3832402773
  0
ARC
  5
116
330
1F
100
AcDbEntity
  8
0
  6
Continuous
 62
     7
370
    25
100
AcDbCircle
 10
183.8777166261
 20
661.7848943217
 30
0.0
 40
0.9807623175987027
100
AcDbArc
 50
32.4912248604
 51
61.0697742699
  0
LINE
  5
117
330
1F
100
AcDbEntity
  8
0
  6
Continuous
 62
     7
370
    25
100
AcDbLine
 10
184.3521546669
 20
662.6432667753
 30
0.0
 11
184.3521546669
 21
663.6061351082
 31
0.0
  0
ARC
  5
118
330
1F
100
AcDbEntity
  8
0
  6
Continuous
 62
     7
370
    25
100
AcDbCircle
 10
183.8371547036
 20
654.765240603
 30
0.0
 40
8.855881696024612
100
AcDbArc
 50
86.6661725907
 51
93.3338274093
  0
LINE
  5
119
330
1F
100
AcDbEntity
  8
0
  6
Continuous
 62
     7
370
    25
100
AcDbLine
 10
183.3221547402
 20
663.6061351082
 30
0.0
 11
183.3221547402
 21
662.6432667753
 31
0.0
  0
ARC
  5
11A
330
1F
100
AcDbEntity
  8
0
  6
Continuous
 62
     7
370
    25
100
AcDbCircle
 10
183.796592781
 20
661.7848943217
 30
0.0
 40
0.9807623175986889
100
AcDbArc
 50
118.9302257301
 51
147.5087751396
  0
ARC
  5
11B
330
1F
100
AcDbEntity
  8
0
  6
Continuous
 62
     7
370
    25
100
AcDbCircle
 10
183.7771119917
 20
644.6374196812
 30
0.0
 40
17.69276014604508
100
AcDbArc
 50
92.6167597227
 51
96.2446507874
  0
ARC
  5
11C
330
1F
100
AcDbEntity
  8
0
  6
Continuous
 62
     7
370
    25
100
AcDbCircle
 10
194.5411026643
 20
661.7412547848
 30
0.0
 40
12.69772974800547
100
AcDbArc
 50
177.8157730156
 51
182.1842269844
  0
ARC
  5
11D
330
1F
100
AcDbEntity
  8
0
  6
Continuous
 62
     7
370
    25
100
AcDbCircle
 10
183.7777156268
 20
643.6647837399
 30
0.0
 40
17.69754356329505
100
AcDbArc
 50
92.6180082629
 51
96.244922157
  0
ARC
  5
11E
330
1F
100
AcDbEntity
  8
0
  6
Continuous
 62
     7
370
    25
100
AcDbCircle
 10
183.7966727759
 20
661.870777363
 30
0.0
 40
0.9808755198461973
100
AcDbArc
 50
212.4929090337
 51
241.0680900966
  0
LINE
  5
11F
330
1F
100
AcDbEntity
  8
0
  6
Continuous
 62
     7
370
    25
100
AcDbLine
 10
183.3221547402
 20
660.1304094574
 30
0.0
 11
184.3521546669
 21
660.1304094574
 31
0.0
  0
LWPOLYLINE
  5
120
330
1F
100
AcDbEntity
  8
0
  6
Continuous
 62
     7
370
    25
100
AcDbPolyline
 90
       22
 70
   128
 43
0.0
 10
187.8371544279
 20
661.3228003761
 10
187.6594469048
 20
662.430716612
 10
187.1421102531
 20
663.4401957771
 10
186.3311145551
 20
664.261532881
 10
185.2985181011
 20
664.821742036
 10
184.1360747911
 20
665.0710682651
 10
182.9470701612
 20
664.9873386404
 10
181.837155307
 20
664.5779888412
 10
180.9049461133
 20
663.8794224045
 10
180.2332799978
 20
662.9536728641
 10
179.8818323858
 20
661.8830244324
 10
179.8818323858
 20
660.762591221
 10
180.2332799978
 20
659.6919278881
 10
180.9049461133
 20
658.7661932489
 10
181.837155307
 20
658.067611911
 10
182.9470701612
 20
657.658277013
 10
184.1360747911
 20
657.5745473883
 10
185.2985181011
 20
657.8238587162
 10
186.3311145551
 20
658.3840827724
 10
187.1421102531
 20
659.2054198763
 10
187.6594469048
 20
660.2148841402
 10
187.8371544279
 20
661.3228003761
  0
ARC
  5
121
330
1F
100
AcDbEntity
  8
0
  6
Continuous
 62
     7
370
    25
100
AcDbCircle
 10
183.8371547036
 20
660.980441679
 30
0.0
 40
4.004319431335833
100
AcDbArc
 50
182.661579653
 51
357.338420347
  0
LINE
  5
122
330
1F
100
AcDbEntity
  8
0
  6
Continuous
 62
     7
370
    25
100
AcDbLine
 10
184.8204739488
 20
661.3381485721
 30
0.0
 11
184.8204739488
 21
661.5383605739
 31
0.0
  0
LINE
  5
123
330
1F
100
AcDbEntity
  8
0
  6
Continuous
 62
     7
370
    25
100
AcDbLine
 10
185.8217109091
 20
662.2251997969
 30
0.0
 11
184.8204739488
 21
661.5383605739
 31
0.0
  0
LINE
  5
124
330
1F
100
AcDbEntity
  8
0
  6
Continuous
 62
     7
370
    25
100
AcDbLine
 10
181.852598498
 20
662.2251997969
 30
0.0
 11
182.8538354583
 21
661.5383605739
 31
0.0
  0
LINE
  5
125
330
1F
100
AcDbEntity
  8
0
  6
Continuous
 62
     7
370
    25
100
AcDbLine
 10
182.8538354583
 20
661.5383605739
 30
0.0
 11
182.8538354583
 21
661.3381485721
 31
0.0
  0
LINE
  5
126
330
1F
100
AcDbEntity
  8
0
  6
Continuous
 62
     7
370
    25
100
AcDbLine
 10
184.5146332033
 20
661.5383605739
 30
0.0
 11
184.8204739488
 21
661.5383605739
 31
0.0
  0
SPLINE
  5
127
330
1F
100
AcDbEntity
  8
0
  6
Continuous
 62
     7
370
    25
100
AcDbSpline
210
0.0
220
0.0
230
1.0
 70
     8
 71
     3
 72
    10
 73
     6
 74
     0
 42
0.000000001
 43
0.00000001
 40
0.0
 40
0.0
 40
0.0
 40
0.0
 40
0.1133763887804045
 40
0.9300163769143686
 40
1.0
 40
1.0
 40
1.0
 40
1.0
 10
184.7049638725445
 20
662.311730839906
 30
0.0
 10
184.6979989917093
 20
662.2824997934356
 30
0.0
 10
184.6408666971489
 20
662.0427201336291
 30
0.0
 10
184.5777810748154
 20
661.7848830309583
 30
0.0
 10
184.5192529852182
 20
661.5563957027788
 30
0.0
 10
184.5146332032606
 20
661.5383605739453
 30
0.0
  0
SPLINE
  5
128
330
1F
100
AcDbEntity
  8
0
  6
Continuous
 62
     7
370
    25
100
AcDbSpline
210
0.0
220
0.0
230
1.0
 70
    24
 71
     3
 72
    10
 73
     6
 74
     0
 42
0.000000001
 43
0.00000001
 40
0.0
 40
0.0
 40
0.0
 40
0.0
 40
0.0699789603276333
 40
0.8866236773051216
 40
0.9999999999999999
 40
0.9999999999999999
 40
0.9999999999999999
 40
0.9999999999999999
 10
184.3521546668932
 20
661.6910378715374
 30
0.0
 10
184.3521546668932
 20
661.713414370009
 30
0.0
 10
184.3521546668933
 20
661.9969214879642
 30
0.0
 10
184.3521546668932
 20
662.3140266553811
 30
0.0
 10
184.3521546668932
 20
662.6074913023891
 30
0.0
 10
184.3521546668932
 20
662.6432667753079
 30
0.0
  0
ARC
  5
129
330
1F
100
AcDbEntity
  8
0
  6
Continuous
 62
     7
370
    25
100
AcDbCircle
 10
183.8722224304
 20
661.0175028736
 30
0.0
 40
0.8270334606871426
100
AcDbArc
 50
39.0346573213
 51
54.5279527425
  0
SPLINE
  5
12A
330
1F
100
AcDbEntity
  8
0
  6
Continuous
 62
     7
370
    25
100
AcDbSpline
210
0.0
220
0.0
230
1.0
 70
     8
 71
     3
 72
    10
 73
     6
 74
     0
 42
0.000000001
 43
0.00000001
 40
0.0
 40
0.0
 40
0.0
 40
0.0
 40
0.0699836230856314
 40
0.8866236112195955
 40
1.0
 40
1.0
 40
1.0
 40
1.0
 10
183.1596762038395
 20
661.5383605739453
 30
0.0
 10
183.1550564218819
 20
661.5563957027788
 30
0.0
 10
183.0965283322847
 20
661.7848830309583
 30
0.0
 10
183.0334427099512
 20
662.0427201336292
 30
0.0
 10
182.9763104153908
 20
662.2824997934356
 30
0.0
 10
182.9693455345556
 20
662.311730839906
 30
0.0
  0
LINE
  5
12B
330
1F
100
AcDbEntity
  8
0
  6
Continuous
 62
     7
370
    25
100
AcDbLine
 10
182.8538354583
 20
661.5383605739
 30
0.0
 11
183.1596762038
 21
661.5383605739
 31
0.0
  0
SPLINE
  5
12C
330
1F
100
AcDbEntity
  8
0
  6
Continuous
 62
     7
370
    25
100
AcDbSpline
210
0.0
220
0.0
230
1.0
 70
    24
 71
     3
 72
    10
 73
     6
 74
     0
 42
0.000000001
 43
0.00000001
 40
0.0
 40
0.0
 40
0.0
 40
0.0
 40
0.1133763226948784
 40
0.9300210396723666
 40
0.9999999999999999
 40
0.9999999999999999
 40
0.9999999999999999
 40
0.9999999999999999
 10
183.3221547402069
 20
662.6432667753079
 30
0.0
 10
183.3221547402069
 20
662.6074913023891
 30
0.0
 10
183.3221547402069
 20
662.3140266553811
 30
0.0
 10
183.3221547402069
 20
661.9969214879643
 30
0.0
 10
183.3221547402069
 20
661.713414370009
 30
0.0
 10
183.3221547402069
 20
661.6910378715374
 30
0.0
  0
ARC
  5
12D
330
1F
100
AcDbEntity
  8
0
  6
Continuous
 62
     7
370
    25
100
AcDbCircle
 10
183.8020869767
 20
661.0175028736
 30
0.0
 40
0.8270334606871591
100
AcDbArc
 50
125.4720472575
 51
140.9653426787
  0
LINE
  5
12E
330
1F
100
AcDbEntity
  8
0
  6
Continuous
 62
     7
370
    25
100
AcDbLine
 10
184.3521546669
 20
661.9784365675
 30
0.0
 11
183.3221547402
 21
661.9784365675
 31
0.0
  0
ARC
  5
12F
330
1F
100
AcDbEntity
  8
0
  6
Continuous
 62
     7
370
    25
100
AcDbCircle
 10
183.8371547036
 20
661.1476669262
 30
0.0
 40
0.893263001887973
100
AcDbArc
 50
234.7925973724
 51
305.2074026276
  0
ARC
  5
130
330
1F
100
AcDbEntity
  8
0
  6
Continuous
 62
     7
370
    25
100
AcDbCircle
 10
183.9097927955
 20
661.0465176026
 30
0.0
 40
0.7795777237231695
100
AcDbArc
 50
16.9039830803
 51
39.1172537736
  0
ARC
  5
131
330
1F
100
AcDbEntity
  8
0
  6
Continuous
 62
     7
370
    25
100
AcDbCircle
 10
183.7645166116
 20
661.0465176026
 30
0.0
 40
0.7795777237231695
100
AcDbArc
 50
140.8827462264
 51
163.0960169197
  0
ARC
  5
132
330
1F
100
AcDbEntity
  8
0
  6
Continuous
 62
     7
370
    25
100
AcDbCircle
 10
183.8371547036
 20
660.9611790987
 30
0.0
 40
0.893263001887973
100
AcDbArc
 50
54.7925973724
 51
125.2074026276
  0
LINE
  5
133
330
1F
100
AcDbEntity
  8
0
  6
Continuous
 62
     7
370
    25
100
AcDbLine
 10
183.3221547402
 20
575.500292637
 30
0.0
 11
183.3221547402
 21
574.3643547675
 31
0.0
  0
ARC
  5
134
330
1F
100
AcDbEntity
  8
0
  6
Continuous
 62
     7
370
    25
100
AcDbCircle
 10
183.8371547035
 20
631.1080008717
 30
0.0
 40
56.74598310157482
100
AcDbArc
 50
269.4800032035
 51
270.5199967965
  0
LINE
  5
135
330
1F
100
AcDbEntity
  8
0
  6
Continuous
 62
     7
370
    25
100
AcDbLine
 10
184.3521546669
 20
574.3643547675
 30
0.0
 11
184.3521546669
 21
575.500292637
 31
0.0
  0
ARC
  5
136
330
1F
100
AcDbEntity
  8
0
  6
Continuous
 62
     7
370
    25
100
AcDbCircle
 10
183.8776169556
 20
576.3587711566
 30
0.0
 40
0.9809033631919793
100
AcDbArc
 50
298.932324083
 51
327.5066767867
  0
ARC
  5
137
330
1F
100
AcDbEntity
  8
0
  6
Continuous
 62
     7
370
    25
100
AcDbCircle
 10
183.8963912535
 20
558.1486284241
 30
0.0
 40
17.70167667672987
100
AcDbArc
 50
83.7558823126
 51
87.381947222
  0
ARC
  5
138
330
1F
100
AcDbEntity
  8
0
  6
Continuous
 62
     7
370
    25
100
AcDbCircle
 10
173.1334414309
 20
576.2292313656
 30
0.0
 40
12.69749508846903
100
AcDbArc
 50
357.8157494519
 51
2.1842505481
  0
ARC
  5
139
330
1F
100
AcDbEntity
  8
0
  6
Continuous
 62
     7
370
    25
100
AcDbCircle
 10
183.8963912535
 20
559.1165109977
 30
0.0
 40
17.70167667672566
100
AcDbArc
 50
83.7558823126
 51
87.381947222
  0
ARC
  5
13A
330
1F
100
AcDbEntity
  8
0
  6
Continuous
 62
     7
370
    25
100
AcDbCircle
 10
183.8776282012
 20
576.2727612365
 30
0.0
 40
0.9808978134064652
100
AcDbArc
 50
32.4940369921
 51
61.0682472692
  0
LINE
  5
13B
330
1F
100
AcDbEntity
  8
0
  6
Continuous
 62
     7
370
    25
100
AcDbLine
 10
184.3521546669
 20
577.1312396309
 30
0.0
 11
184.3521546669
 21
578.0941005132
 31
0.0
  0
ARC
  5
13C
330
1F
100
AcDbEntity
  8
0
  6
Continuous
 62
     7
370
    25
100
AcDbCircle
 10
183.8371547035
 20
569.2571172655
 30
0.0
 40
8.851977060657473
100
AcDbArc
 50
86.6647003659
 51
93.3352996341
  0
LINE
  5
13D
330
1F
100
AcDbEntity
  8
0
  6
Continuous
 62
     7
370
    25
100
AcDbLine
 10
183.3221547402
 20
578.0941005132
 30
0.0
 11
183.3221547402
 21
577.1312396309
 31
0.0
  0
ARC
  5
13E
330
1F
100
AcDbEntity
  8
0
  6
Continuous
 62
     7
370
    25
100
AcDbCircle
 10
183.7966812059
 20
576.2727612365
 30
0.0
 40
0.9808978134063823
100
AcDbArc
 50
118.9317527308
 51
147.5059630079
  0
ARC
  5
13F
330
1F
100
AcDbEntity
  8
0
  6
Continuous
 62
     7
370
    25
100
AcDbCircle
 10
183.7779181536
 20
559.1165109977
 30
0.0
 40
17.70167667672566
100
AcDbArc
 50
92.618052778
 51
96.2441176874
  0
ARC
  5
140
330
1F
100
AcDbEntity
  8
0
  6
Continuous
 62
     7
370
    25
100
AcDbCircle
 10
194.5408679762
 20
576.2292313656
 30
0.0
 40
12.69749508846906
100
AcDbArc
 50
177.8157494519
 51
182.1842505481
  0
ARC
  5
141
330
1F
100
AcDbEntity
  8
0
  6
Continuous
 62
     7
370
    25
100
AcDbCircle
 10
183.7779181536
 20
558.1486284241
 30
0.0
 40
17.70167667672133
100
AcDbArc
 50
92.618052778
 51
96.2441176874
  0
ARC
  5
142
330
1F
100
AcDbEntity
  8
0
  6
Continuous
 62
     7
370
    25
100
AcDbCircle
 10
183.7966924515
 20
576.3587711566
 30
0.0
 40
0.9809033631918935
100
AcDbArc
 50
212.4933232133
 51
241.067675917
  0
LINE
  5
143
330
1F
100
AcDbEntity
  8
0
  6
Continuous
 62
     7
370
    25
100
AcDbLine
 10
183.3221547402
 20
574.6183748624
 30
0.0
 11
184.3521546669
 21
574.6183748624
 31
0.0
  0
LWPOLYLINE
  5
144
330
1F
100
AcDbEntity
  8
0
  6
Continuous
 62
     7
370
    25
100
AcDbPolyline
 90
       22
 70
   128
 43
0.0
 10
187.8371544279
 20
575.8107732317
 10
187.6594469048
 20
576.9186894676
 10
187.1421102531
 20
577.9281686327
 10
186.3311145551
 20
578.7494982859
 10
185.2985181011
 20
579.3097148916
 10
184.1360747911
 20
579.5590336701
 10
182.9470701612
 20
579.4753040454
 10
181.837155307
 20
579.0659691474
 10
180.9049461133
 20
578.3673878095
 10
180.2332799978
 20
577.4416457197
 10
179.8818323858
 20
576.3709898373
 10
179.8818323858
 20
575.250556626
 10
180.2332799978
 20
574.1799081942
 10
180.9049461133
 20
573.2541661045
 10
181.837155307
 20
572.5555847666
 10
182.9470701612
 20
572.146242418
 10
184.1360747911
 20
572.0625127932
 10
185.2985181011
 20
572.3118315718
 10
186.3311145551
 20
572.8720481774
 10
187.1421102531
 20
573.6933852813
 10
187.6594469048
 20
574.7028569958
 10
187.8371544279
 20
575.8107732317
  0
ARC
  5
145
330
1F
100
AcDbEntity
  8
0
  6
Continuous
 62
     7
370
    25
100
AcDbCircle
 10
183.8371547035
 20
575.4684150281
 30
0.0
 40
4.004319800239585
100
AcDbArc
 50
182.6616931981
 51
357.3383068019
  0
LINE
  5
146
330
1F
100
AcDbEntity
  8
0
  6
Continuous
 62
     7
370
    25
100
AcDbLine
 10
184.8204739488
 20
575.8261214277
 30
0.0
 11
184.8204739488
 21
576.0263334295
 31
0.0
  0
LINE
  5
147
330
1F
100
AcDbEntity
  8
0
  6
Continuous
 62
     7
370
    25
100
AcDbLine
 10
185.8217109091
 20
576.7131726524
 30
0.0
 11
184.8204739488
 21
576.0263334295
 31
0.0
  0
LINE
  5
148
330
1F
100
AcDbEntity
  8
0
  6
Continuous
 62
     7
370
    25
100
AcDbLine
 10
181.852598498
 20
576.7131726524
 30
0.0
 11
182.8538354583
 21
576.0263334295
 31
0.0
  0
LINE
  5
149
330
1F
100
AcDbEntity
  8
0
  6
Continuous
 62
     7
370
    25
100
AcDbLine
 10
182.8538354583
 20
576.0263334295
 30
0.0
 11
182.8538354583
 21
575.8261214277
 31
0.0
  0
LINE
  5
14A
330
1F
100
AcDbEntity
  8
0
  6
Continuous
 62
     7
370
    25
100
AcDbLine
 10
184.5146332033
 20
576.0263334295
 30
0.0
 11
184.8204739488
 21
576.0263334295
 31
0.0
  0
SPLINE
  5
14B
330
1F
100
AcDbEntity
  8
0
  6
Continuous
 62
     7
370
    25
100
AcDbSpline
210
0.0
220
0.0
230
1.0
 70
     8
 71
     3
 72
    10
 73
     6
 74
     0
 42
0.000000001
 43
0.00000001
 40
0.0
 40
0.0
 40
0.0
 40
0.0
 40
0.1133743060308143
 40
0.930016455192713
 40
1.0
 40
1.0
 40
1.0
 40
1.0
 10
184.7049638725442
 20
576.7997111460545
 30
0.0
 10
184.6979989792251
 20
576.7704773755057
 30
0.0
 10
184.6408655278972
 20
576.5306709448456
 30
0.0
 10
184.5777813157823
 20
576.2728572924707
 30
0.0
 10
184.519252987999
 20
576.0443686032394
 30
0.0
 10
184.5146332032603
 20
576.0263334295132
 30
0.0
  0
SPLINE
  5
14C
330
1F
100
AcDbEntity
  8
0
  6
Continuous
 62
     7
370
    25
100
AcDbSpline
210
0.0
220
0.0
230
1.0
 70
    24
 71
     3
 72
    10
 73
     6
 74
     0
 42
0.000000001
 43
0.00000001
 40
0.0
 40
0.0
 40
0.0
 40
0.0
 40
0.0699820333442674
 40
0.8866221496150902
 40
1.0
 40
1.0
 40
1.0
 40
1.0
 10
184.3521546668929
 20
576.179018177686
 30
0.0
 10
184.3521546668929
 20
576.2013946762169
 30
0.0
 10
184.3521546668929
 20
576.4848888572255
 30
0.0
 10
184.3521546668929
 20
576.8019801898556
 30
0.0
 10
184.3521546668929
 20
577.0954615234385
 30
0.0
 10
184.3521546668929
 20
577.1312396308758
 30
0.0
  0
ARC
  5
14D
330
1F
100
AcDbEntity
  8
0
  6
Continuous
 62
     7
370
    25
100
AcDbCircle
 10
183.8719608191
 20
575.5052302038
 30
0.0
 40
0.8273913011548409
100
AcDbArc
 50
39.0364546869
 51
54.523364837
  0
SPLINE
  5
14E
330
1F
100
AcDbEntity
  8
0
  6
Continuous
 62
     7
370
    25
100
AcDbSpline
210
0.0
220
0.0
230
1.0
 70
    24
 71
     3
 72
    10
 73
     6
 74
     0
 42
0.000000001
 43
0.00000001
 40
0.0
 40
0.0
 40
0.0
 40
0.0
 40
0.1133778503849098
 40
0.9300179666557326
 40
1.0
 40
1.0
 40
1.0
 40
1.0
 10
183.3221547402066
 20
577.1312396308758
 30
0.0
 10
183.3221547402066
 20
577.0954615234385
 30
0.0
 10
183.3221547402066
 20
576.8019801898556
 30
0.0
 10
183.3221547402066
 20
576.4848888572255
 30
0.0
 10
183.3221547402066
 20
576.2013946762169
 30
0.0
 10
183.3221547402066
 20
576.179018177686
 30
0.0
  0
ARC
  5
14F
330
1F
100
AcDbEntity
  8
0
  6
Continuous
 62
     7
370
    25
100
AcDbCircle
 10
183.802348588
 20
575.5052302038
 30
0.0
 40
0.8273913011547991
100
AcDbArc
 50
125.476635163
 51
140.9635453132
  0
SPLINE
  5
150
330
1F
100
AcDbEntity
  8
0
  6
Continuous
 62
     7
370
    25
100
AcDbSpline
210
0.0
220
0.0
230
1.0
 70
     8
 71
     3
 72
    10
 73
     6
 74
     0
 42
0.000000001
 43
0.00000001
 40
0.0
 40
0.0
 40
0.0
 40
0.0
 40
0.0699835448072868
 40
0.8866256939691856
 40
1.0
 40
1.0
 40
1.0
 40
1.0
 10
183.1596762038392
 20
576.0263334295132
 30
0.0
 10
183.1550564191005
 20
576.0443686032394
 30
0.0
 10
183.0965280913172
 20
576.2728572924706
 30
0.0
 10
183.0334438792023
 20
576.5306709448457
 30
0.0
 10
182.9763104278744
 20
576.7704773755057
 30
0.0
 10
182.9693455345553
 20
576.7997111460545
 30
0.0
  0
LINE
  5
151
330
1F
100
AcDbEntity
  8
0
  6
Continuous
 62
     7
370
    25
100
AcDbLine
 10
182.8538354583
 20
576.0263334295
 30
0.0
 11
183.1596762038
 21
576.0263334295
 31
0.0
  0
LINE
  5
152
330
1F
100
AcDbEntity
  8
0
  6
Continuous
 62
     7
370
    25
100
AcDbLine
 10
184.3521546669
 20
576.4664094231
 30
0.0
 11
183.3221547402
 21
576.4664094231
 31
0.0
  0
ARC
  5
153
330
1F
100
AcDbEntity
  8
0
  6
Continuous
 62
     7
370
    25
100
AcDbCircle
 10
183.8371547035
 20
575.6356808003
 30
0.0
 40
0.8933026050567398
100
AcDbArc
 50
234.7943897006
 51
305.2056102994
  0
ARC
  5
154
330
1F
100
AcDbEntity
  8
0
  6
Continuous
 62
     7
370
    25
100
AcDbCircle
 10
183.9095848051
 20
575.5343734457
 30
0.0
 40
0.7798129197664407
100
AcDbArc
 50
16.9082892504
 51
39.1142826208
  0
ARC
  5
155
330
1F
100
AcDbEntity
  8
0
  6
Continuous
 62
     7
370
    25
100
AcDbCircle
 10
183.764724602
 20
575.5343734457
 30
0.0
 40
0.7798129197664407
100
AcDbArc
 50
140.8857173792
 51
163.0917107496
  0
ARC
  5
156
330
1F
100
AcDbEntity
  8
0
  6
Continuous
 62
     7
370
    25
100
AcDbCircle
 10
183.8371547035
 20
575.4491109357
 30
0.0
 40
0.8933026050567234
100
AcDbArc
 50
54.7943897006
 51
125.2056102994
  0
ARC
  5
157
330
1F
100
AcDbEntity
  8
0
  6
Continuous
 62
     7
370
    25
100
AcDbCircle
 10
241.896593974
 20
643.6647837399
 30
0.0
 40
17.69754356329505
100
AcDbArc
 50
83.755077843
 51
87.3819917371
  0
ARC
  5
158
330
1F
100
AcDbEntity
  8
0
  6
Continuous
 62
     7
370
    25
100
AcDbCircle
 10
231.1332069365
 20
661.7412547848
 30
0.0
 40
12.69772974800541
100
AcDbArc
 50
357.8157730156
 51
2.1842269844
  0
ARC
  5
159
330
1F
100
AcDbEntity
  8
0
  6
Continuous
 62
     7
370
    25
100
AcDbCircle
 10
241.8971976091
 20
644.6374196812
 30
0.0
 40
17.69276014604508
100
AcDbArc
 50
83.7553492126
 51
87.3832402773
  0
ARC
  5
15A
330
1F
100
AcDbEntity
  8
0
  6
Continuous
 62
     7
370
    25
100
AcDbCircle
 10
241.8777168198
 20
661.7848943217
 30
0.0
 40
0.9807623175987027
100
AcDbArc
 50
32.4912248604
 51
61.0697742699
  0
LINE
  5
15B
330
1F
100
AcDbEntity
  8
0
  6
Continuous
 62
     7
370
    25
100
AcDbLine
 10
242.3521548606
 20
662.6432667753
 30
0.0
 11
242.3521548606
 21
663.6061351082
 31
0.0
  0
ARC
  5
15C
330
1F
100
AcDbEntity
  8
0
  6
Continuous
 62
     7
370
    25
100
AcDbCircle
 10
241.8371548973
 20
654.765240603
 30
0.0
 40
8.855881696024612
100
AcDbArc
 50
86.6661725907
 51
93.3338274093
  0
LINE
  5
15D
330
1F
100
AcDbEntity
  8
0
  6
Continuous
 62
     7
370
    25
100
AcDbLine
 10
241.3221549339
 20
663.6061351082
 30
0.0
 11
241.3221549339
 21
662.6432667753
 31
0.0
  0
ARC
  5
15E
330
1F
100
AcDbEntity
  8
0
  6
Continuous
 62
     7
370
    25
100
AcDbCircle
 10
241.7965929747
 20
661.7848943217
 30
0.0
 40
0.9807623175986889
100
AcDbArc
 50
118.9302257301
 51
147.5087751396
  0
ARC
  5
15F
330
1F
100
AcDbEntity
  8
0
  6
Continuous
 62
     7
370
    25
100
AcDbCircle
 10
241.7771121854
 20
644.6374196812
 30
0.0
 40
17.69276014604508
100
AcDbArc
 50
92.6167597227
 51
96.2446507874
  0
ARC
  5
160
330
1F
100
AcDbEntity
  8
0
  6
Continuous
 62
     7
370
    25
100
AcDbCircle
 10
252.541102858
 20
661.7412547848
 30
0.0
 40
12.69772974800547
100
AcDbArc
 50
177.8157730156
 51
182.1842269844
  0
ARC
  5
161
330
1F
100
AcDbEntity
  8
0
  6
Continuous
 62
     7
370
    25
100
AcDbCircle
 10
241.7777158205
 20
643.6647837399
 30
0.0
 40
17.69754356329505
100
AcDbArc
 50
92.6180082629
 51
96.244922157
  0
ARC
  5
162
330
1F
100
AcDbEntity
  8
0
  6
Continuous
 62
     7
370
    25
100
AcDbCircle
 10
241.7966729696
 20
661.870777363
 30
0.0
 40
0.9808755198461973
100
AcDbArc
 50
212.4929090337
 51
241.0680900966
  0
LINE
  5
163
330
1F
100
AcDbEntity
  8
0
  6
Continuous
 62
     7
370
    25
100
AcDbLine
 10
241.3221549339
 20
661.0123197815
 30
0.0
 11
241.3221549339
 21
659.8763893625
 31
0.0
  0
ARC
  5
164
330
1F
100
AcDbEntity
  8
0
  6
Continuous
 62
     7
370
    25
100
AcDbCircle
 10
241.8371548973
 20
716.4596525909
 30
0.0
 40
56.58560684953282
100
AcDbArc
 50
269.4785293758
 51
270.5214706242
  0
LINE
  5
165
330
1F
100
AcDbEntity
  8
0
  6
Continuous
 62
     7
370
    25
100
AcDbLine
 10
242.3521548606
 20
659.8763893625
 30
0.0
 11
242.3521548606
 21
661.0123197815
 31
0.0
  0
ARC
  5
166
330
1F
100
AcDbEntity
  8
0
  6
Continuous
 62
     7
370
    25
100
AcDbCircle
 10
241.8776368249
 20
661.870777363
 30
0.0
 40
0.9808755198462606
100
AcDbArc
 50
298.9319099034
 51
327.5070909663
  0
LINE
  5
167
330
1F
100
AcDbEntity
  8
0
  6
Continuous
 62
     7
370
    25
100
AcDbLine
 10
241.3221549339
 20
660.1304094574
 30
0.0
 11
242.3521548606
 21
660.1304094574
 31
0.0
  0
LWPOLYLINE
  5
168
330
1F
100
AcDbEntity
  8
0
  6
Continuous
 62
     7
370
    25
100
AcDbPolyline
 90
       22
 70
   128
 43
0.0
 10
241.8371539659
 20
665.0815735838
 10
240.6581349767
 20
664.9145762703
 10
239.583874876
 20
664.4284407875
 10
238.7098286397
 20
663.6663656017
 10
238.1136592574
 20
662.6960317871
 10
237.8483403571
 20
661.6037021658
 10
237.9374437131
 20
660.4863981983
 10
238.3730530835
 20
659.4434212229
 10
239.1164645649
 20
658.5674266598
 10
240.101619447
 20
657.9362730762
 10
241.2409864463
 20
657.6060186407
 10
242.4333233483
 20
657.6060186407
 10
243.5726903475
 20
657.9362730762
 10
244.5578452296
 20
658.5674266598
 10
245.301256711
 20
659.4434212229
 10
245.7368660815
 20
660.4863981983
 10
245.8259713001
 20
661.6037021658
 10
245.5606486745
 20
662.6960317871
 10
244.9644792921
 20
663.6663656017
 10
244.0904367812
 20
664.4284407875
 10
243.0161748178
 20
664.9145762703
 10
241.8371539659
 20
665.0815735838
  0
ARC
  5
169
330
1F
100
AcDbEntity
  8
0
  6
Continuous
 62
     7
370
    25
100
AcDbCircle
 10
241.8371548973
 20
660.9788824132
 30
0.0
 40
4.004247327231016
100
AcDbArc
 50
182.6392925731
 51
357.3607074269
  0
LINE
  5
16A
330
1F
100
AcDbEntity
  8
0
  6
Continuous
 62
     7
370
    25
100
AcDbLine
 10
242.8204741425
 20
661.3381485721
 30
0.0
 11
242.8204741425
 21
661.5383605739
 31
0.0
  0
LINE
  5
16B
330
1F
100
AcDbEntity
  8
0
  6
Continuous
 62
     7
370
    25
100
AcDbLine
 10
243.8217111028
 20
662.2251997969
 30
0.0
 11
242.8204741425
 21
661.5383605739
 31
0.0
  0
LINE
  5
16C
330
1F
100
AcDbEntity
  8
0
  6
Continuous
 62
     7
370
    25
100
AcDbLine
 10
239.8525986917
 20
662.2251997969
 30
0.0
 11
240.853835652
 21
661.5383605739
 31
0.0
  0
LINE
  5
16D
330
1F
100
AcDbEntity
  8
0
  6
Continuous
 62
     7
370
    25
100
AcDbLine
 10
240.853835652
 20
661.5383605739
 30
0.0
 11
240.853835652
 21
661.3381485721
 31
0.0
  0
LINE
  5
16E
330
1F
100
AcDbEntity
  8
0
  6
Continuous
 62
     7
370
    25
100
AcDbLine
 10
242.514633397
 20
661.5383605739
 30
0.0
 11
242.8204741425
 21
661.5383605739
 31
0.0
  0
SPLINE
  5
16F
330
1F
100
AcDbEntity
  8
0
  6
Continuous
 62
     7
370
    25
100
AcDbSpline
210
0.0
220
0.0
230
1.0
 70
     8
 71
     3
 72
    10
 73
     6
 74
     0
 42
0.000000001
 43
0.00000001
 40
0.0
 40
0.0
 40
0.0
 40
0.0
 40
0.1133763887804045
 40
0.9300163769143686
 40
1.0
 40
1.0
 40
1.0
 40
1.0
 10
242.7049640662596
 20
662.311730839906
 30
0.0
 10
242.6979991854244
 20
662.2824997934356
 30
0.0
 10
242.640866890864
 20
662.0427201336291
 30
0.0
 10
242.5777812685305
 20
661.7848830309583
 30
0.0
 10
242.5192531789333
 20
661.5563957027788
 30
0.0
 10
242.5146333969757
 20
661.5383605739453
 30
0.0
  0
ARC
  5
170
330
1F
100
AcDbEntity
  8
0
  6
Continuous
 62
     7
370
    25
100
AcDbCircle
 10
241.8722226241
 20
661.0175028736
 30
0.0
 40
0.8270334606871426
100
AcDbArc
 50
39.0346573213
 51
54.5279527425
  0
SPLINE
  5
171
330
1F
100
AcDbEntity
  8
0
  6
Continuous
 62
     7
370
    25
100
AcDbSpline
210
0.0
220
0.0
230
1.0
 70
    24
 71
     3
 72
    10
 73
     6
 74
     0
 42
0.000000001
 43
0.00000001
 40
0.0
 40
0.0
 40
0.0
 40
0.0
 40
0.0699789603276333
 40
0.8866236773051216
 40
0.9999999999999999
 40
0.9999999999999999
 40
0.9999999999999999
 40
0.9999999999999999
 10
242.3521548606083
 20
661.6910378715374
 30
0.0
 10
242.3521548606083
 20
661.713414370009
 30
0.0
 10
242.3521548606083
 20
661.9969214879642
 30
0.0
 10
242.3521548606083
 20
662.3140266553811
 30
0.0
 10
242.3521548606083
 20
662.6074913023891
 30
0.0
 10
242.3521548606083
 20
662.6432667753079
 30
0.0
  0
SPLINE
  5
172
330
1F
100
AcDbEntity
  8
0
  6
Continuous
 62
     7
370
    25
100
AcDbSpline
210
0.0
220
0.0
230
1.0
 70
     8
 71
     3
 72
    10
 73
     6
 74
     0
 42
0.000000001
 43
0.00000001
 40
0.0
 40
0.0
 40
0.0
 40
0.0
 40
0.0699836230856314
 40
0.8866236112195955
 40
1.0
 40
1.0
 40
1.0
 40
1.0
 10
241.1596763975546
 20
661.5383605739453
 30
0.0
 10
241.155056615597
 20
661.5563957027788
 30
0.0
 10
241.0965285259999
 20
661.7848830309583
 30
0.0
 10
241.0334429036663
 20
662.0427201336292
 30
0.0
 10
240.9763106091059
 20
662.2824997934356
 30
0.0
 10
240.9693457282707
 20
662.311730839906
 30
0.0
  0
LINE
  5
173
330
1F
100
AcDbEntity
  8
0
  6
Continuous
 62
     7
370
    25
100
AcDbLine
 10
240.853835652
 20
661.5383605739
 30
0.0
 11
241.1596763976
 21
661.5383605739
 31
0.0
  0
SPLINE
  5
174
330
1F
100
AcDbEntity
  8
0
  6
Continuous
 62
     7
370
    25
100
AcDbSpline
210
0.0
220
0.0
230
1.0
 70
    24
 71
     3
 72
    10
 73
     6
 74
     0
 42
0.000000001
 43
0.00000001
 40
0.0
 40
0.0
 40
0.0
 40
0.0
 40
0.1133763226948784
 40
0.9300210396723666
 40
0.9999999999999999
 40
0.9999999999999999
 40
0.9999999999999999
 40
0.9999999999999999
 10
241.322154933922
 20
662.6432667753079
 30
0.0
 10
241.322154933922
 20
662.6074913023891
 30
0.0
 10
241.322154933922
 20
662.3140266553811
 30
0.0
 10
241.3221549339221
 20
661.9969214879643
 30
0.0
 10
241.322154933922
 20
661.713414370009
 30
0.0
 10
241.322154933922
 20
661.6910378715374
 30
0.0
  0
ARC
  5
175
330
1F
100
AcDbEntity
  8
0
  6
Continuous
 62
     7
370
    25
100
AcDbCircle
 10
241.8020871704
 20
661.0175028736
 30
0.0
 40
0.8270334606871591
100
AcDbArc
 50
125.4720472575
 51
140.9653426787
  0
LINE
  5
176
330
1F
100
AcDbEntity
  8
0
  6
Continuous
 62
     7
370
    25
100
AcDbLine
 10
242.3521548606
 20
661.9784365675
 30
0.0
 11
241.3221549339
 21
661.9784365675
 31
0.0
  0
ARC
  5
177
330
1F
100
AcDbEntity
  8
0
  6
Continuous
 62
     7
370
    25
100
AcDbCircle
 10
241.8371548973
 20
661.1476669262
 30
0.0
 40
0.893263001887973
100
AcDbArc
 50
234.7925973724
 51
305.2074026276
  0
ARC
  5
178
330
1F
100
AcDbEntity
  8
0
  6
Continuous
 62
     7
370
    25
100
AcDbCircle
 10
241.8371548973
 20
660.9611790987
 30
0.0
 40
0.893263001887973
100
AcDbArc
 50
54.7925973724
 51
125.2074026276
  0
ARC
  5
179
330
1F
100
AcDbEntity
  8
0
  6
Continuous
 62
     7
370
    25
100
AcDbCircle
 10
241.9097929892
 20
661.0465176026
 30
0.0
 40
0.7795777237231695
100
AcDbArc
 50
16.9039830803
 51
39.1172537736
  0
ARC
  5
17A
330
1F
100
AcDbEntity
  8
0
  6
Continuous
 62
     7
370
    25
100
AcDbCircle
 10
241.7645168053
 20
661.0465176026
 30
0.0
 40
0.7795777237231695
100
AcDbArc
 50
140.8827462264
 51
163.0960169197
  0
LINE
  5
17B
330
1F
100
AcDbEntity
  8
0
  6
Continuous
 62
     7
370
    25
100
AcDbLine
 10
239.0371549971
 20
652.8229992172
 30
0.0
 11
239.0371549971
 21
585.0649084231
 31
0.0
  0
ARC
  5
17C
330
1F
100
AcDbEntity
  8
0
  6
Continuous
 62
     7
370
    25
100
AcDbCircle
 10
234.0371548004
 20
652.8230044021
 30
0.0
 40
5.0
100
AcDbArc
 50
0.0
 51
90.0
  0
LINE
  5
17D
330
1F
100
AcDbEntity
  8
0
  6
Continuous
 62
     7
370
    25
100
AcDbLine
 10
192.6371555872
 20
657.82300935
 30
0.0
 11
234.0371541775
 21
657.82300935
 31
0.0
  0
ARC
  5
17E
330
1F
100
AcDbEntity
  8
0
  6
Continuous
 62
     7
370
    25
100
AcDbCircle
 10
192.6371548004
 20
652.8230044021
 30
0.0
 40
5.0
100
AcDbArc
 50
90.0
 51
180.0
  0
LINE
  5
17F
330
1F
100
AcDbEntity
  8
0
  6
Continuous
 62
     7
370
    25
100
AcDbLine
 10
187.6371547676
 20
585.0649084231
 30
0.0
 11
187.6371547676
 21
652.8229992172
 31
0.0
  0
LINE
  5
180
330
1F
100
AcDbEntity
  8
0
  6
Continuous
 62
     7
370
    25
100
AcDbLine
 10
238.9805790133
 20
583.1889714381
 30
0.0
 11
239.0371549971
 21
583.8937740108
 31
0.0
  0
LINE
  5
181
330
1F
100
AcDbEntity
  8
0
  6
Continuous
 62
     7
370
    25
100
AcDbLine
 10
239.0371549971
 20
585.0649084231
 30
0.0
 11
239.0371549971
 21
583.8937740108
 31
0.0
  0
LWPOLYLINE
  5
182
330
1F
100
AcDbEntity
  8
0
  6
Continuous
 62
     7
370
    25
100
AcDbPolyline
 90
        3
 70
   128
 43
0.0
 10
187.6371547676
 20
583.8937740108
 10
187.7332281418
 20
582.9771514317
 10
187.8357164658
 20
582.5828443548
  0
LINE
  5
183
330
1F
100
AcDbEntity
  8
0
  6
Continuous
 62
     7
370
    25
100
AcDbLine
 10
187.6371547676
 20
583.8937740108
 30
0.0
 11
187.6371547676
 21
585.0649084231
 31
0.0
  0
LWPOLYLINE
  5
184
330
1F
100
AcDbEntity
  8
0
  6
Continuous
 62
     7
370
    25
100
AcDbPolyline
 90
        3
 70
   128
 43
0.0
 10
248.537155623
 20
574.7010241529
 10
248.4276320882
 20
573.6560727736
 10
248.3675953097
 20
573.4043102047
  0
ARC
  5
185
330
1F
100
AcDbEntity
  8
0
  6
Continuous
 62
     7
370
    25
100
AcDbCircle
 10
243.0038410836
 20
573.4077344255
 30
0.0
 40
5.536157410693636
100
AcDbArc
 50
268.2746331423
 51
358.1637550931
  0
LINE
  5
186
330
1F
100
AcDbEntity
  8
0
  6
Continuous
 62
     7
370
    25
100
AcDbLine
 10
248.537155623
 20
574.7010241529
 30
0.0
 11
248.537155623
 21
573.2303391477
 31
0.0
  0
LINE
  5
187
330
1F
100
AcDbEntity
  8
0
  6
Continuous
 62
     7
370
    25
100
AcDbLine
 10
242.8371541299
 20
567.8740869543
 30
0.0
 11
183.8371556349
 21
567.8740869543
 31
0.0
  0
ARC
  5
188
330
1F
100
AcDbEntity
  8
0
  6
Continuous
 62
     7
370
    25
100
AcDbCircle
 10
183.670464113
 20
573.40772764
 30
0.0
 40
5.536150765818387
100
AcDbArc
 50
181.8361768498
 51
271.7254162278
  0
LINE
  5
189
330
1F
100
AcDbEntity
  8
0
  6
Continuous
 62
     7
370
    25
100
AcDbLine
 10
178.1371560044
 20
573.2303391477
 30
0.0
 11
178.1371560044
 21
574.7010241529
 31
0.0
  0
LINE
  5
18A
330
1F
100
AcDbEntity
  8
0
  6
Continuous
 62
     7
370
    25
100
AcDbLine
 10
248.537155623
 20
661.1527483246
 30
0.0
 11
248.537155623
 21
574.7010241529
 31
0.0
  0
LINE
  5
18B
330
1F
100
AcDbEntity
  8
0
  6
Continuous
 62
     7
370
    25
100
AcDbLine
 10
178.1371560044
 20
574.7010241529
 30
0.0
 11
178.1371560044
 21
661.1527483246
 31
0.0
  0
LWPOLYLINE
  5
18C
330
1F
100
AcDbEntity
  8
0
  6
Continuous
 62
     7
370
    25
100
AcDbPolyline
 90
        3
 70
   128
 43
0.0
 10
178.1371560044
 20
661.1527483246
 10
178.2466795392
 20
662.1976922533
 10
178.3067125924
 20
662.4494622728
  0
LINE
  5
18D
330
1F
100
AcDbEntity
  8
0
  6
Continuous
 62
     7
370
    25
100
AcDbLine
 10
198.8371543683
 20
490.8899105421
 30
0.0
 11
226.8371552325
 21
490.8899105421
 31
0.0
  0
LINE
  5
18E
330
1F
100
AcDbEntity
  8
0
  6
Continuous
 62
     7
370
    25
100
AcDbLine
 10
198.8371543683
 20
492.3899107879
 30
0.0
 11
226.8371552325
 21
492.3899107879
 31
0.0
  0
LINE
  5
18F
330
1F
100
AcDbEntity
  8
0
  6
Continuous
 62
     7
370
    25
100
AcDbLine
 10
203.8371551878
 20
488.3899110636
 30
0.0
 11
221.837154413
 21
488.3899110636
 31
0.0
  0
LINE
  5
190
330
1F
100
AcDbEntity
  8
0
  6
Continuous
 62
     7
370
    25
100
AcDbLine
 10
226.8764821909
 20
669.5899050018
 30
0.0
 11
197.3371550537
 21
669.5899050018
 31
0.0
  0
LINE
  5
191
330
1F
100
AcDbEntity
  8
0
  6
Continuous
 62
     7
370
    25
100
AcDbLine
 10
228.3371545471
 20
669.5899050018
 30
0.0
 11
226.8764821909
 21
669.5899050018
 31
0.0
  0
LINE
  5
192
330
1F
100
AcDbEntity
  8
0
  6
Continuous
 62
     7
370
    25
100
AcDbLine
 10
199.6857773609
 20
321.1899082443
 30
0.0
 11
200.2745958142
 21
321.1899082443
 31
0.0
  0
LINE
  5
193
330
1F
100
AcDbEntity
  8
0
  6
Continuous
 62
     7
370
    25
100
AcDbLine
 10
195.8795961089
 20
321.1899082443
 30
0.0
 11
199.6857773609
 21
321.1899082443
 31
0.0
  0
LINE
  5
194
330
1F
100
AcDbEntity
  8
0
  6
Continuous
 62
     7
370
    25
100
AcDbLine
 10
192.0734148569
 20
321.1899082443
 30
0.0
 11
195.8795961089
 21
321.1899082443
 31
0.0
  0
LINE
  5
195
330
1F
100
AcDbEntity
  8
0
  6
Continuous
 62
     7
370
    25
100
AcDbLine
 10
191.4845954723
 20
321.1899082443
 30
0.0
 11
192.0734148569
 21
321.1899082443
 31
0.0
  0
LINE
  5
196
330
1F
100
AcDbEntity
  8
0
  6
Continuous
 62
     7
370
    25
100
AcDbLine
 10
195.8795961089
 20
321.1899082443
 30
0.0
 11
195.8795961089
 21
317.6899086019
 31
0.0
  0
LINE
  5
197
330
1F
100
AcDbEntity
  8
0
  6
Continuous
 62
     7
370
    25
100
AcDbLine
 10
199.6857773609
 20
321.1899082443
 30
0.0
 11
199.6857773609
 21
317.6899086019
 31
0.0
  0
LINE
  5
198
330
1F
100
AcDbEntity
  8
0
  6
Continuous
 62
     7
370
    25
100
AcDbLine
 10
195.8795961089
 20
317.6899086019
 30
0.0
 11
199.6857773609
 21
317.6899086019
 31
0.0
  0
LINE
  5
199
330
1F
100
AcDbEntity
  8
0
  6
Continuous
 62
     7
370
    25
100
AcDbLine
 10
192.0734148569
 20
321.1899082443
 30
0.0
 11
192.0734148569
 21
317.6899086019
 31
0.0
  0
LINE
  5
19A
330
1F
100
AcDbEntity
  8
0
  6
Continuous
 62
     7
370
    25
100
AcDbLine
 10
192.0734148569
 20
317.6899086019
 30
0.0
 11
195.8795961089
 21
317.6899086019
 31
0.0
  0
LINE
  5
19B
330
1F
100
AcDbEntity
  8
0
  6
Continuous
 62
     7
370
    25
100
AcDbLine
 10
193.8011728324
 20
333.1899176618
 30
0.0
 11
197.0544390477
 21
333.1899176618
 31
0.0
  0
LINE
  5
19C
330
1F
100
AcDbEntity
  8
0
  6
Continuous
 62
     7
370
    25
100
AcDbLine
 10
229.7947134919
 20
321.0899065515
 30
0.0
 11
229.7947134919
 21
317.6899086019
 31
0.0
  0
LINE
  5
19D
330
1F
100
AcDbEntity
  8
0
  6
Continuous
 62
     7
370
    25
100
AcDbLine
 10
233.6008947439
 20
321.0899065515
 30
0.0
 11
233.6008947439
 21
317.6899086019
 31
0.0
  0
LINE
  5
19E
330
1F
100
AcDbEntity
  8
0
  6
Continuous
 62
     7
370
    25
100
AcDbLine
 10
229.7947134919
 20
317.6899086019
 30
0.0
 11
233.6008947439
 21
317.6899086019
 31
0.0
  0
LINE
  5
19F
330
1F
100
AcDbEntity
  8
0
  6
Continuous
 62
     7
370
    25
100
AcDbLine
 10
225.9885322399
 20
320.7402657053
 30
0.0
 11
225.9885322399
 21
317.6899086019
 31
0.0
  0
LINE
  5
1A0
330
1F
100
AcDbEntity
  8
0
  6
Continuous
 62
     7
370
    25
100
AcDbLine
 10
225.9885322399
 20
317.6899086019
 30
0.0
 11
229.7947134919
 21
317.6899086019
 31
0.0
  0
LINE
  5
1A1
330
1F
100
AcDbEntity
  8
0
  6
Continuous
 62
     7
370
    25
100
AcDbLine
 10
161.177660162
 20
321.1899082443
 30
0.0
 11
161.7664795465
 21
321.1899082443
 31
0.0
  0
LINE
  5
1A2
330
1F
100
AcDbEntity
  8
0
  6
Continuous
 62
     7
370
    25
100
AcDbLine
 10
157.37147891
 20
321.1899082443
 30
0.0
 11
161.177660162
 21
321.1899082443
 31
0.0
  0
LINE
  5
1A3
330
1F
100
AcDbEntity
  8
0
  6
Continuous
 62
     7
370
    25
100
AcDbLine
 10
153.565297658
 20
321.1899082443
 30
0.0
 11
157.37147891
 21
321.1899082443
 31
0.0
  0
LINE
  5
1A4
330
1F
100
AcDbEntity
  8
0
  6
Continuous
 62
     7
370
    25
100
AcDbLine
 10
152.9764782734
 20
321.1899082443
 30
0.0
 11
153.565297658
 21
321.1899082443
 31
0.0
  0
LINE
  5
1A5
330
1F
100
AcDbEntity
  8
0
  6
Continuous
 62
     7
370
    25
100
AcDbLine
 10
157.37147891
 20
321.1899082443
 30
0.0
 11
157.37147891
 21
317.6899086019
 31
0.0
  0
LINE
  5
1A6
330
1F
100
AcDbEntity
  8
0
  6
Continuous
 62
     7
370
    25
100
AcDbLine
 10
161.177660162
 20
321.1899082443
 30
0.0
 11
161.177660162
 21
317.6899086019
 31
0.0
  0
LINE
  5
1A7
330
1F
100
AcDbEntity
  8
0
  6
Continuous
 62
     7
370
    25
100
AcDbLine
 10
157.37147891
 20
317.6899086019
 30
0.0
 11
161.177660162
 21
317.6899086019
 31
0.0
  0
LINE
  5
1A8
330
1F
100
AcDbEntity
  8
0
  6
Continuous
 62
     7
370
    25
100
AcDbLine
 10
153.565297658
 20
321.1899082443
 30
0.0
 11
153.565297658
 21
317.6899086019
 31
0.0
  0
LINE
  5
1A9
330
1F
100
AcDbEntity
  8
0
  6
Continuous
 62
     7
370
    25
100
AcDbLine
 10
153.565297658
 20
317.6899086019
 30
0.0
 11
157.37147891
 21
317.6899086019
 31
0.0
  0
LINE
  5
1AA
330
1F
100
AcDbEntity
  8
0
  6
Continuous
 62
     7
370
    25
100
AcDbLine
 10
272.1090119429
 20
321.1899082443
 30
0.0
 11
272.6978313274
 21
321.1899082443
 31
0.0
  0
LINE
  5
1AB
330
1F
100
AcDbEntity
  8
0
  6
Continuous
 62
     7
370
    25
100
AcDbLine
 10
268.3028306909
 20
321.1899082443
 30
0.0
 11
272.1090119429
 21
321.1899082443
 31
0.0
  0
LINE
  5
1AC
330
1F
100
AcDbEntity
  8
0
  6
Continuous
 62
     7
370
    25
100
AcDbLine
 10
264.4966494389
 20
321.1899082443
 30
0.0
 11
268.3028306909
 21
321.1899082443
 31
0.0
  0
LINE
  5
1AD
330
1F
100
AcDbEntity
  8
0
  6
Continuous
 62
     7
370
    25
100
AcDbLine
 10
263.9078300543
 20
321.1899082443
 30
0.0
 11
264.4966494389
 21
321.1899082443
 31
0.0
  0
LINE
  5
1AE
330
1F
100
AcDbEntity
  8
0
  6
Continuous
 62
     7
370
    25
100
AcDbLine
 10
268.3028306909
 20
321.1899082443
 30
0.0
 11
268.3028306909
 21
317.6899086019
 31
0.0
  0
LINE
  5
1AF
330
1F
100
AcDbEntity
  8
0
  6
Continuous
 62
     7
370
    25
100
AcDbLine
 10
272.1090119429
 20
321.1899082443
 30
0.0
 11
272.1090119429
 21
317.6899086019
 31
0.0
  0
LINE
  5
1B0
330
1F
100
AcDbEntity
  8
0
  6
Continuous
 62
     7
370
    25
100
AcDbLine
 10
268.3028306909
 20
317.6899086019
 30
0.0
 11
272.1090119429
 21
317.6899086019
 31
0.0
  0
LINE
  5
1B1
330
1F
100
AcDbEntity
  8
0
  6
Continuous
 62
     7
370
    25
100
AcDbLine
 10
264.4966494389
 20
321.1899082443
 30
0.0
 11
264.4966494389
 21
317.6899086019
 31
0.0
  0
LINE
  5
1B2
330
1F
100
AcDbEntity
  8
0
  6
Continuous
 62
     7
370
    25
100
AcDbLine
 10
264.4966494389
 20
317.6899086019
 30
0.0
 11
268.3028306909
 21
317.6899086019
 31
0.0
  0
LINE
  5
1B3
330
1F
100
AcDbEntity
  8
0
  6
Continuous
 62
     7
370
    25
100
AcDbLine
 10
267.1156365521
 20
333.1899176618
 30
0.0
 11
270.802832032
 21
333.1899176618
 31
0.0
  0
LINE
  5
1B4
330
1F
100
AcDbEntity
  8
0
  6
Continuous
 62
     7
370
    25
100
AcDbLine
 10
163.7636933572
 20
324.4899045011
 30
0.0
 11
163.7636933572
 21
322.1899102709
 31
0.0
  0
LINE
  5
1B5
330
1F
100
AcDbEntity
  8
0
  6
Continuous
 62
     7
370
    25
100
AcDbLine
 10
231.8775680013
 20
324.4899045011
 30
0.0
 11
231.8775680013
 21
322.1899102709
 31
0.0
  0
LINE
  5
1B6
330
1F
100
AcDbEntity
  8
0
  6
Continuous
 62
     7
370
    25
100
AcDbLine
 10
163.7636933572
 20
322.1899102709
 30
0.0
 11
231.8775680013
 21
322.1899102709
 31
0.0
  0
LINE
  5
1B7
330
1F
100
AcDbEntity
  8
0
  6
Continuous
 62
     7
370
    25
100
AcDbLine
 10
163.7636933572
 20
324.4899045011
 30
0.0
 11
231.8775680013
 21
324.4899045011
 31
0.0
  0
LINE
  5
1B8
330
1F
100
AcDbEntity
  8
0
  6
Continuous
 62
     7
370
    25
100
AcDbLine
 10
251.5417438097
 20
324.4899045011
 30
0.0
 11
251.5417438097
 21
322.1899102709
 31
0.0
  0
LINE
  5
1B9
330
1F
100
AcDbEntity
  8
0
  6
Continuous
 62
     7
370
    25
100
AcDbLine
 10
231.8775680013
 20
322.1899102709
 30
0.0
 11
251.5417438097
 21
322.1899102709
 31
0.0
  0
LINE
  5
1BA
330
1F
100
AcDbEntity
  8
0
  6
Continuous
 62
     7
370
    25
100
AcDbLine
 10
251.5417438097
 20
322.1899102709
 30
0.0
 11
275.3371548004
 21
322.1899102709
 31
0.0
  0
LINE
  5
1BB
330
1F
100
AcDbEntity
  8
0
  6
Continuous
 62
     7
370
    25
100
AcDbLine
 10
251.5417438097
 20
324.4899045011
 30
0.0
 11
275.3371548004
 21
324.4899045011
 31
0.0
  0
LINE
  5
1BC
330
1F
100
AcDbEntity
  8
0
  6
Continuous
 62
     7
370
    25
100
AcDbLine
 10
153.3080626376
 20
324.4899045011
 30
0.0
 11
153.3080626376
 21
322.1899102709
 31
0.0
  0
LINE
  5
1BD
330
1F
100
AcDbEntity
  8
0
  6
Continuous
 62
     7
370
    25
100
AcDbLine
 10
153.3080626376
 20
322.1899102709
 30
0.0
 11
163.7636933572
 21
322.1899102709
 31
0.0
  0
LINE
  5
1BE
330
1F
100
AcDbEntity
  8
0
  6
Continuous
 62
     7
370
    25
100
AcDbLine
 10
185.8844634242
 20
321.0899065515
 30
0.0
 11
192.0734148569
 21
321.0899065515
 31
0.0
  0
LINE
  5
1BF
330
1F
100
AcDbEntity
  8
0
  6
Continuous
 62
     7
370
    25
100
AcDbLine
 10
199.6857773609
 20
321.0899065515
 30
0.0
 11
239.7898461766
 21
321.0899065515
 31
0.0
  0
LINE
  5
1C0
330
1F
100
AcDbEntity
  8
0
  6
Continuous
 62
     7
370
    25
100
AcDbLine
 10
150.3371548004
 20
322.1899102709
 30
0.0
 11
153.3080626376
 21
322.1899102709
 31
0.0
  0
LINE
  5
1C1
330
1F
100
AcDbEntity
  8
0
  6
Continuous
 62
     7
370
    25
100
AcDbLine
 10
150.3371548004
 20
324.4899045011
 30
0.0
 11
153.3080626376
 21
324.4899045011
 31
0.0
  0
LINE
  5
1C2
330
1F
100
AcDbEntity
  8
0
  6
Continuous
 62
     7
370
    25
100
AcDbLine
 10
202.2844635047
 20
318.1899170658
 30
0.0
 11
223.3898460962
 21
318.1899170658
 31
0.0
  0
LINE
  5
1C3
330
1F
100
AcDbEntity
  8
0
  6
Continuous
 62
     7
370
    25
100
AcDbLine
 10
202.1157991238
 20
554.389910706
 30
0.0
 11
198.1932845063
 21
554.389910706
 31
0.0
  0
ARC
  5
1C4
330
1F
100
AcDbEntity
  8
0
  6
Continuous
 62
     7
370
    25
100
AcDbCircle
 10
230.6923497655
 20
555.3899106762
 30
0.0
 40
1.0
100
AcDbArc
 50
270.0
 51
0.5
  0
LINE
  5
1C5
330
1F
100
AcDbEntity
  8
0
  6
Continuous
 62
     7
370
    25
100
AcDbLine
 10
230.692350129
 20
554.389910706
 30
0.0
 11
229.6925399549
 21
554.389910706
 31
0.0
  0
LINE
  5
1C6
330
1F
100
AcDbEntity
  8
0
  6
Continuous
 62
     7
370
    25
100
AcDbLine
 10
229.6925399549
 20
554.389910706
 30
0.0
 11
202.1157991238
 21
554.389910706
 31
0.0
  0
LINE
  5
1C7
330
1F
100
AcDbEntity
  8
0
  6
Continuous
 62
     7
370
    25
100
AcDbLine
 10
198.1932845063
 20
554.389910706
 30
0.0
 11
195.9817696459
 21
554.389910706
 31
0.0
  0
LINE
  5
1C8
330
1F
100
AcDbEntity
  8
0
  6
Continuous
 62
     7
370
    25
100
AcDbLine
 10
195.9817696459
 20
554.389910706
 30
0.0
 11
194.9819594718
 21
554.389910706
 31
0.0
  0
ARC
  5
1C9
330
1F
100
AcDbEntity
  8
0
  6
Continuous
 62
     7
370
    25
100
AcDbCircle
 10
194.9819598353
 20
555.3899106762
 30
0.0
 40
1.000000000000005
100
AcDbArc
 50
179.5
 51
270.0
  0
LINE
  5
1CA
330
1F
100
AcDbEntity
  8
0
  6
Continuous
 62
     7
370
    25
100
AcDbLine
 10
231.5834395684
 20
567.8740869543
 30
0.0
 11
231.6923111774
 21
555.3986373624
 31
0.0
  0
LINE
  5
1CB
330
1F
100
AcDbEntity
  8
0
  6
Continuous
 62
     7
370
    25
100
AcDbLine
 10
193.9819984234
 20
555.3986373624
 30
0.0
 11
194.0908700324
 21
567.8740869543
 31
0.0
  0
LINE
  5
1CC
330
1F
100
AcDbEntity
  8
0
  6
Continuous
 62
     7
370
    25
100
AcDbLine
 10
203.5975258894
 20
545.3899110934
 30
0.0
 11
203.5975258894
 21
554.389910706
 31
0.0
  0
LINE
  5
1CD
330
1F
100
AcDbEntity
  8
0
  6
Continuous
 62
     7
370
    25
100
AcDbLine
 10
203.5975258894
 20
545.3899110934
 30
0.0
 11
196.6545421727
 21
545.3899110934
 31
0.0
  0
LINE
  5
1CE
330
1F
100
AcDbEntity
  8
0
  6
Continuous
 62
     7
370
    25
100
AcDbLine
 10
187.7862893141
 20
558.3899113616
 30
0.0
 11
189.083498726
 21
558.3899113616
 31
0.0
  0
LINE
  5
1CF
330
1F
100
AcDbEntity
  8
0
  6
Continuous
 62
     7
370
    25
100
AcDbLine
 10
188.1629943944
 20
554.389910706
 30
0.0
 11
156.3411716468
 21
554.389910706
 31
0.0
  0
SPLINE
  5
1D0
330
1F
100
AcDbEntity
  8
0
  6
Continuous
 62
     7
370
    25
100
AcDbSpline
210
0.0
220
0.0
230
1.0
 70
     8
 71
     3
 72
    12
 73
     8
 74
     0
 42
0.000000001
 43
0.00000001
 40
0.0
 40
0.0
 40
0.0
 40
0.0
 40
0.2172470157338524
 40
0.4345302332775672
 40
0.6508321730927276
 40
0.8651891531191294
 40
1.0
 40
1.0
 40
1.0
 40
1.0
 10
156.3411716468264
 20
554.3899107059815
 30
0.0
 10
156.2355783517126
 20
554.4011121230875
 30
0.0
 10
156.0243741655315
 20
554.4235168238915
 30
0.0
 10
155.7431928195952
 20
554.5984517126501
 30
0.0
 10
155.5323901461586
 20
554.8554589050717
 30
0.0
 10
155.4235463049565
 20
555.1361257733475
 30
0.0
 10
155.4127506050806
 20
555.3192184282229
 30
0.0
 10
155.4085824735095
 20
555.3899090072491
 30
0.0
  0
LINE
  5
1D1
330
1F
100
AcDbEntity
  8
0
  6
Continuous
 62
     7
370
    25
100
AcDbLine
 10
155.4085824735
 20
558.3899113616
 30
0.0
 11
155.4085824735
 21
555.3899090072
 31
0.0
  0
LINE
  5
1D2
330
1F
100
AcDbEntity
  8
0
  6
Continuous
 62
     7
370
    25
100
AcDbLine
 10
162.9586804755
 20
558.3899113616
 30
0.0
 11
155.4085824735
 21
558.3899113616
 31
0.0
  0
SPLINE
  5
1D3
330
1F
100
AcDbEntity
  8
0
  6
Continuous
 62
     7
370
    25
100
AcDbSpline
210
0.0
220
0.0
230
1.0
 70
     8
 71
     3
 72
    16
 73
    12
 74
     0
 42
0.000000001
 43
0.00000001
 40
0.0
 40
0.0
 40
0.0
 40
0.0
 40
0.7378250629578857
 40
0.790716473108237
 40
0.8205012981178335
 40
0.8403244026460881
 40
0.8552210306304492
 40
0.8701746392434584
 40
0.8882888038463296
 40
0.9196029913642654
 40
0.9999999999999999
 40
0.9999999999999999
 40
0.9999999999999999
 40
0.9999999999999999
 10
162.9586804754663
 20
558.3899113616326
 30
0.0
 10
162.9725343228337
 20
558.5540285693828
 30
0.0
 10
162.9873812911454
 20
558.7299106127067
 30
0.0
 10
163.0460896998663
 20
558.8878279543735
 30
0.0
 10
163.0560920580086
 20
558.9047991047145
 30
0.0
 10
163.0640304725352
 20
558.9127397132248
 30
0.0
 10
163.0711667609621
 20
558.915560691204
 30
0.0
 10
163.0782712124384
 20
558.9142935708063
 30
0.0
 10
163.0867175283507
 20
558.9075849795034
 30
0.0
 10
163.0999733757635
 20
558.8866135533622
 30
0.0
 10
163.1069833461868
 20
558.8642631936347
 30
0.0
 10
163.1120283253122
 20
558.8481779476979
 30
0.0
  0
ELLIPSE
  5
1D4
330
1F
100
AcDbEntity
  8
0
  6
Continuous
 62
     7
370
    25
100
AcDbEllipse
 10
212.8371548004
 20
3093.9224539291
 30
0.0
 11
47.03871993962412
 21
2539.532393995761
 31
0.0
210
0.0
220
0.0
230
1.0
 40
0.0185098944
 41
3.082672357110896
 42
3.085801616854689
  0
LINE
  5
1D5
330
1F
100
AcDbEntity
  8
0
  6
Continuous
 62
     7
370
    25
100
AcDbLine
 10
168.5267936535
 20
558.3899113616
 30
0.0
 11
163.2504452116
 21
558.3899113616
 31
0.0
  0
ELLIPSE
  5
1D6
330
1F
100
AcDbEntity
  8
0
  6
Continuous
 62
     7
370
    25
100
AcDbEllipse
 10
212.8371548004
 20
3093.9224539291
 30
0.0
 11
47.03871993962412
 21
2539.532393995761
 31
0.0
210
0.0
220
0.0
230
1.0
 40
0.0185098944
 41
3.198069392706592
 42
3.201198652450407
  0
SPLINE
  5
1D7
330
1F
100
AcDbEntity
  8
0
  6
Continuous
 62
     7
370
    25
100
AcDbSpline
210
0.0
220
0.0
230
1.0
 70
     8
 71
     3
 72
    16
 73
    12
 74
     0
 42
0.000000001
 43
0.00000001
 40
0.0
 40
0.0
 40
0.0
 40
0.0
 40
0.0956446225888204
 40
0.1148885092518258
 40
0.134340995585804
 40
0.1484569558210425
 40
0.1625319478738766
 40
0.1864034215802695
 40
0.2489337997266713
 40
0.4978743239698096
 40
1.0
 40
1.0
 40
1.0
 40
1.0
 10
168.6821792371201
 20
558.8481779476979
 30
0.0
 10
168.6889511502087
 20
558.8676857079889
 30
0.0
 10
168.6970855855639
 20
558.8911184681172
 30
0.0
 10
168.7140675815439
 20
558.9103999385526
 30
0.0
 10
168.7222672455293
 20
558.9151110008523
 30
0.0
 10
168.7302712728736
 20
558.9151414559593
 30
0.0
 10
168.7384838493242
 20
558.9113226139551
 30
0.0
 10
168.7517288563004
 20
558.8974882656187
 30
0.0
 10
168.7814218720109
 20
558.8339897154077
 30
0.0
 10
168.8188129528761
 20
558.6607380536541
 30
0.0
 10
168.8407881877603
 20
558.4984254993235
 30
0.0
 10
168.8554797418046
 20
558.3899113616326
 30
0.0
  0
LINE
  5
1D8
330
1F
100
AcDbEntity
  8
0
  6
Continuous
 62
     7
370
    25
100
AcDbLine
 10
187.7862893141
 20
558.3899113616
 30
0.0
 11
168.8554797418
 21
558.3899113616
 31
0.0
  0
SPLINE
  5
1D9
330
1F
100
AcDbEntity
  8
0
  6
Continuous
 62
     7
370
    25
100
AcDbSpline
210
0.0
220
0.0
230
1.0
 70
     8
 71
     3
 72
    12
 73
     8
 74
     0
 42
0.000000001
 43
0.00000001
 40
0.0
 40
0.0
 40
0.0
 40
0.0
 40
0.2145882914254053
 40
0.4291751634884255
 40
0.6438282211104542
 40
0.8585684572758179
 40
1.0
 40
1.0
 40
1.0
 40
1.0
 10
190.8515848315882
 20
555.3899090072491
 30
0.0
 10
190.8412727099567
 20
555.2775245881852
 30
0.0
 10
190.8206485349016
 20
555.0527564934075
 30
0.0
 10
190.6599430757421
 20
554.7531667687983
 30
0.0
 10
190.4237589066232
 20
554.5269888864552
 30
0.0
 10
190.1623660555486
 20
554.4070248539347
 30
0.0
 10
189.989962259033
 20
554.394774982891
 30
0.0
 10
189.9215027786421
 20
554.3899107059815
 30
0.0
  0
LINE
  5
1DA
330
1F
100
AcDbEntity
  8
0
  6
Continuous
 62
     7
370
    25
100
AcDbLine
 10
189.9215027786
 20
554.389910706
 30
0.0
 11
188.1629943944
 21
554.389910706
 31
0.0
  0
SPLINE
  5
1DB
330
1F
100
AcDbEntity
  8
0
  6
Continuous
 62
     7
370
    25
100
AcDbSpline
210
0.0
220
0.0
230
1.0
 70
     8
 71
     3
 72
    26
 73
    22
 74
     0
 42
0.000000001
 43
0.00000001
 40
0.0
 40
0.0
 40
0.0
 40
0.0
 40
0.2491815316655783
 40
0.4972973081772273
 40
0.6633060325404322
 40
0.7743875032120254
 40
0.8487268806557796
 40
0.8984860454378738
 40
0.9318042734382341
 40
0.9541248205272462
 40
0.9690880611883311
 40
0.9791318675097445
 40
0.9858848847056713
 40
0.9904382221589182
 40
0.9935200388580142
 40
0.9956199463417862
 40
0.9970645563401581
 40
0.9985357645100664
 40
0.9991380106720266
 40
0.9996498302393538
 40
1.0
 40
1.0
 40
1.0
 40
1.0
 10
191.1452774054932
 20
558.3899113616326
 30
0.0
 10
191.1406824487464
 20
558.0567850760488
 30
0.0
 10
191.1315121879888
 20
557.3919572936821
 30
0.0
 10
191.1174470554811
 20
556.5053680050169
 30
0.0
 10
191.1045467589449
 20
555.8035635950247
 30
0.0
 10
191.0944235405644
 20
555.3341596371763
 30
0.0
 10
191.0864455168309
 20
555.0202136023672
 30
0.0
 10
191.0801230280403
 20
554.8102517301913
 30
0.0
 10
191.0750862164694
 20
554.6698442726263
 30
0.0
 10
191.0710516008221
 20
554.5759578811278
 30
0.0
 10
191.0678086800856
 20
554.5131885526076
 30
0.0
 10
191.0651876254043
 20
554.4712281163507
 30
0.0
 10
191.0630593315121
 20
554.4431877707545
 30
0.0
 10
191.0613208255266
 20
554.424451074829
 30
0.0
 10
191.0598861387111
 20
554.4119545154023
 30
0.0
 10
191.0586993387589
 20
554.4036102342652
 30
0.0
 10
191.057592657001
 20
554.3975355076622
 30
0.0
 10
191.0566080398731
 20
554.3934868003375
 30
0.0
 10
191.055633403933
 20
554.391088141455
 30
0.0
 10
191.054952040447
 20
554.3900723337783
 30
0.0
 10
191.0545004456426
 20
554.3899573971852
 30
0.0
 10
191.0543169922756
 20
554.3899107059815
 30
0.0
  0
LINE
  5
1DC
330
1F
100
AcDbEntity
  8
0
  6
Continuous
 62
     7
370
    25
100
AcDbLine
 10
190.8515848316
 20
555.3899090072
 30
0.0
 11
190.8515848316
 21
554.389910706
 31
0.0
  0
LINE
  5
1DD
330
1F
100
AcDbEntity
  8
0
  6
Continuous
 62
     7
370
    25
100
AcDbLine
 10
191.1452774055
 20
558.3899113616
 30
0.0
 11
189.083498726
 21
558.3899113616
 31
0.0
  0
LINE
  5
1DE
330
1F
100
AcDbEntity
  8
0
  6
Continuous
 62
     7
370
    25
100
AcDbLine
 10
252.3072760649
 20
554.389910706
 30
0.0
 11
231.7011140383
 21
554.389910706
 31
0.0
  0
LINE
  5
1DF
330
1F
100
AcDbEntity
  8
0
  6
Continuous
 62
     7
370
    25
100
AcDbLine
 10
252.3072760649
 20
554.389910706
 30
0.0
 11
252.3072760649
 21
555.3899090072
 31
0.0
  0
SPLINE
  5
1E0
330
1F
100
AcDbEntity
  8
0
  6
Continuous
 62
     7
370
    25
100
AcDbSpline
210
0.0
220
0.0
230
1.0
 70
     8
 71
     3
 72
    12
 73
     8
 74
     0
 42
0.000000001
 43
0.00000001
 40
0.0
 40
0.0
 40
0.0
 40
0.0
 40
0.2153448700116976
 40
0.4306909446782473
 40
0.6459290693009238
 40
0.8606524553579065
 40
1.0
 40
1.0
 40
1.0
 40
1.0
 10
253.0664268977571
 20
554.3899107059815
 30
0.0
 10
252.9814272723225
 20
554.4010117283435
 30
0.0
 10
252.8114275459592
 20
554.4232138351674
 30
0.0
 10
252.5834834261827
 20
554.5963053252623
 30
0.0
 10
252.4110781481005
 20
554.8509380636575
 30
0.0
 10
252.3201089523658
 20
555.1320223109518
 30
0.0
 10
252.3109002326931
 20
555.3170785809057
 30
0.0
 10
252.3072760648656
 20
555.3899090072491
 30
0.0
  0
LINE
  5
1E1
330
1F
100
AcDbEntity
  8
0
  6
Continuous
 62
     7
370
    25
100
AcDbLine
 10
255.7533782072
 20
554.389910706
 30
0.0
 11
255.7533782072
 21
545.3899110934
 31
0.0
  0
LINE
  5
1E2
330
1F
100
AcDbEntity
  8
0
  6
Continuous
 62
     7
370
    25
100
AcDbLine
 10
231.6923111774
 20
555.3986373624
 30
0.0
 11
231.7011140383
 21
554.389910706
 31
0.0
  0
LINE
  5
1E3
330
1F
100
AcDbEntity
  8
0
  6
Continuous
 62
     7
370
    25
100
AcDbLine
 10
255.7533782072
 20
545.3899110934
 30
0.0
 11
203.5975258894
 21
545.3899110934
 31
0.0
  0
SPLINE
  5
1E4
330
1F
100
AcDbEntity
  8
0
  6
Continuous
 62
     7
370
    25
100
AcDbSpline
210
0.0
220
0.0
230
1.0
 70
     8
 71
     3
 72
    11
 73
     7
 74
     0
 42
0.000000001
 43
0.00000001
 40
0.0
 40
0.0
 40
0.0
 40
0.0
 40
0.0043759900235513
 40
0.4131428723754046
 40
0.7514582152315462
 40
1.0
 40
1.0
 40
1.0
 40
1.0
 10
160.7628751642634
 20
546.8899104079583
 30
0.0
 10
160.7623275477272
 20
546.8888536214538
 30
0.0
 10
160.71062636296
 20
546.789081042081
 30
0.0
 10
160.6165326668961
 20
546.6098352112764
 30
0.0
 10
160.4643961081117
 20
546.4228800227313
 30
0.0
 10
160.3621860909917
 20
546.3997185752031
 30
0.0
 10
160.318898791783
 20
546.3899093946793
 30
0.0
  0
LINE
  5
1E5
330
1F
100
AcDbEntity
  8
0
  6
Continuous
 62
     7
370
    25
100
AcDbLine
 10
193.9731955625
 20
554.389910706
 30
0.0
 11
190.8515848316
 21
554.389910706
 31
0.0
  0
LINE
  5
1E6
330
1F
100
AcDbEntity
  8
0
  6
Continuous
 62
     7
370
    25
100
AcDbLine
 10
153.9957586772
 20
545.3899110934
 30
0.0
 11
153.9957586772
 21
546.3899093947
 31
0.0
  0
LINE
  5
1E7
330
1F
100
AcDbEntity
  8
0
  6
Continuous
 62
     7
370
    25
100
AcDbLine
 10
193.9731955625
 20
554.389910706
 30
0.0
 11
193.9819984234
 21
555.3986373624
 31
0.0
  0
LINE
  5
1E8
330
1F
100
AcDbEntity
  8
0
  6
Continuous
 62
     7
370
    25
100
AcDbLine
 10
196.7533107943
 20
545.3899110934
 30
0.0
 11
153.9957586772
 21
545.3899110934
 31
0.0
  0
LINE
  5
1E9
330
1F
100
AcDbEntity
  8
0
  6
Continuous
 62
     7
370
    25
100
AcDbLine
 10
248.537155623
 20
633.3899180672
 30
0.0
 11
250.686286772
 21
633.3899180672
 31
0.0
  0
LINE
  5
1EA
330
1F
100
AcDbEntity
  8
0
  6
Continuous
 62
     7
370
    25
100
AcDbLine
 10
177.1049600191
 20
644.389910557
 30
0.0
 11
177.4655755706
 21
644.389910557
 31
0.0
  0
LINE
  5
1EB
330
1F
100
AcDbEntity
  8
0
  6
Continuous
 62
     7
370
    25
100
AcDbLine
 10
177.4655755706
 20
644.389910557
 30
0.0
 11
178.1371560044
 21
644.389910557
 31
0.0
  0
LINE
  5
1EC
330
1F
100
AcDbEntity
  8
0
  6
Continuous
 62
     7
370
    25
100
AcDbLine
 10
256.6168036408
 20
558.3899113616
 30
0.0
 11
256.9175910301
 21
558.8857586762
 31
0.0
  0
LINE
  5
1ED
330
1F
100
AcDbEntity
  8
0
  6
Continuous
 62
     7
370
    25
100
AcDbLine
 10
255.5476192481
 20
558.3899113616
 30
0.0
 11
256.6168036408
 21
558.3899113616
 31
0.0
  0
SPLINE
  5
1EE
330
1F
100
AcDbEntity
  8
0
  6
Continuous
 62
     7
370
    25
100
AcDbSpline
210
0.0
220
0.0
230
1.0
 70
     8
 71
     3
 72
    15
 73
    11
 74
     0
 42
0.000000001
 43
0.00000001
 40
0.0
 40
0.0
 40
0.0
 40
0.0
 40
0.0477622363565126
 40
0.1832828651364314
 40
0.2734777744291191
 40
0.3412572692050899
 40
0.4092960252196342
 40
0.4917152764998781
 40
0.6341944880042484
 40
1.0
 40
1.0
 40
1.0
 40
1.0
 10
256.9175910301137
 20
558.8857586762288
 30
0.0
 10
256.9185875507724
 20
558.8876402463678
 30
0.0
 10
256.9224116003863
 20
558.8948605859571
 30
0.0
 10
256.9290584412139
 20
558.9047959013637
 30
0.0
 10
256.9380195682173
 20
558.9127402254329
 30
0.0
 10
256.946073623229
 20
558.9155605711863
 30
0.0
 10
256.9540847467313
 20
558.9142936099821
 30
0.0
 10
256.9636141478294
 20
558.9075849592468
 30
0.0
 10
256.9785482076201
 20
558.8866135711119
 30
0.0
 10
256.9864462508255
 20
558.864263201063
 30
0.0
 10
256.9921303636956
 20
558.8481779476979
 30
0.0
  0
ELLIPSE
  5
1EF
330
1F
100
AcDbEntity
  8
0
  6
Continuous
 62
     7
370
    25
100
AcDbEllipse
 10
212.8371548004
 20
3093.9224539291
 30
0.0
 11
-47.03871993962198
 21
2539.532393995762
 31
0.0
210
0.0
220
0.0
230
1.0
 40
0.0185098944
 41
3.081986654729934
 42
3.085115914473725
  0
LINE
  5
1F0
330
1F
100
AcDbEntity
  8
0
  6
Continuous
 62
     7
370
    25
100
AcDbLine
 10
262.4238643892
 20
558.3899113616
 30
0.0
 11
257.1475159473
 21
558.3899113616
 31
0.0
  0
ELLIPSE
  5
1F1
330
1F
100
AcDbEntity
  8
0
  6
Continuous
 62
     7
370
    25
100
AcDbEllipse
 10
212.8371548004
 20
3093.9224539291
 30
0.0
 11
-47.03871993962198
 21
2539.532393995762
 31
0.0
210
0.0
220
0.0
230
1.0
 40
0.0185098944
 41
3.197383690325647
 42
3.200512950069439
  0
SPLINE
  5
1F2
330
1F
100
AcDbEntity
  8
0
  6
Continuous
 62
     7
370
    25
100
AcDbSpline
210
0.0
220
0.0
230
1.0
 70
     8
 71
     3
 72
    16
 73
    12
 74
     0
 42
0.000000001
 43
0.00000001
 40
0.0
 40
0.0
 40
0.0
 40
0.0
 40
0.0956446225888204
 40
0.1148885092518258
 40
0.134340995585804
 40
0.1484569558210425
 40
0.1625319478738766
 40
0.1864034215802695
 40
0.2489337997266713
 40
0.4978743239698096
 40
1.0
 40
1.0
 40
1.0
 40
1.0
 10
262.5622812755037
 20
558.8481779476979
 30
0.0
 10
262.568292077741
 20
558.8676857079889
 30
0.0
 10
262.5755122652409
 20
558.8911184681172
 30
0.0
 10
262.5905825335595
 20
558.9103999385526
 30
0.0
 10
262.5978477793202
 20
558.9151110008523
 30
0.0
 10
262.6049470882717
 20
558.9151414559593
 30
0.0
 10
262.6122204089233
 20
558.9113226139551
 30
0.0
 10
262.6239594011295
 20
558.8974882656187
 30
0.0
 10
262.6502255278479
 20
558.8339897154077
 30
0.0
 10
262.6832941412755
 20
558.6607380536541
 30
0.0
 10
262.7026732276577
 20
558.4984254993235
 30
0.0
 10
262.7156291253496
 20
558.3899113616326
 30
0.0
  0
LINE
  5
1F3
330
1F
100
AcDbEntity
  8
0
  6
Continuous
 62
     7
370
    25
100
AcDbLine
 10
279.3371554561
 20
558.3899113616
 30
0.0
 11
262.7156291253
 21
558.3899113616
 31
0.0
  0
LINE
  5
1F4
330
1F
100
AcDbEntity
  8
0
  6
Continuous
 62
     7
370
    25
100
AcDbLine
 10
278.3371534295
 20
554.389910706
 30
0.0
 11
256.2547240503
 21
554.389910706
 31
0.0
  0
LINE
  5
1F5
330
1F
100
AcDbEntity
  8
0
  6
Continuous
 62
     7
370
    25
100
AcDbLine
 10
256.2547240503
 20
554.389910706
 30
0.0
 11
253.0664268978
 21
554.389910706
 31
0.0
  0
SPLINE
  5
1F6
330
1F
100
AcDbEntity
  8
0
  6
Continuous
 62
     7
370
    25
100
AcDbSpline
210
0.0
220
0.0
230
1.0
 70
     8
 71
     3
 72
    15
 73
    11
 74
     0
 42
0.000000001
 43
0.00000001
 40
0.0
 40
0.0
 40
0.0
 40
0.0
 40
0.0004701847320052
 40
0.0010634923116519
 40
0.0024843213039978
 40
0.0077510573683238
 40
0.0286323587384287
 40
0.1118824895644471
 40
0.444601844515126
 40
1.0
 40
1.0
 40
1.0
 40
1.0
 10
251.9218575305867
 20
554.3899107059815
 30
0.0
 10
251.9214101409881
 20
554.3899958104228
 30
0.0
 10
251.9203982080899
 20
554.3901883048036
 30
0.0
 10
251.9184477383337
 20
554.3922169039583
 30
0.0
 10
251.9144242087639
 20
554.4002297079683
 30
0.0
 10
251.9062856460343
 20
554.4357327839166
 30
0.0
 10
251.8892338720352
 20
554.5798924379917
 30
0.0
 10
251.8533182381762
 20
555.1629291746113
 30
0.0
 10
251.8075000502628
 20
556.4600409121982
 30
0.0
 10
251.7772634620509
 20
557.6473863490916
 30
0.0
 10
251.7583545393872
 20
558.3899113616326
 30
0.0
  0
LINE
  5
1F7
330
1F
100
AcDbEntity
  8
0
  6
Continuous
 62
     7
370
    25
100
AcDbLine
 10
255.5476192481
 20
558.3899113616
 30
0.0
 11
251.7583545394
 21
558.3899113616
 31
0.0
  0
LINE
  5
1F8
330
1F
100
AcDbEntity
  8
0
  6
Continuous
 62
     7
370
    25
100
AcDbLine
 10
255.0940763302
 20
646.3899146101
 30
0.0
 11
255.5639695473
 21
646.3899146101
 31
0.0
  0
LINE
  5
1F9
330
1F
100
AcDbEntity
  8
0
  6
Continuous
 62
     7
370
    25
100
AcDbLine
 10
170.1103400536
 20
646.3899146101
 30
0.0
 11
170.5802332706
 21
646.3899146101
 31
0.0
  0
LINE
  5
1FA
330
1F
100
AcDbEntity
  8
0
  6
Continuous
 62
     7
370
    25
100
AcDbLine
 10
174.9880228288
 20
633.3899180672
 30
0.0
 11
175.8852105684
 21
633.3899180672
 31
0.0
  0
LINE
  5
1FB
330
1F
100
AcDbEntity
  8
0
  6
Continuous
 62
     7
370
    25
100
AcDbLine
 10
255.5639695473
 20
646.3899146101
 30
0.0
 11
260.05972066
 21
646.3899146101
 31
0.0
  0
LINE
  5
1FC
330
1F
100
AcDbEntity
  8
0
  6
Continuous
 62
     7
370
    25
100
AcDbLine
 10
165.6145889409
 20
646.3899146101
 30
0.0
 11
170.1103400536
 21
646.3899146101
 31
0.0
  0
SPLINE
  5
1FD
330
1F
100
AcDbEntity
  8
0
  6
Continuous
 62
     7
370
    25
100
AcDbSpline
210
0.0
220
0.0
230
1.0
 70
    11
 71
     3
 72
    26
 73
    22
 74
     0
 42
0.000000001
 43
0.00000001
 40
0.0
 40
0.0
 40
0.0
 40
0.0
 40
0.0536452874627784
 40
0.1072898765738979
 40
0.1609450300474416
 40
0.2146608298468657
 40
0.268418787855856
 40
0.322133062054661
 40
0.3757450147184089
 40
0.4293067653278935
 40
0.4829279767813811
 40
0.5366498804268484
 40
0.5904066336147114
 40
0.644115360850852
 40
0.6977676496346626
 40
0.7514126267809239
 40
0.8050788117412316
 40
0.8587534435794618
 40
0.912423285327531
 40
0.9660955799739827
 40
1.0
 40
1.0
 40
1.0
 40
1.0
 10
255.6203071124482
 20
662.2938494464734
 30
0.0
 10
255.5260993032149
 20
662.0458643499611
 30
0.0
 10
255.3376849111407
 20
661.549897385194
 30
0.0
 10
255.3064067257073
 20
660.6893960549755
 30
0.0
 10
255.472632706057
 20
659.8628040860688
 30
0.0
 10
255.8314565784804
 20
659.1484430386853
 30
0.0
 10
256.3349018852008
 20
658.6309200405309
 30
0.0
 10
256.9230438153283
 20
658.3681768104998
 30
0.0
 10
257.5262541885805
 20
658.3898499558965
 30
0.0
 10
258.0770447413863
 20
658.6924491303361
 30
0.0
 10
258.5169144214811
 20
659.2419906387104
 30
0.0
 10
258.8004957334201
 20
659.9777034817636
 30
0.0
 10
258.8988072979511
 20
660.817003646787
 30
0.0
 10
258.8020040057094
 20
661.6644822718325
 30
0.0
 10
258.5202039982256
 20
662.4241506709632
 30
0.0
 10
258.0818929455888
 20
663.010827788267
 30
0.0
 10
257.5324335689781
 20
663.3584416415325
 30
0.0
 10
256.9297225297627
 20
663.4284266403231
 30
0.0
 10
256.3445172784599
 20
663.2101626795466
 30
0.0
 10
255.8950490239459
 20
662.7960250466866
 30
0.0
 10
255.6969853982519
 20
662.4340026687718
 30
0.0
 10
255.6203071124482
 20
662.2938494464734
 30
0.0
  0
SPLINE
  5
1FE
330
1F
100
AcDbEntity
  8
0
  6
Continuous
 62
     7
370
    25
100
AcDbSpline
210
0.0
220
0.0
230
1.0
 70
    11
 71
     3
 72
    26
 73
    22
 74
     0
 42
0.000000001
 43
0.00000001
 40
0.0
 40
0.0
 40
0.0
 40
0.0
 40
0.0536452874627784
 40
0.1072898765738979
 40
0.1609450300474416
 40
0.2146608298468657
 40
0.268418787855856
 40
0.322133062054661
 40
0.3757450147184089
 40
0.4293067653278935
 40
0.4829279767813811
 40
0.5366498804268484
 40
0.5904066336147114
 40
0.644115360850852
 40
0.6977676496346626
 40
0.7514126267809239
 40
0.8050788117412316
 40
0.8587534435794618
 40
0.912423285327531
 40
0.9660955799739827
 40
1.0
 40
1.0
 40
1.0
 40
1.0
 10
167.128613973372
 20
662.2938494464734
 30
0.0
 10
167.0319930753359
 20
662.0458643499611
 30
0.0
 10
166.8387525370696
 20
661.549897385194
 30
0.0
 10
166.7797656087945
 20
660.6893960549755
 30
0.0
 10
166.9035272347741
 20
659.8628040860688
 30
0.0
 10
167.2126912256059
 20
659.1484430386853
 30
0.0
 10
167.6727030554416
 20
658.6309200405309
 30
0.0
 10
168.2364069103322
 20
658.3681768104998
 30
0.0
 10
168.8416952787314
 20
658.3898499558965
 30
0.0
 10
169.4203342557826
 20
658.6924491303361
 30
0.0
 10
169.9053214029772
 20
659.2419906387104
 30
0.0
 10
170.2382637589353
 20
659.9777034817636
 30
0.0
 10
170.3773759687445
 20
660.817003646787
 30
0.0
 10
170.3050063145295
 20
661.6644822718325
 30
0.0
 10
170.0307606696902
 20
662.4241506709632
 30
0.0
 10
169.5890271077286
 20
663.010827788267
 30
0.0
 10
169.0336998398132
 20
663.3584416415325
 30
0.0
 10
168.4295208744607
 20
663.4284266403231
 30
0.0
 10
167.8485021104983
 20
663.2101626795466
 30
0.0
 10
167.4044554598384
 20
662.7960250466866
 30
0.0
 10
167.2055991418179
 20
662.4340026687718
 30
0.0
 10
167.128613973372
 20
662.2938494464734
 30
0.0
  0
LINE
  5
1FF
330
1F
100
AcDbEntity
  8
0
  6
Continuous
 62
     7
370
    25
100
AcDbLine
 10
254.1629809983
 20
666.3899104378
 30
0.0
 11
258.4179107196
 21
666.3899104378
 31
0.0
  0
LINE
  5
200
330
1F
100
AcDbEntity
  8
0
  6
Continuous
 62
     7
370
    25
100
AcDbLine
 10
167.2563988812
 20
666.3899104378
 30
0.0
 11
171.5113286025
 21
666.3899104378
 31
0.0
  0
ELLIPSE
  5
201
330
1F
100
AcDbEntity
  8
0
  6
Continuous
 62
     7
370
    25
100
AcDbEllipse
 10
246.0837882479
 20
665.3899106762
 30
0.0
 11
-1.414213562373078
 21
0.0
 31
-2.842170943040401E-14
210
-2.009718347115256E-14
220
0.0
230
1.0
 40
0.7071067812
 41
4.712388980384699
 42
5.322582907026904
  0
LINE
  5
202
330
1F
100
AcDbEntity
  8
0
  6
Continuous
 62
     7
370
    25
100
AcDbLine
 10
246.0837874658
 20
666.3899104378
 30
0.0
 11
254.1629809983
 21
666.3899104378
 31
0.0
  0
ELLIPSE
  5
203
330
1F
100
AcDbEntity
  8
0
  6
Continuous
 62
     7
370
    25
100
AcDbEllipse
 10
179.5905213529
 20
665.3899106762
 30
0.0
 11
1.414213562373078
 21
0.0
 31
3.197442310920451E-14
210
-2.260933140504663E-14
220
0.0
230
1.0
 40
0.7071067812
 41
0.0777279033156649
 42
1.570796326794897
  0
LINE
  5
204
330
1F
100
AcDbEntity
  8
0
  6
Continuous
 62
     7
370
    25
100
AcDbLine
 10
171.5113286025
 20
666.3899104378
 30
0.0
 11
179.590522135
 21
666.3899104378
 31
0.0
  0
SPLINE
  5
205
330
1F
100
AcDbEntity
  8
0
  6
Continuous
 62
     7
370
    25
100
AcDbSpline
210
0.0
220
0.0
230
1.0
 70
    24
 71
     3
 72
     9
 73
     5
 74
     0
 42
0.000000001
 43
0.00000001
 40
0.0
 40
0.0
 40
0.0
 40
0.0
 40
0.8971002319833269
 40
0.9999999999999999
 40
0.9999999999999999
 40
0.9999999999999999
 40
0.9999999999999999
 10
251.9128274269032
 20
558.3899113616326
 30
0.0
 10
251.8695240787613
 20
558.3899113616326
 30
0.0
 10
251.8212537221188
 20
558.3899113616326
 30
0.0
 10
251.7642229886328
 20
558.3899113616326
 30
0.0
 10
251.7583545393872
 20
558.3899113616326
 30
0.0
  0
LINE
  5
206
330
1F
100
AcDbEntity
  8
0
  6
Continuous
 62
     7
370
    25
100
AcDbLine
 10
261.6689901895
 20
545.3899110934
 30
0.0
 11
255.7533782072
 21
545.3899110934
 31
0.0
  0
LINE
  5
207
330
1F
100
AcDbEntity
  8
0
  6
Continuous
 62
     7
370
    25
100
AcDbLine
 10
260.05972066
 20
646.3899146101
 30
0.0
 11
260.2061171181
 21
646.3899146101
 31
0.0
  0
LINE
  5
208
330
1F
100
AcDbEntity
  8
0
  6
Continuous
 62
     7
370
    25
100
AcDbLine
 10
165.4681924827
 20
646.3899146101
 30
0.0
 11
165.6145889409
 21
646.3899146101
 31
0.0
  0
LINE
  5
209
330
1F
100
AcDbEntity
  8
0
  6
Continuous
 62
     7
370
    25
100
AcDbLine
 10
260.0467790015
 20
646.3899146101
 30
0.0
 11
259.9834118135
 21
646.3899146101
 31
0.0
  0
LINE
  5
20A
330
1F
100
AcDbEntity
  8
0
  6
Continuous
 62
     7
370
    25
100
AcDbLine
 10
165.6908977873
 20
646.3899146101
 30
0.0
 11
165.6290505178
 21
646.3899146101
 31
0.0
  0
LINE
  5
20B
330
1F
100
AcDbEntity
  8
0
  6
Continuous
 62
     7
370
    25
100
AcDbLine
 10
259.8661694772
 20
646.7804442427
 30
0.0
 11
259.8707404084
 21
646.7058490297
 31
0.0
  0
LINE
  5
20C
330
1F
100
AcDbEntity
  8
0
  6
Continuous
 62
     7
370
    25
100
AcDbLine
 10
165.8010918744
 20
646.70790539
 30
0.0
 11
165.8081401236
 21
646.7804442427
 31
0.0
  0
LINE
  5
20D
330
1F
100
AcDbEntity
  8
0
  6
Continuous
 62
     7
370
    25
100
AcDbLine
 10
155.7208176799
 20
633.3899180672
 30
0.0
 11
164.6594505854
 21
633.3899180672
 31
0.0
  0
LINE
  5
20E
330
1F
100
AcDbEntity
  8
0
  6
Continuous
 62
     7
370
    25
100
AcDbLine
 10
273.8371554859
 20
545.3899110934
 30
0.0
 11
261.6689901895
 21
545.3899110934
 31
0.0
  0
LINE
  5
20F
330
1F
100
AcDbEntity
  8
0
  6
Continuous
 62
     7
370
    25
100
AcDbLine
 10
260.7433002539
 20
644.389910557
 30
0.0
 11
264.9293270059
 21
644.389910557
 31
0.0
  0
LINE
  5
210
330
1F
100
AcDbEntity
  8
0
  6
Continuous
 62
     7
370
    25
100
AcDbLine
 10
264.9293270059
 20
644.389910557
 30
0.0
 11
265.1748608894
 21
644.389910557
 31
0.0
  0
ELLIPSE
  5
211
330
1F
100
AcDbEntity
  8
0
  6
Continuous
 62
     7
370
    25
100
AcDbEllipse
 10
150.2560224932
 20
558.92465912
 30
0.0
 11
0.99854842119845
 21
-0.3906656515763416
 31
0.0
210
0.0
220
0.0
230
1.0
 40
0.1378708387
 41
1.231984722634697
 42
2.690658158883625
  0
LINE
  5
212
330
1F
100
AcDbEntity
  8
0
  6
Continuous
 62
     7
370
    25
100
AcDbLine
 10
149.3807610221
 20
559.3362729332
 30
0.0
 11
149.3263866849
 21
559.3326407751
 31
0.0
  0
LINE
  5
213
330
1F
100
AcDbEntity
  8
0
  6
Continuous
 62
     7
370
    25
100
AcDbLine
 10
150.4473637886
 20
546.3899093947
 30
0.0
 11
149.8183932252
 21
546.3899093947
 31
0.0
  0
LINE
  5
214
330
1F
100
AcDbEntity
  8
0
  6
Continuous
 62
     7
370
    25
100
AcDbLine
 10
159.953350956
 20
546.3899093947
 30
0.0
 11
150.4473637886
 21
546.3899093947
 31
0.0
  0
LINE
  5
215
330
1F
100
AcDbEntity
  8
0
  6
Continuous
 62
     7
370
    25
100
AcDbLine
 10
149.8183932252
 20
546.3899093947
 30
0.0
 11
143.6526429005
 21
546.3899093947
 31
0.0
  0
LINE
  5
216
330
1F
100
AcDbEntity
  8
0
  6
Continuous
 62
     7
370
    25
100
AcDbLine
 10
148.4342467136
 20
558.3899113616
 30
0.0
 11
143.1721922107
 21
558.3899113616
 31
0.0
  0
SPLINE
  5
217
330
1F
100
AcDbEntity
  8
0
  6
Continuous
 62
     7
370
    25
100
AcDbSpline
210
0.0
220
0.0
230
1.0
 70
     8
 71
     3
 72
    11
 73
     7
 74
     0
 42
0.000000001
 43
0.00000001
 40
0.0
 40
0.0
 40
0.0
 40
0.0
 40
0.2282132468751547
 40
0.4548218317711415
 40
0.8026658871051678
 40
1.0
 40
1.0
 40
1.0
 40
1.0
 10
148.8476123757292
 20
559.2286343952992
 30
0.0
 10
148.8023786482658
 20
559.2075631283508
 30
0.0
 10
148.7122292504354
 20
559.1655687552699
 30
0.0
 10
148.5823548484155
 20
558.9530285680805
 30
0.0
 10
148.4893440317254
 20
558.6845632335775
 30
0.0
 10
148.4488896773444
 20
558.4682196499144
 30
0.0
 10
148.4342467136313
 20
558.3899113616326
 30
0.0
  0
ELLIPSE
  5
218
330
1F
100
AcDbEntity
  8
0
  6
Continuous
 62
     7
370
    25
100
AcDbEllipse
 10
212.8371548004
 20
631.3899106762
 30
0.0
 11
71.10693282923444
 21
71.10693282923353
 31
0.0
210
0.0
220
0.0
230
1.0
 40
0.1989123674
 41
3.434644564380798
 42
3.44851218401295
  0
LINE
  5
219
330
1F
100
AcDbEntity
  8
0
  6
Continuous
 62
     7
370
    25
100
AcDbLine
 10
160.3188987918
 20
546.3899093947
 30
0.0
 11
159.953350956
 21
546.3899093947
 31
0.0
  0
LINE
  5
21A
330
1F
100
AcDbEntity
  8
0
  6
Continuous
 62
     7
370
    25
100
AcDbLine
 10
183.8371556349
 20
668.3899144909
 30
0.0
 11
241.8371539659
 21
668.3899144909
 31
0.0
  0
LINE
  5
21B
330
1F
100
AcDbEntity
  8
0
  6
Continuous
 62
     7
370
    25
100
AcDbLine
 10
266.1845933742
 20
644.389910557
 30
0.0
 11
270.8993952818
 21
644.389910557
 31
0.0
  0
LINE
  5
21C
330
1F
100
AcDbEntity
  8
0
  6
Continuous
 62
     7
370
    25
100
AcDbLine
 10
270.8993952818
 20
644.389910557
 30
0.0
 11
271.0698571153
 21
644.389910557
 31
0.0
  0
LINE
  5
21D
330
1F
100
AcDbEntity
  8
0
  6
Continuous
 62
     7
370
    25
100
AcDbLine
 10
266.1702547319
 20
644.389910557
 30
0.0
 11
266.1845933742
 21
644.389910557
 31
0.0
  0
LINE
  5
21E
330
1F
100
AcDbEntity
  8
0
  6
Continuous
 62
     7
370
    25
100
AcDbLine
 10
143.6526429005
 20
546.3899093947
 30
0.0
 11
143.6330851264
 21
546.3899093947
 31
0.0
  0
LINE
  5
21F
330
1F
100
AcDbEntity
  8
0
  6
Continuous
 62
     7
370
    25
100
AcDbLine
 10
143.1330841131
 20
558.3899113616
 30
0.0
 11
143.1721922107
 21
558.3899113616
 31
0.0
  0
LINE
  5
220
330
1F
100
AcDbEntity
  8
0
  6
Continuous
 62
     7
370
    25
100
AcDbLine
 10
153.9957586772
 20
545.3899110934
 30
0.0
 11
153.8991656251
 21
545.3899110934
 31
0.0
  0
LINE
  5
221
330
1F
100
AcDbEntity
  8
0
  6
Continuous
 62
     7
370
    25
100
AcDbLine
 10
271.0698571153
 20
644.389910557
 30
0.0
 11
274.6381636805
 21
644.389910557
 31
0.0
  0
SPLINE
  5
222
330
1F
100
AcDbEntity
  8
0
  6
Continuous
 62
     7
370
    25
100
AcDbSpline
210
0.0
220
0.0
230
1.0
 70
     8
 71
     3
 72
    14
 73
    10
 74
     0
 42
0.000000001
 43
0.00000001
 40
0.0
 40
0.0
 40
0.0
 40
0.0
 40
0.0359075157321386
 40
0.0866567387028302
 40
0.1999937327793789
 40
0.4062454019944641
 40
0.740124407930789
 40
0.9953631818321664
 40
1.0
 40
1.0
 40
1.0
 40
1.0
 10
269.6971621460847
 20
644.3899105569699
 30
0.0
 10
269.6777524496097
 20
644.3906962137368
 30
0.0
 10
269.6309104177556
 20
644.3925922639581
 30
0.0
 10
269.5513839953978
 20
644.4137580607155
 30
0.0
 10
269.468662367301
 20
644.4688214239467
 30
0.0
 10
269.4136263653932
 20
644.5799086036621
 30
0.0
 10
269.4207023768573
 20
644.7212062690576
 30
0.0
 10
269.4600101363299
 20
644.8283973290713
 30
0.0
 10
269.4832913434182
 20
644.8754450122378
 30
0.0
 10
269.4837067372731
 20
644.8762844583371
 30
0.0
  0
LINE
  5
223
330
1F
100
AcDbEntity
  8
0
  6
Continuous
 62
     7
370
    25
100
AcDbLine
 10
274.6381636805
 20
644.389910557
 30
0.0
 11
274.7270081289
 21
644.389910557
 31
0.0
  0
LINE
  5
224
330
1F
100
AcDbEntity
  8
0
  6
Continuous
 62
     7
370
    25
100
AcDbLine
 10
150.8173260934
 20
644.389910557
 30
0.0
 11
155.8494109757
 21
644.389910557
 31
0.0
  0
SPLINE
  5
225
330
1F
100
AcDbEntity
  8
0
  6
Continuous
 62
     7
370
    25
100
AcDbSpline
210
0.0
220
0.0
230
1.0
 70
     8
 71
     3
 72
    14
 73
    10
 74
     0
 42
0.000000001
 43
0.00000001
 40
0.0
 40
0.0
 40
0.0
 40
0.0
 40
0.0046362210135007
 40
0.2598753840422727
 40
0.5937546642081399
 40
0.8000061735335202
 40
0.9133441830620986
 40
0.9640922242083685
 40
1.0
 40
1.0
 40
1.0
 40
1.0
 10
156.0237322099141
 20
644.8762844583371
 30
0.0
 10
156.024104142654
 20
644.875445011139
 30
0.0
 10
156.0449521918182
 20
644.8283912442115
 30
0.0
 10
156.0786842018824
 20
644.7212099285854
 30
0.0
 10
156.0781922196756
 20
644.5799083607124
 30
0.0
 10
156.016974296796
 20
644.4688207997245
 30
0.0
 10
155.930950449263
 20
644.413758666827
 30
0.0
 10
155.8499638165279
 20
644.3925921120461
 30
0.0
 10
155.8028241664578
 20
644.3906961791624
 30
0.0
 10
155.7832907981805
 20
644.3899105569699
 30
0.0
  0
LINE
  5
226
330
1F
100
AcDbEntity
  8
0
  6
Continuous
 62
     7
370
    25
100
AcDbLine
 10
150.7359508521
 20
644.389910557
 30
0.0
 11
150.8173260934
 21
644.389910557
 31
0.0
  0
LINE
  5
227
330
1F
100
AcDbEntity
  8
0
  6
Continuous
 62
     7
370
    25
100
AcDbLine
 10
155.8494109757
 20
644.389910557
 30
0.0
 11
155.8646958418
 21
644.389910557
 31
0.0
  0
SPLINE
  5
228
330
1F
100
AcDbEntity
  8
0
  6
Continuous
 62
     7
370
    25
100
AcDbSpline
210
0.0
220
0.0
230
1.0
 70
     8
 71
     3
 72
     9
 73
     5
 74
     0
 42
0.000000001
 43
0.00000001
 40
0.0
 40
0.0
 40
0.0
 40
0.0
 40
0.0288292751943321
 40
1.0
 40
1.0
 40
1.0
 40
1.0
 10
269.4837067372731
 20
644.8762844583371
 30
0.0
 10
269.4836330445124
 20
644.8737809756277
 30
0.0
 10
269.4810768664526
 20
644.786942763689
 30
0.0
 10
269.4845503856928
 20
644.700420852833
 30
0.0
 10
269.487923765891
 20
644.6163933059552
 30
0.0
  0
SPLINE
  5
229
330
1F
100
AcDbEntity
  8
0
  6
Continuous
 62
     7
370
    25
100
AcDbSpline
210
0.0
220
0.0
230
1.0
 70
     8
 71
     3
 72
     9
 73
     5
 74
     0
 42
0.000000001
 43
0.00000001
 40
0.0
 40
0.0
 40
0.0
 40
0.0
 40
0.9679251399493282
 40
1.0
 40
1.0
 40
1.0
 40
1.0
 10
156.0186248369149
 20
644.6426938554623
 30
0.0
 10
156.0220901934851
 20
644.7179644726726
 30
0.0
 10
156.0256703841704
 20
644.7957293886807
 30
0.0
 10
156.0237924445642
 20
644.8737809649516
 30
0.0
 10
156.0237322099141
 20
644.8762844583371
 30
0.0
  0
SPLINE
  5
22A
330
1F
100
AcDbEntity
  8
0
  6
Continuous
 62
     7
370
    25
100
AcDbSpline
210
0.0
220
0.0
230
1.0
 70
     8
 71
     3
 72
    14
 73
    10
 74
     0
 42
0.000000001
 43
0.00000001
 40
0.0
 40
0.0
 40
0.0
 40
0.0
 40
0.0046364326381224
 40
0.2598754517225524
 40
0.5937546954162896
 40
0.8000062616304704
 40
0.9133441372352372
 40
0.9640924140441386
 40
1.0
 40
1.0
 40
1.0
 40
1.0
 10
270.3275632209711
 20
644.8762844583371
 30
0.0
 10
270.3276830182945
 20
644.8754450115297
 30
0.0
 10
270.3343977461827
 20
644.8283934019648
 30
0.0
 10
270.3638167742233
 20
644.721208593557
 30
0.0
 10
270.4488072403219
 20
644.5799085189651
 30
0.0
 10
270.5779163728786
 20
644.4688208862723
 30
0.0
 10
270.6989867995064
 20
644.4137585574111
 30
0.0
 10
270.7946523677964
 20
644.392592157996
 30
0.0
 10
270.8441318055951
 20
644.3906961893941
 30
0.0
 10
270.8646345980101
 20
644.3899105569699
 30
0.0
  0
SPLINE
  5
22B
330
1F
100
AcDbEntity
  8
0
  6
Continuous
 62
     7
370
    25
100
AcDbSpline
210
0.0
220
0.0
230
1.0
 70
     8
 71
     3
 72
    11
 73
     7
 74
     0
 42
0.000000001
 43
0.00000001
 40
0.0
 40
0.0
 40
0.0
 40
0.0
 40
0.1420803179113157
 40
0.3428842556972649
 40
0.7913351487642968
 40
1.0
 40
1.0
 40
1.0
 40
1.0
 10
270.8684418446951
 20
644.3899105569699
 30
0.0
 10
270.8479685145937
 20
644.3906925226953
 30
0.0
 10
270.7985599641579
 20
644.3925796506217
 30
0.0
 10
270.7049257724787
 20
644.4138733777825
 30
0.0
 10
270.6296395153221
 20
644.445209983161
 30
0.0
 10
270.5983821466713
 20
644.4732799321871
 30
0.0
 10
270.5884564764433
 20
644.4821934482434
 30
0.0
  0
LINE
  5
22C
330
1F
100
AcDbEntity
  8
0
  6
Continuous
 62
     7
370
    25
100
AcDbLine
 10
274.7270081289
 20
644.389910557
 30
0.0
 11
276.0019552059
 21
644.389910557
 31
0.0
  0
LINE
  5
22D
330
1F
100
AcDbEntity
  8
0
  6
Continuous
 62
     7
370
    25
100
AcDbLine
 10
279.2382638998
 20
558.3899113616
 30
0.0
 11
277.0053844995
 21
643.4160898706
 31
0.0
  0
LINE
  5
22E
330
1F
100
AcDbEntity
  8
0
  6
Continuous
 62
     7
370
    25
100
AcDbLine
 10
146.436045701
 20
558.3899113616
 30
0.0
 11
148.6689251013
 21
643.4160898706
 31
0.0
  0
SPLINE
  5
22F
330
1F
100
AcDbEntity
  8
0
  6
Continuous
 62
     7
370
    25
100
AcDbSpline
210
0.0
220
0.0
230
1.0
 70
     8
 71
     3
 72
    14
 73
    10
 74
     0
 42
0.000000001
 43
0.00000001
 40
0.0
 40
0.0
 40
0.0
 40
0.0
 40
0.0359078901013073
 40
0.0866569722819106
 40
0.1999937498230144
 40
0.4062452753091534
 40
0.7401245779933199
 40
0.9953635703890129
 40
1.0
 40
1.0
 40
1.0
 40
1.0
 10
154.8058677561216
 20
644.3899105569699
 30
0.0
 10
154.8263160672096
 20
644.3906962016712
 30
0.0
 10
154.8756642389388
 20
644.3925922081173
 30
0.0
 10
154.9701679455179
 20
644.4137580755456
 30
0.0
 10
155.0882885703379
 20
644.4688215147545
 30
0.0
 10
155.2115259344097
 20
644.5799083001361
 30
0.0
 10
155.2891042328566
 20
644.7212086399072
 30
0.0
 10
155.3128868881228
 20
644.8283933762325
 30
0.0
 10
155.317165741782
 20
644.8754450115229
 30
0.0
 10
155.3172420806818
 20
644.8762844583371
 30
0.0
  0
LINE
  5
230
330
1F
100
AcDbEntity
  8
0
  6
Continuous
 62
     7
370
    25
100
AcDbLine
 10
276.0019552059
 20
644.389910557
 30
0.0
 11
276.0057624526
 21
644.389910557
 31
0.0
  0
ARC
  5
231
330
1F
100
AcDbEntity
  8
0
  6
Continuous
 62
     7
370
    25
100
AcDbCircle
 10
276.0057305425
 20
643.3899139512
 30
0.0
 40
0.9999966063190132
100
AcDbArc
 50
1.4999461232
 51
89.9981716783
  0
LINE
  5
232
330
1F
100
AcDbEntity
  8
0
  6
Continuous
 62
     7
370
    25
100
AcDbLine
 10
149.6685471482
 20
644.389910557
 30
0.0
 11
150.7359508521
 21
644.389910557
 31
0.0
  0
ARC
  5
233
330
1F
100
AcDbEntity
  8
0
  6
Continuous
 62
     7
370
    25
100
AcDbCircle
 10
149.6685790583
 20
643.3899139512
 30
0.0
 40
0.9999966063190132
100
AcDbArc
 50
90.0018283217
 51
178.5000538768
  0
LINE
  5
234
330
1F
100
AcDbEntity
  8
0
  6
Continuous
 62
     7
370
    25
100
AcDbLine
 10
276.0041605778
 20
545.3899110934
 30
0.0
 11
273.8371554859
 21
545.3899110934
 31
0.0
  0
LINE
  5
235
330
1F
100
AcDbEntity
  8
0
  6
Continuous
 62
     7
370
    25
100
AcDbLine
 10
281.7325618215
 20
546.3899093947
 30
0.0
 11
276.0041605778
 21
546.3899093947
 31
0.0
  0
LINE
  5
236
330
1F
100
AcDbEntity
  8
0
  6
Continuous
 62
     7
370
    25
100
AcDbLine
 10
281.9239076323
 20
558.3899113616
 30
0.0
 11
279.3371554561
 21
558.3899113616
 31
0.0
  0
LINE
  5
237
330
1F
100
AcDbEntity
  8
0
  6
Continuous
 62
     7
370
    25
100
AcDbLine
 10
282.0412244744
 20
546.3899093947
 30
0.0
 11
281.7325618215
 21
546.3899093947
 31
0.0
  0
LINE
  5
238
330
1F
100
AcDbEntity
  8
0
  6
Continuous
 62
     7
370
    25
100
AcDbLine
 10
281.9239076323
 20
558.3899113616
 30
0.0
 11
282.5412254877
 21
558.3899113616
 31
0.0
  0
LINE
  5
239
330
1F
100
AcDbEntity
  8
0
  6
Continuous
 62
     7
370
    25
100
AcDbLine
 10
205.0871549271
 20
483.389910244
 30
0.0
 11
220.5871546737
 21
483.389910244
 31
0.0
  0
LINE
  5
23A
330
1F
100
AcDbEntity
  8
0
  6
Continuous
 62
     7
370
    25
100
AcDbLine
 10
205.0871549271
 20
486.3899107358
 30
0.0
 11
220.5871546737
 21
486.3899107358
 31
0.0
  0
LINE
  5
23B
330
1F
100
AcDbEntity
  8
0
  6
Continuous
 62
     7
370
    25
100
AcDbLine
 10
269.4056954331
 20
505.3899110562
 30
0.0
 11
269.4056954331
 21
497.3899106762
 31
0.0
  0
LINE
  5
23C
330
1F
100
AcDbEntity
  8
0
  6
Continuous
 62
     7
370
    25
100
AcDbLine
 10
282.8371550984
 20
505.3899110562
 30
0.0
 11
269.4056954331
 21
505.3899110562
 31
0.0
  0
LINE
  5
23D
330
1F
100
AcDbEntity
  8
0
  6
Continuous
 62
     7
370
    25
100
AcDbLine
 10
282.8371550984
 20
505.3899110562
 30
0.0
 11
282.8371550984
 21
497.3899106762
 31
0.0
  0
LINE
  5
23E
330
1F
100
AcDbEntity
  8
0
  6
Continuous
 62
     7
370
    25
100
AcDbLine
 10
282.8371550984
 20
497.3899106762
 30
0.0
 11
269.4056954331
 21
497.3899106762
 31
0.0
  0
LINE
  5
23F
330
1F
100
AcDbEntity
  8
0
  6
Continuous
 62
     7
370
    25
100
AcDbLine
 10
156.2686141677
 20
505.3899110562
 30
0.0
 11
156.2686141677
 21
497.3899106762
 31
0.0
  0
LINE
  5
240
330
1F
100
AcDbEntity
  8
0
  6
Continuous
 62
     7
370
    25
100
AcDbLine
 10
269.4056954331
 20
505.3899110562
 30
0.0
 11
156.2686141677
 21
505.3899110562
 31
0.0
  0
LINE
  5
241
330
1F
100
AcDbEntity
  8
0
  6
Continuous
 62
     7
370
    25
100
AcDbLine
 10
269.4056954331
 20
497.3899106762
 30
0.0
 11
156.2686141677
 21
497.3899106762
 31
0.0
  0
LINE
  5
242
330
1F
100
AcDbEntity
  8
0
  6
Continuous
 62
     7
370
    25
100
AcDbLine
 10
142.8371545024
 20
505.3899110562
 30
0.0
 11
142.8371545024
 21
497.3899106762
 31
0.0
  0
LINE
  5
243
330
1F
100
AcDbEntity
  8
0
  6
Continuous
 62
     7
370
    25
100
AcDbLine
 10
156.2686141677
 20
505.3899110562
 30
0.0
 11
142.8371545024
 21
505.3899110562
 31
0.0
  0
LINE
  5
244
330
1F
100
AcDbEntity
  8
0
  6
Continuous
 62
     7
370
    25
100
AcDbLine
 10
156.2686141677
 20
497.3899106762
 30
0.0
 11
142.8371545024
 21
497.3899106762
 31
0.0
  0
SPLINE
  5
245
330
1F
100
AcDbEntity
  8
0
  6
Continuous
 62
     7
370
    25
100
AcDbSpline
210
0.0
220
0.0
230
1.0
 70
     8
 71
     3
 72
    11
 73
     7
 74
     0
 42
0.000000001
 43
0.00000001
 40
0.0
 40
0.0
 40
0.0
 40
0.0
 40
0.2762176579799104
 40
0.650092977123115
 40
0.8496777325632443
 40
1.0
 40
1.0
 40
1.0
 40
1.0
 10
150.3380302436285
 20
335.210410811601
 30
0.0
 10
150.3377404763312
 20
335.2238977491808
 30
0.0
 10
150.3370584935558
 20
335.2556399754659
 30
0.0
 10
150.337174518091
 20
335.3369055210093
 30
0.0
 10
150.3371551961715
 20
335.4210147147813
 30
0.0
 10
150.3371601309689
 20
335.4692078267639
 30
0.0
 10
150.337162250989
 20
335.489911892114
 30
0.0
  0
LINE
  5
246
330
1F
100
AcDbEntity
  8
0
  6
Continuous
 62
     7
370
    25
100
AcDbLine
 10
150.337162251
 20
335.4899118921
 30
0.0
 11
150.338253761
 21
335.4899118921
 31
0.0
  0
SPLINE
  5
247
330
1F
100
AcDbEntity
  8
0
  6
Continuous
 62
     7
370
    25
100
AcDbSpline
210
0.0
220
0.0
230
1.0
 70
     8
 71
     3
 72
    22
 73
    18
 74
     0
 42
0.000000001
 43
0.00000001
 40
0.0
 40
0.0
 40
0.0
 40
0.0
 40
0.125
 40
0.125
 40
0.25
 40
0.25
 40
0.375
 40
0.375
 40
0.5
 40
0.5
 40
0.625
 40
0.625
 40
0.75
 40
0.75
 40
0.875
 40
0.875
 40
1.0
 40
1.0
 40
1.0
 40
1.0
 10
212.8371548004076
 20
335.4899106761792
 30
0.0
 10
212.8371548004076
 20
335.3043963809813
 30
0.0
 10
212.8374245977769
 20
335.1217884769124
 30
0.0
 10
212.8384813855492
 20
334.7621430559579
 30
0.0
 10
212.8392770097605
 20
334.5837577252136
 30
0.0
 10
212.8413770631002
 20
334.2391737525775
 30
0.0
 10
212.84266331455
 20
334.0751552595144
 30
0.0
 10
212.8456966344033
 20
333.7632430226371
 30
0.0
 10
212.8474658066955
 20
333.6139612516085
 30
0.0
 10
212.8513721167255
 20
333.3411468535348
 30
0.0
 10
212.8535032809596
 20
333.2173417869533
 30
0.0
 10
212.8581188735396
 20
332.9947055271172
 30
0.0
 10
212.8606269037102
 20
332.895394844778
 30
0.0
 10
212.8658140665441
 20
332.7299040076152
 30
0.0
 10
212.8685091788289
 20
332.662627629777
 30
0.0
 10
212.8741042894613
 20
332.5592447050088
 30
0.0
 10
212.8770077630682
 20
332.5234712110067
 30
0.0
 10
212.8799205131816
 20
332.5049929275921
 30
0.0
  0
SPLINE
  5
248
330
1F
100
AcDbEntity
  8
0
  6
Continuous
 62
     7
370
    25
100
AcDbSpline
210
0.0
220
0.0
230
1.0
 70
     8
 71
     3
 72
    13
 73
     9
 74
     0
 42
0.000000001
 43
0.00000001
 40
0.0
 40
0.0
 40
0.0
 40
0.0
 40
0.0663326073756443
 40
0.3754124180052608
 40
0.6227585627568307
 40
0.741023375574598
 40
0.9400137290617165
 40
1.0
 40
1.0
 40
1.0
 40
1.0
 10
197.5859848878907
 20
335.489911892114
 30
0.0
 10
197.585107093759
 20
335.424356766194
 30
0.0
 10
197.5801391778196
 20
335.0533445399612
 30
0.0
 10
197.4934925589925
 20
334.4418362620778
 30
0.0
 10
197.2373635551457
 20
333.8673006802154
 30
0.0
 10
196.898114290137
 20
333.487327128393
 30
0.0
 10
196.6103381113451
 20
333.2739051188195
 30
0.0
 10
196.3644550195206
 20
333.2057128982891
 30
0.0
 10
196.307501579039
 20
333.1899176618436
 30
0.0
  0
SPLINE
  5
249
330
1F
100
AcDbEntity
  8
0
  6
Continuous
 62
     7
370
    25
100
AcDbSpline
210
0.0
220
0.0
230
1.0
 70
     8
 71
     3
 72
    13
 73
     9
 74
     0
 42
0.000000001
 43
0.00000001
 40
0.0
 40
0.0
 40
0.0
 40
0.0
 40
0.077669456131327
 40
0.2722128290235593
 40
0.4723280008399799
 40
0.697689997212788
 40
0.965580295057677
 40
1.0
 40
1.0
 40
1.0
 40
1.0
 10
194.5437740631031
 20
333.1899176618436
 30
0.0
 10
194.4841326450341
 20
333.2115210811254
 30
0.0
 10
194.2751037687138
 20
333.2872358881062
 30
0.0
 10
194.0537471437181
 20
333.5569738387651
 30
0.0
 10
193.8788003100732
 20
334.0102704881728
 30
0.0
 10
193.8091721280886
 20
334.6339626610247
 30
0.0
 10
193.7978456733532
 20
335.1564148337566
 30
0.0
 10
193.7973477690901
 20
335.4558226208549
 30
0.0
 10
193.7972910798716
 20
335.489911892114
 30
0.0
  0
SPLINE
  5
24A
330
1F
100
AcDbEntity
  8
0
  6
Continuous
 62
     7
370
    25
100
AcDbSpline
210
0.0
220
0.0
230
1.0
 70
     8
 71
     3
 72
    22
 73
    18
 74
     0
 42
0.000000001
 43
0.00000001
 40
0.0
 40
0.0
 40
0.0
 40
0.0
 40
0.2499999999999998
 40
0.2499999999999998
 40
0.3124999999999998
 40
0.3124999999999998
 40
0.3749999999999998
 40
0.3749999999999998
 40
0.4999999999999997
 40
0.4999999999999997
 40
0.7499999999999999
 40
0.7499999999999999
 40
0.8124999999999999
 40
0.8124999999999999
 40
0.8749999999999999
 40
0.8749999999999999
 40
1.0
 40
1.0
 40
1.0
 40
1.0
 10
212.879921974736
 20
332.5049836570315
 30
0.0
 10
216.9026657799483
 20
332.5074243556435
 30
0.0
 10
220.8670739465482
 20
332.5088034427648
 30
0.0
 10
225.7516667565942
 20
332.5086886927363
 30
0.0
 10
226.725005251074
 20
332.5085776914478
 30
0.0
 10
228.6644349900967
 20
332.5081822044626
 30
0.0
 10
229.6325682074701
 20
332.5078968847293
 30
0.0
 10
232.5113877426758
 20
332.5067999830973
 30
0.0
 10
234.3847782197861
 20
332.5057512100142
 30
0.0
 10
239.8721029531711
 20
332.5019558444899
 30
0.0
 10
243.3545017797181
 20
332.4985123173703
 30
0.0
 10
247.4826552901486
 20
332.4947326941726
 30
0.0
 10
248.2984839106694
 20
332.4940056186499
 30
0.0
 10
249.8975285922517
 20
332.4926778868738
 30
0.0
 10
250.6808265163245
 20
332.4920770284174
 30
0.0
 10
252.9821566153815
 20
332.4905543363742
 30
0.0
 10
254.4527771213782
 20
332.4899106761793
 30
0.0
 10
255.8501311066049
 20
332.4899106761792
 30
0.0
  0
SPLINE
  5
24B
330
1F
100
AcDbEntity
  8
0
  6
Continuous
 62
     7
370
    25
100
AcDbSpline
210
0.0
220
0.0
230
1.0
 70
     8
 71
     3
 72
    12
 73
     8
 74
     0
 42
0.000000001
 43
0.00000001
 40
0.0
 40
0.0
 40
0.0
 40
0.0
 40
0.0082379965184401
 40
0.3645805582714573
 40
0.731048458829207
 40
0.9885492871495536
 40
1.0
 40
1.0
 40
1.0
 40
1.0
 10
267.2361459679535
 20
333.1899176618436
 30
0.0
 10
267.2304999309958
 20
333.1940719661416
 30
0.0
 10
266.980629067193
 20
333.3779247484053
 30
0.0
 10
266.6813401344768
 20
333.9003812783423
 30
0.0
 10
266.4318356761972
 20
334.6614468915843
 30
0.0
 10
266.3872521973128
 20
335.2368069752961
 30
0.0
 10
266.3866954502028
 20
335.4795759134193
 30
0.0
 10
266.3866717464855
 20
335.489911892114
 30
0.0
  0
SPLINE
  5
24C
330
1F
100
AcDbEntity
  8
0
  6
Continuous
 62
     7
370
    25
100
AcDbSpline
210
0.0
220
0.0
230
1.0
 70
     8
 71
     3
 72
    10
 73
     6
 74
     0
 42
0.000000001
 43
0.00000001
 40
0.0
 40
0.0
 40
0.0
 40
0.0
 40
0.5
 40
0.5
 40
1.0
 40
1.0
 40
1.0
 40
1.0
 10
149.4921496947119
 20
493.243782472251
 30
0.0
 10
149.5841802980719
 20
493.2635129192834
 30
0.0
 10
149.6848787245719
 20
493.3285094056674
 30
0.0
 10
149.9034771710753
 20
493.5127552973991
 30
0.0
 10
150.0213967040728
 20
493.6309014736104
 30
0.0
 10
150.1483938713549
 20
493.7511527517411
 30
0.0
  0
SPLINE
  5
24D
330
1F
100
AcDbEntity
  8
0
  6
Continuous
 62
     7
370
    25
100
AcDbSpline
210
0.0
220
0.0
230
1.0
 70
     8
 71
     3
 72
     8
 73
     4
 74
     0
 42
0.000000001
 43
0.00000001
 40
0.0
 40
0.0
 40
0.0
 40
0.0
 40
1.0
 40
1.0
 40
1.0
 40
1.0
 10
148.8371720665366
 20
492.9613288582813
 30
0.0
 10
148.8394085026572
 20
493.0558385433628
 30
0.0
 10
149.0577896566525
 20
493.1506599954772
 30
0.0
 10
149.4921496947119
 20
493.243782472251
 30
0.0
  0
SPLINE
  5
24E
330
1F
100
AcDbEntity
  8
0
  6
Continuous
 62
     7
370
    25
100
AcDbSpline
210
0.0
220
0.0
230
1.0
 70
     8
 71
     3
 72
     8
 73
     4
 74
     0
 42
0.000000001
 43
0.00000001
 40
0.0
 40
0.0
 40
0.0
 40
0.0
 40
0.0000453579584788
 40
0.0000453579584788
 40
0.0000453579584788
 40
0.0000453579584788
 10
148.8371720665445
 20
492.9613288582735
 30
0.0
 10
148.8371609659671
 20
492.9608597583214
 30
0.0
 10
148.8371552137863
 20
492.9606248904508
 30
0.0
 10
148.8371548219061
 20
492.9606248904508
 30
0.0
  0
LINE
  5
24F
330
1F
100
AcDbEntity
  8
0
  6
Continuous
 62
     7
370
    25
100
AcDbLine
 10
276.8371578402
 20
494.3899106501
 30
0.0
 11
151.5068065472
 21
494.3899106501
 31
0.0
  0
SPLINE
  5
250
330
1F
100
AcDbEntity
  8
0
  6
Continuous
 62
     7
370
    25
100
AcDbSpline
210
0.0
220
0.0
230
1.0
 70
     8
 71
     3
 72
     8
 73
     4
 74
     0
 42
0.000000001
 43
0.00000001
 40
0.0
 40
0.0
 40
0.0
 40
0.0
 40
1.0
 40
1.0
 40
1.0
 40
1.0
 10
150.1483938713549
 20
493.7511527517418
 30
0.0
 10
150.5193511318519
 20
494.1024053478533
 30
0.0
 10
150.9682139736749
 20
494.3899106761792
 30
0.0
 10
151.5068057219284
 20
494.3899106761793
 30
0.0
  0
LINE
  5
251
330
1F
100
AcDbEntity
  8
0
  6
Continuous
 62
     7
370
    25
100
AcDbLine
 10
275.3371548004
 20
324.4899045011
 30
0.0
 11
150.3371548004
 21
324.4899045011
 31
0.0
  0
LINE
  5
252
330
1F
100
AcDbEntity
  8
0
  6
Continuous
 62
     7
370
    25
100
AcDbLine
 10
160.0926730878
 20
545.3899110934
 30
0.0
 11
196.6545421727
 21
545.3899110934
 31
0.0
  0
SPLINE
  5
253
330
1F
100
AcDbEntity
  8
0
  6
Continuous
 62
     7
370
    25
100
AcDbSpline
210
0.0
220
0.0
230
1.0
 70
     8
 71
     3
 72
    29
 73
    25
 74
     0
 42
0.000000001
 43
0.00000001
 40
0.0
 40
0.0
 40
0.0
 40
0.0
 40
0.1249999999999915
 40
0.1249999999999915
 40
0.1874999999999905
 40
0.1874999999999905
 40
0.2499999999999896
 40
0.2499999999999896
 40
0.3749999999999931
 40
0.3749999999999931
 40
0.4999999999999967
 40
0.4999999999999967
 40
0.6250000000000001
 40
0.6250000000000001
 40
0.6875000000000001
 40
0.6875000000000001
 40
0.7500000000000001
 40
0.8125000000000001
 40
0.8125000000000001
 40
0.875
 40
0.875
 40
0.9375
 40
0.9375
 40
1.0
 40
1.0
 40
1.0
 40
1.0
 10
212.8371548004076
 20
336.4899106761793
 30
0.0
 10
212.8371548004076
 20
337.0182454903293
 30
0.0
 10
212.836335061031
 20
337.5377508568598
 30
0.0
 10
212.8339268730334
 20
338.3043068978876
 30
0.0
 10
212.8329262669074
 20
338.5576928424317
 30
0.0
 10
212.830520583873
 20
339.0601021477213
 30
0.0
 10
212.8291087138981
 20
339.3098086728627
 30
0.0
 10
212.824352730037
 20
340.0361795066528
 30
0.0
 10
212.8204734379606
 20
340.4955275107072
 30
0.0
 10
212.8113148525559
 20
341.3648799995115
 30
0.0
 10
212.8059869038141
 20
341.7765037057164
 30
0.0
 10
212.794358837448
 20
342.5143548304205
 30
0.0
 10
212.788018806221
 20
342.8454729079071
 30
0.0
 10
212.7777059448368
 20
343.2841032592146
 30
0.0
 10
212.7741344472837
 20
343.4203086041974
 30
0.0
 10
212.7668795916653
 20
343.6671937057859
 30
0.0
 10
212.7594748243106
 20
343.8902661797991
 30
0.0
 10
212.7517763249217
 20
344.0664402965814
 30
0.0
 10
212.7439297063222
 20
344.2188505272143
 30
0.0
 10
212.7399148949419
 20
344.2833770380799
 30
0.0
 10
212.7318218639663
 20
344.3865696944066
 30
0.0
 10
212.7277547446362
 20
344.4252274799111
 30
0.0
 10
212.7195802283456
 20
344.4769153929523
 30
0.0
 10
212.7154272810921
 20
344.4899106761792
 30
0.0
 10
212.7113618972325
 20
344.4899106761792
 30
0.0
  0
LINE
  5
254
330
1F
100
AcDbEntity
  8
0
  6
Continuous
 62
     7
370
    25
100
AcDbLine
 10
212.7113619043
 20
344.48991523
 30
0.0
 11
249.7874934323
 21
344.48991523
 31
0.0
  0
SPLINE
  5
255
330
1F
100
AcDbEntity
  8
0
  6
Continuous
 62
     7
370
    25
100
AcDbSpline
210
0.0
220
0.0
230
1.0
 70
     8
 71
     3
 72
     8
 73
     4
 74
     0
 42
0.000000001
 43
0.00000001
 40
0.0
 40
0.0
 40
0.0
 40
0.0
 40
1.0
 40
1.0
 40
1.0
 40
1.0
 10
250.9943271609752
 20
344.434088890824
 30
0.0
 10
250.5924063608185
 20
344.4668808220511
 30
0.0
 10
250.1903045924225
 20
344.4899106761792
 30
0.0
 10
249.7874943818932
 20
344.4899106761792
 30
0.0
  0
SPLINE
  5
256
330
1F
100
AcDbEntity
  8
0
  6
Continuous
 62
     7
370
    25
100
AcDbSpline
210
0.0
220
0.0
230
1.0
 70
     8
 71
     3
 72
    28
 73
    24
 74
     0
 42
0.000000001
 43
0.00000001
 40
0.0
 40
0.0
 40
0.0
 40
0.0
 40
0.1249999999999987
 40
0.1249999999999987
 40
0.2499999999999974
 40
0.2499999999999974
 40
0.3124999999999984
 40
0.3124999999999984
 40
0.3749999999999995
 40
0.3749999999999995
 40
0.4999999999999998
 40
0.4999999999999998
 40
0.625
 40
0.625
 40
0.7500000000000003
 40
0.7500000000000003
 40
0.8750000000000006
 40
0.8750000000000006
 40
0.9375000000000003
 40
0.9375000000000003
 40
0.9687500000000001
 40
0.9687500000000001
 40
1.0
 40
1.0
 40
1.0
 40
1.0
 10
168.6888762413915
 20
344.4241028248103
 30
0.0
 10
168.2764277549492
 20
344.3606641274608
 30
0.0
 10
167.8618096181341
 20
344.2523275309437
 30
0.0
 10
167.0277301982554
 20
343.9443323856925
 30
0.0
 10
166.6188548490781
 20
343.7482867969118
 30
0.0
 10
166.0230116644538
 20
343.3978518237769
 30
0.0
 10
165.8269660249633
 20
343.2714453380755
 30
0.0
 10
165.4399649113318
 20
342.999385981963
 30
0.0
 10
165.2481162194187
 20
342.8529378731464
 30
0.0
 10
164.6898665432156
 20
342.3921239628251
 30
0.0
 10
164.3389351306367
 20
342.0557686408104
 30
0.0
 10
163.6770550400532
 20
341.3276633279661
 30
0.0
 10
163.3637587945973
 20
340.9319159898457
 30
0.0
 10
162.7966677409338
 20
340.1109258992759
 30
0.0
 10
162.540937875681
 20
339.6844586823866
 30
0.0
 10
162.0829924988287
 20
338.8008421540541
 30
0.0
 10
161.8804138157587
 20
338.3413289655173
 30
0.0
 10
161.6257680906653
 20
337.6511477037367
 30
0.0
 10
161.5486325904819
 20
337.4201188886547
 30
0.0
 10
161.4443604785208
 20
337.0721998640877
 30
0.0
 10
161.4115108108687
 20
336.9559972892334
 30
0.0
 10
161.3496248285537
 20
336.723143018405
 30
0.0
 10
161.3202869535554
 20
336.605222627556
 30
0.0
 10
161.293535050794
 20
336.4899106761792
 30
0.0
  0
SPLINE
  5
257
330
1F
100
AcDbEntity
  8
0
  6
Continuous
 62
     7
370
    25
100
AcDbSpline
210
0.0
220
0.0
230
1.0
 70
     8
 71
     3
 72
    14
 73
    10
 74
     0
 42
0.000000001
 43
0.00000001
 40
0.0
 40
0.0
 40
0.0
 40
0.0
 40
0.25
 40
0.25
 40
0.5
 40
0.5
 40
0.75
 40
0.75
 40
1.0
 40
1.0
 40
1.0
 40
1.0
 10
171.7770000955594
 20
344.4899106761793
 30
0.0
 10
171.4699935121856
 20
344.4899106761793
 30
0.0
 10
171.1752676172487
 20
344.4844246088524
 30
0.0
 10
170.6064242154384
 20
344.4701921785704
 30
0.0
 10
170.3305440413413
 20
344.4613059367863
 30
0.0
 10
169.8102022938025
 20
344.445172983647
 30
0.0
 10
169.5651847010568
 20
344.4378968022813
 30
0.0
 10
169.1037694358101
 20
344.4275483647602
 30
0.0
 10
168.887274886669
 20
344.4244879406594
 30
0.0
 10
168.6888762413914
 20
344.4241028248103
 30
0.0
  0
LINE
  5
258
330
1F
100
AcDbEntity
  8
0
  6
Continuous
 62
     7
370
    25
100
AcDbLine
 10
171.7770014055
 20
344.48991523
 30
0.0
 11
212.7113619043
 21
344.48991523
 31
0.0
  0
SPLINE
  5
259
330
1F
100
AcDbEntity
  8
0
  6
Continuous
 62
     7
370
    25
100
AcDbSpline
210
0.0
220
0.0
230
1.0
 70
     8
 71
     3
 72
     8
 73
     4
 74
     0
 42
0.000000001
 43
0.00000001
 40
0.0
 40
0.0
 40
0.0
 40
0.0
 40
1.0
 40
1.0
 40
1.0
 40
1.0
 10
197.5859844683465
 20
336.4899106761793
 30
0.0
 10
197.5859844683465
 20
336.9935163369775
 30
0.0
 10
197.6177736298634
 20
337.493431082196
 30
0.0
 10
197.6702351936702
 20
337.9899106761793
 30
0.0
  0
SPLINE
  5
25A
330
1F
100
AcDbEntity
  8
0
  6
Continuous
 62
     7
370
    25
100
AcDbSpline
210
0.0
220
0.0
230
1.0
 70
     8
 71
     3
 72
    22
 73
    18
 74
     0
 42
0.000000001
 43
0.00000001
 40
0.0
 40
0.0
 40
0.0
 40
0.0
 40
0.2500000000000118
 40
0.2500000000000118
 40
0.3750000000000125
 40
0.3750000000000125
 40
0.4375000000000129
 40
0.4375000000000129
 40
0.5000000000000132
 40
0.5000000000000132
 40
0.5625000000000135
 40
0.5625000000000135
 40
0.6250000000000138
 40
0.6250000000000138
 40
0.7500000000000085
 40
0.7500000000000085
 40
1.0
 40
1.0
 40
1.0
 40
1.0
 10
197.6702351936704
 20
337.9899106761794
 30
0.0
 10
197.3595761824182
 20
338.1819039390205
 30
0.0
 10
197.0522737605012
 20
338.3737740619528
 30
0.0
 10
196.5923606624584
 20
338.6549450416749
 30
0.0
 10
196.4395507662338
 20
338.7481590391699
 30
0.0
 10
196.2053813100637
 20
338.87762738665
 30
0.0
 10
196.1267011105699
 20
338.9192297426281
 30
0.0
 10
195.9618285000758
 20
338.988171592118
 30
0.0
 10
195.8741715767115
 20
339.0152731322539
 30
0.0
 10
195.6886069379786
 20
339.0144710214625
 30
0.0
 10
195.5963579670669
 20
338.9866599467493
 30
0.0
 10
195.4209254162601
 20
338.9170338895113
 30
0.0
 10
195.3363578307473
 20
338.8754168767
 30
0.0
 10
195.0848562879359
 20
338.7461645967415
 30
0.0
 10
194.9204915280031
 20
338.6532314020582
 30
0.0
 10
194.4292516473608
 20
338.3727429615501
 30
0.0
 10
194.1054173528301
 20
338.181412947157
 30
0.0
 10
193.783047852474
 20
337.9899106761793
 30
0.0
  0
SPLINE
  5
25B
330
1F
100
AcDbEntity
  8
0
  6
Continuous
 62
     7
370
    25
100
AcDbSpline
210
0.0
220
0.0
230
1.0
 70
     8
 71
     3
 72
     8
 73
     4
 74
     0
 42
0.000000001
 43
0.00000001
 40
0.0
 40
0.0
 40
0.0
 40
0.0
 40
1.0
 40
1.0
 40
1.0
 40
1.0
 10
193.7830478524739
 20
337.9899106761794
 30
0.0
 10
193.7888032456064
 20
337.493431082196
 30
0.0
 10
193.7972909453382
 20
336.9935163369776
 30
0.0
 10
193.7972909453382
 20
336.4899106761793
 30
0.0
  0
LINE
  5
25C
330
1F
100
AcDbEntity
  8
0
  6
Continuous
 62
     7
370
    25
100
AcDbLine
 10
212.8371548004
 20
335.4899118921
 30
0.0
 11
212.8371548004
 21
336.4899139187
 31
0.0
  0
LINE
  5
25D
330
1F
100
AcDbEntity
  8
0
  6
Continuous
 62
     7
370
    25
100
AcDbLine
 10
197.5859848879
 20
336.4899139187
 30
0.0
 11
197.5859848879
 21
335.4899118921
 31
0.0
  0
LINE
  5
25E
330
1F
100
AcDbEntity
  8
0
  6
Continuous
 62
     7
370
    25
100
AcDbLine
 10
266.3866717465
 20
335.4899118921
 30
0.0
 11
266.3866717465
 21
336.4899139187
 31
0.0
  0
LINE
  5
25F
330
1F
100
AcDbEntity
  8
0
  6
Continuous
 62
     7
370
    25
100
AcDbLine
 10
193.7972910799
 20
335.4899118921
 30
0.0
 11
193.7972910799
 21
336.4899139187
 31
0.0
  0
LINE
  5
260
330
1F
100
AcDbEntity
  8
0
  6
Continuous
 62
     7
370
    25
100
AcDbLine
 10
193.779595951
 20
337.9899095079
 30
0.0
 11
197.7008355878
 21
337.9899095079
 31
0.0
  0
LINE
  5
261
330
1F
100
AcDbEntity
  8
0
  6
Continuous
 62
     7
370
    25
100
AcDbLine
 10
150.338253761
 20
489.3899102962
 30
0.0
 11
150.338253761
 21
335.4899118921
 31
0.0
  0
LINE
  5
262
330
1F
100
AcDbEntity
  8
0
  6
Continuous
 62
     7
370
    25
100
AcDbLine
 10
255.8501314468
 20
332.4899058124
 30
0.0
 11
273.3208824046
 21
332.4899058124
 31
0.0
  0
LINE
  5
263
330
1F
100
AcDbEntity
  8
0
  6
Continuous
 62
     7
370
    25
100
AcDbLine
 10
149.8229753323
 20
544.3899090669
 30
0.0
 11
151.0869737811
 21
544.3899090669
 31
0.0
  0
LINE
  5
264
330
1F
100
AcDbEntity
  8
0
  6
Continuous
 62
     7
370
    25
100
AcDbLine
 10
156.742385412
 20
532.3899108252
 30
0.0
 11
150.7042933352
 21
532.3899108252
 31
0.0
  0
LINE
  5
265
330
1F
100
AcDbEntity
  8
0
  6
Continuous
 62
     7
370
    25
100
AcDbLine
 10
151.0869737811
 20
544.3899090669
 30
0.0
 11
157.8189943082
 21
544.3899090669
 31
0.0
  0
LINE
  5
266
330
1F
100
AcDbEntity
  8
0
  6
Continuous
 62
     7
370
    25
100
AcDbLine
 10
144.886801774
 20
544.3899090669
 30
0.0
 11
149.8229753323
 21
544.3899090669
 31
0.0
  0
LINE
  5
267
330
1F
100
AcDbEntity
  8
0
  6
Continuous
 62
     7
370
    25
100
AcDbLine
 10
150.7042933352
 20
532.3899108252
 30
0.0
 11
146.1944531746
 21
532.3899108252
 31
0.0
  0
SPLINE
  5
268
330
1F
100
AcDbEntity
  8
0
  6
Continuous
 62
     7
370
    25
100
AcDbSpline
210
0.0
220
0.0
230
1.0
 70
     8
 71
     3
 72
     8
 73
     4
 74
     0
 42
0.000000001
 43
0.00000001
 40
0.0
 40
0.0
 40
0.0
 40
0.0
 40
1.0
 40
1.0
 40
1.0
 40
1.0
 10
168.6888762413914
 20
344.4241028248103
 30
0.0
 10
168.7751303947832
 20
344.4373695752337
 30
0.0
 10
168.8536739499894
 20
344.4558759173226
 30
0.0
 10
168.9247501583073
 20
344.4796050580817
 30
0.0
  0
LINE
  5
269
330
1F
100
AcDbEntity
  8
0
  6
Continuous
 62
     7
370
    25
100
AcDbLine
 10
157.8189943082
 20
544.3899090669
 30
0.0
 11
159.2280071325
 21
544.3899090669
 31
0.0
  0
SPLINE
  5
26A
330
1F
100
AcDbEntity
  8
0
  6
Continuous
 62
     7
370
    25
100
AcDbSpline
210
0.0
220
0.0
230
1.0
 70
     8
 71
     3
 72
    20
 73
    16
 74
     0
 42
0.000000001
 43
0.00000001
 40
0.0
 40
0.0
 40
0.0
 40
0.0
 40
0.2499999999999943
 40
0.2499999999999943
 40
0.3749999999999953
 40
0.3749999999999953
 40
0.4999999999999962
 40
0.4999999999999962
 40
0.6249999999999971
 40
0.6249999999999971
 40
0.7499999999999981
 40
0.7499999999999981
 40
0.874999999999999
 40
0.874999999999999
 40
1.0
 40
1.0
 40
1.0
 40
1.0
 10
168.9247501583065
 20
344.4796050580817
 30
0.0
 10
169.1589372342809
 20
344.5577895620285
 30
0.0
 10
169.3909407584217
 20
344.6901245464544
 30
0.0
 10
169.7278726962607
 20
344.966975121133
 30
0.0
 10
169.8356199144554
 20
345.0702343015309
 30
0.0
 10
170.0420708656049
 20
345.2978982893502
 30
0.0
 10
170.1415497921166
 20
345.4234820050885
 30
0.0
 10
170.3269039636245
 20
345.6907850727991
 30
0.0
 10
170.4122196849079
 20
345.8313551213967
 30
0.0
 10
170.5688454633986
 20
346.1254900615692
 30
0.0
 10
170.6406206745672
 20
346.2803579942106
 30
0.0
 10
170.7672282053199
 20
346.595402634785
 30
0.0
 10
170.8222335870259
 20
346.7554844341045
 30
0.0
 10
170.9170103783555
 20
347.0803404152199
 30
0.0
 10
170.9572558652232
 20
347.247671847063
 30
0.0
 10
170.98894890325
 20
347.4114969525752
 30
0.0
  0
LINE
  5
26B
330
1F
100
AcDbEntity
  8
0
  6
Continuous
 62
     7
370
    25
100
AcDbLine
 10
153.9957586772
 20
545.3899110934
 30
0.0
 11
160.0926730878
 21
545.3899110934
 31
0.0
  0
ELLIPSE
  5
26C
330
1F
100
AcDbEntity
  8
0
  6
Continuous
 62
     7
370
    25
100
AcDbEllipse
 10
261.0732651403
 20
489.3899106762
 30
0.0
 11
0.0
 21
5.0
 31
0.0
210
0.0
220
0.0
230
1.0
 40
0.9865557714
 41
0.0
 42
1.570796326794897
  0
ELLIPSE
  5
26D
330
1F
100
AcDbEntity
  8
0
  6
Continuous
 62
     7
370
    25
100
AcDbEllipse
 10
243.3343777938
 20
489.3899106762
 30
0.0
 11
5.002777006601235
 21
0.0
 31
4.440892098500626E-14
210
-8.876853980580798E-15
220
0.0
230
1.0
 40
0.999444907
 41
0.0
 42
1.570796326794897
  0
SPLINE
  5
26E
330
1F
100
AcDbEntity
  8
0
  6
Continuous
 62
     7
370
    25
100
AcDbSpline
210
0.0
220
0.0
230
1.0
 70
     8
 71
     3
 72
    26
 73
    22
 74
     0
 42
0.000000001
 43
0.00000001
 40
0.0
 40
0.0
 40
0.0
 40
0.0
 40
0.1250000000000003
 40
0.1250000000000003
 40
0.1875000000000001
 40
0.1875000000000001
 40
0.25
 40
0.25
 40
0.3749999999999997
 40
0.3749999999999997
 40
0.4999999999999994
 40
0.4999999999999994
 40
0.6249999999999991
 40
0.6249999999999991
 40
0.749999999999999
 40
0.749999999999999
 40
0.8749999999999988
 40
0.8749999999999988
 40
0.9375000000000001
 40
0.9375000000000001
 40
1.0
 40
1.0
 40
1.0
 40
1.0
 10
177.103857473656
 20
489.3899106761793
 30
0.0
 10
177.103857473656
 20
489.7204566462644
 30
0.0
 10
177.1362120227755
 20
490.0454553344579
 30
0.0
 10
177.2312762329166
 20
490.5249759691981
 30
0.0
 10
177.2707775068717
 20
490.6834767178394
 30
0.0
 10
177.3657616999793
 20
490.9977386794806
 30
0.0
 10
177.4215018882692
 20
491.1538919940845
 30
0.0
 10
177.609266349331
 20
491.6080494050031
 30
0.0
 10
177.7624452725275
 20
491.8952147774513
 30
0.0
 10
178.1242887750634
 20
492.4386344552572
 30
0.0
 10
178.3347867833081
 20
492.6957743262316
 30
0.0
 10
178.7944621808954
 20
493.1566255074269
 30
0.0
 10
179.0452610383376
 20
493.3634303467517
 30
0.0
 10
179.5897919635128
 20
493.7286812571104
 30
0.0
 10
179.8794045076408
 20
493.883738318166
 30
0.0
 10
180.4784365808312
 20
494.1329336338842
 30
0.0
 10
180.7918318494596
 20
494.2288514447378
 30
0.0
 10
181.2744013354789
 20
494.3254212784311
 30
0.0
 10
181.436197010613
 20
494.3495419268853
 30
0.0
 10
181.7616491476738
 20
494.3817959573654
 30
0.0
 10
181.9272002930746
 20
494.3899106761793
 30
0.0
 10
182.08933380931
 20
494.3899106761793
 30
0.0
  0
SPLINE
  5
26F
330
1F
100
AcDbEntity
  8
0
  6
Continuous
 62
     7
370
    25
100
AcDbSpline
210
0.0
220
0.0
230
1.0
 70
     8
 71
     3
 72
    22
 73
    18
 74
     0
 42
0.000000001
 43
0.00000001
 40
0.0
 40
0.0
 40
0.0
 40
0.0
 40
0.1249999999999999
 40
0.1249999999999999
 40
0.2499999999999998
 40
0.2499999999999998
 40
0.3749999999999997
 40
0.3749999999999997
 40
0.4999999999999996
 40
0.4999999999999996
 40
0.7499999999999976
 40
0.7499999999999976
 40
0.8749999999999977
 40
0.8749999999999977
 40
0.9374999999999989
 40
0.9374999999999989
 40
1.0
 40
1.0
 40
1.0
 40
1.0
 10
170.0234598669618
 20
489.3899106761793
 30
0.0
 10
170.0234598669618
 20
489.7351358503201
 30
0.0
 10
169.9886613344148
 20
490.0748686040528
 30
0.0
 10
169.8516283745732
 20
490.7437094045105
 30
0.0
 10
169.7491807450074
 20
491.07030770431
 30
0.0
 10
169.4852778059888
 20
491.6886713201675
 30
0.0
 10
169.322112860695
 20
491.9838564811511
 30
0.0
 10
168.9505564925799
 20
492.5240985933912
 30
0.0
 10
168.7407484890967
 20
492.7726981623368
 30
0.0
 10
168.042091066394
 20
493.4529870680361
 30
0.0
 10
167.5162701677279
 20
493.7931601758125
 30
0.0
 10
166.6438202778943
 20
494.1486332108234
 30
0.0
 10
166.3412207844127
 20
494.23899269229
 30
0.0
 10
165.8799311504886
 20
494.3293778105954
 30
0.0
 10
165.72480282502
 20
494.3520515792097
 30
0.0
 10
165.4129887040633
 20
494.3823208767586
 30
0.0
 10
165.2552575937835
 20
494.3899106761793
 30
0.0
 10
165.0996069422544
 20
494.3899106761793
 30
0.0
  0
ARC
  5
270
330
1F
100
AcDbEntity
  8
0
  6
Continuous
 62
     7
370
    25
100
AcDbCircle
 10
245.5179918763
 20
347.4890816171
 30
0.0
 40
2.999166501784833
100
AcDbArc
 50
270.0158416951
 51
0.0157567327
  0
SPLINE
  5
271
330
1F
100
AcDbEntity
  8
0
  6
Continuous
 62
     7
370
    25
100
AcDbSpline
210
0.0
220
0.0
230
1.0
 70
     8
 71
     3
 72
    20
 73
    16
 74
     0
 42
0.000000001
 43
0.00000001
 40
0.0
 40
0.0
 40
0.0
 40
0.0
 40
0.2499999999999873
 40
0.2499999999999873
 40
0.3749999999999895
 40
0.3749999999999895
 40
0.4999999999999916
 40
0.4999999999999916
 40
0.6249999999999937
 40
0.6249999999999937
 40
0.7499999999999958
 40
0.7499999999999958
 40
0.8749999999999979
 40
0.8749999999999979
 40
1.0
 40
1.0
 40
1.0
 40
1.0
 10
176.9222337970844
 20
347.0637336235931
 30
0.0
 10
176.9733410549284
 20
346.7064027475996
 30
0.0
 10
177.0863023284545
 20
346.3667309809331
 30
0.0
 10
177.3440294572777
 20
345.8935209368236
 30
0.0
 10
177.4427915888426
 20
345.7456032625893
 30
0.0
 10
177.6651904081197
 20
345.4687668821228
 30
0.0
 10
177.7901179840847
 20
345.3387885457796
 30
0.0
 10
178.0599303199975
 20
345.1044596009799
 30
0.0
 10
178.2036469846626
 20
345.0006702110162
 30
0.0
 10
178.5083264789959
 20
344.8192657007088
 30
0.0
 10
178.6710439205634
 20
344.7411071012783
 30
0.0
 10
179.0043339533446
 20
344.6164822469789
 30
0.0
 10
179.1748763887283
 20
344.5695676755938
 30
0.0
 10
179.5236777691591
 20
344.5062171094533
 30
0.0
 10
179.7051491592048
 20
344.4899106761793
 30
0.0
 10
179.8819430970113
 20
344.4899106761793
 30
0.0
  0
SPLINE
  5
272
330
1F
100
AcDbEntity
  8
0
  6
Continuous
 62
     7
370
    25
100
AcDbSpline
210
0.0
220
0.0
230
1.0
 70
     8
 71
     3
 72
    10
 73
     6
 74
     0
 42
0.000000001
 43
0.00000001
 40
0.0
 40
0.0
 40
0.0
 40
0.0
 40
0.5
 40
0.5
 40
1.0
 40
1.0
 40
1.0
 40
1.0
 10
176.8978335945895
 20
347.4899106761935
 30
0.0
 10
176.8961746433132
 20
347.4284722825135
 30
0.0
 10
176.8965375807166
 20
347.363078811069
 30
0.0
 10
176.9039221729515
 20
347.2189723439683
 30
0.0
 10
176.9109708731533
 20
347.1424815479456
 30
0.0
 10
176.9222337970845
 20
347.0637336235931
 30
0.0
  0
LINE
  5
273
330
1F
100
AcDbEntity
  8
0
  6
Continuous
 62
     7
370
    25
100
AcDbLine
 10
248.3371559627
 20
376.4899130246
 30
0.0
 11
248.3371559627
 21
489.3899102962
 31
0.0
  0
SPLINE
  5
274
330
1F
100
AcDbEntity
  8
0
  6
Continuous
 62
     7
370
    25
100
AcDbSpline
210
0.0
220
0.0
230
1.0
 70
     8
 71
     3
 72
    18
 73
    14
 74
     0
 42
0.000000001
 43
0.00000001
 40
0.0
 40
0.0
 40
0.0
 40
0.0
 40
0.250000000000002
 40
0.250000000000002
 40
0.375000000000003
 40
0.375000000000003
 40
0.500000000000004
 40
0.500000000000004
 40
0.750000000000002
 40
0.750000000000002
 40
0.875000000000001
 40
0.875000000000001
 40
1.0
 40
1.0
 40
1.0
 40
1.0
 10
177.103857473656
 20
364.4899106761792
 30
0.0
 10
177.103857473656
 20
362.9415240298005
 30
0.0
 10
177.0991842542887
 20
361.4157654379645
 30
0.0
 10
177.0855575168903
 20
359.1591670825366
 30
0.0
 10
177.0799079522391
 20
358.4123293459401
 30
0.0
 10
177.0664017422774
 20
356.9293407114357
 30
0.0
 10
177.0585008573441
 20
356.1898400127789
 30
0.0
 10
177.0318130500795
 20
354.0170580322915
 30
0.0
 10
177.0101290117888
 20
352.6296078884819
 30
0.0
 10
176.9721158395406
 20
350.6345298459165
 30
0.0
 10
176.9585243768687
 20
349.9839457184727
 30
0.0
 10
176.9294925658802
 20
348.7117879423057
 30
0.0
 10
176.9140223987845
 20
348.0894545807051
 30
0.0
 10
176.8978335945895
 20
347.4899106761935
 30
0.0
  0
LINE
  5
275
330
1F
100
AcDbEntity
  8
0
  6
Continuous
 62
     7
370
    25
100
AcDbLine
 10
177.1038573332
 20
489.3899102962
 30
0.0
 11
177.1038573332
 21
364.4899110576
 31
0.0
  0
LINE
  5
276
330
1F
100
AcDbEntity
  8
0
  6
Continuous
 62
     7
370
    25
100
AcDbLine
 10
258.8354487069
 20
344.48991523
 30
0.0
 11
260.3235568948
 21
344.48991523
 31
0.0
  0
SPLINE
  5
277
330
1F
100
AcDbEntity
  8
0
  6
Continuous
 62
     7
370
    25
100
AcDbSpline
210
0.0
220
0.0
230
1.0
 70
     8
 71
     3
 72
    18
 73
    14
 74
     0
 42
0.000000001
 43
0.00000001
 40
0.0
 40
0.0
 40
0.0
 40
0.0
 40
0.2499999999999973
 40
0.2499999999999973
 40
0.3749999999999982
 40
0.3749999999999982
 40
0.4999999999999992
 40
0.4999999999999992
 40
0.7500000000000011
 40
0.7500000000000011
 40
0.8750000000000006
 40
0.8750000000000006
 40
1.0
 40
1.0
 40
1.0
 40
1.0
 10
266.1586695826207
 20
341.9809582710479
 30
0.0
 10
265.7815589898406
 20
342.3795459294966
 30
0.0
 10
265.3704445363131
 20
342.7328469060785
 30
0.0
 10
264.7049093055158
 20
343.1977162657234
 30
0.0
 10
264.4748554974258
 20
343.3417393880966
 30
0.0
 10
263.9979126907984
 20
343.607361649809
 30
0.0
 10
263.7510489790404
 20
343.7287071366553
 30
0.0
 10
263.0020419275352
 20
344.0507536778858
 30
0.0
 10
262.4861231775774
 20
344.2131305458003
 30
0.0
 10
261.6873923791599
 20
344.3782584610649
 30
0.0
 10
261.4158546737878
 20
344.4202013547156
 30
0.0
 10
260.871152404767
 20
344.4759416461623
 30
0.0
 10
260.5978382762848
 20
344.4899106761792
 30
0.0
 10
260.3235567485385
 20
344.4899106761792
 30
0.0
  0
SPLINE
  5
278
330
1F
100
AcDbEntity
  8
0
  6
Continuous
 62
     7
370
    25
100
AcDbSpline
210
0.0
220
0.0
230
1.0
 70
     8
 71
     3
 72
    10
 73
     6
 74
     0
 42
0.000000001
 43
0.00000001
 40
0.0
 40
0.0
 40
0.0
 40
0.0
 40
0.5
 40
0.5
 40
1.0
 40
1.0
 40
1.0
 40
1.0
 10
267.0297888406093
 20
336.4899106761795
 30
0.0
 10
267.0297888406093
 20
336.7462579654026
 30
0.0
 10
267.0146044522957
 20
336.9996031959587
 30
0.0
 10
266.9544555948485
 20
337.4999905094194
 30
0.0
 10
266.9095565466661
 20
337.7470832006775
 30
0.0
 10
266.8482589765254
 20
337.9899106761792
 30
0.0
  0
SPLINE
  5
279
330
1F
100
AcDbEntity
  8
0
  6
Continuous
 62
     7
370
    25
100
AcDbSpline
210
0.0
220
0.0
230
1.0
 70
     8
 71
     3
 72
     8
 73
     4
 74
     0
 42
0.000000001
 43
0.00000001
 40
0.0
 40
0.0
 40
0.0
 40
0.0
 40
1.0
 40
1.0
 40
1.0
 40
1.0
 10
266.8482589765254
 20
337.9899106761792
 30
0.0
 10
266.7445849052947
 20
338.099690650381
 30
0.0
 10
266.6415705369764
 20
338.1677454373805
 30
0.0
 10
266.5469343004032
 20
338.1657070473777
 30
0.0
  0
LINE
  5
27A
330
1F
100
AcDbEntity
  8
0
  6
Continuous
 62
     7
370
    25
100
AcDbLine
 10
266.4483029492
 20
338.0950819036
 30
0.0
 11
266.301444555
 21
337.9899095079
 31
0.0
  0
SPLINE
  5
27B
330
1F
100
AcDbEntity
  8
0
  6
Continuous
 62
     7
370
    25
100
AcDbSpline
210
0.0
220
0.0
230
1.0
 70
     8
 71
     3
 72
    10
 73
     6
 74
     0
 42
0.000000001
 43
0.00000001
 40
0.0
 40
0.0
 40
0.0
 40
0.0
 40
0.5
 40
0.5
 40
1.0
 40
1.0
 40
1.0
 40
1.0
 10
266.301446197969
 20
337.9899106761781
 30
0.0
 10
266.3271835317024
 20
337.7470832006765
 30
0.0
 10
266.3490231860295
 20
337.4999905094186
 30
0.0
 10
266.3786982150628
 20
336.9996031959583
 30
0.0
 10
266.3866728370666
 20
336.7462579654024
 30
0.0
 10
266.3866728370666
 20
336.4899106761795
 30
0.0
  0
LINE
  5
27C
330
1F
100
AcDbEntity
  8
0
  6
Continuous
 62
     7
370
    25
100
AcDbLine
 10
142.8371545024
 20
505.3899110562
 30
0.0
 11
142.8371545024
 21
508.3899106166
 31
0.0
  0
ARC
  5
27D
330
1F
100
AcDbEntity
  8
0
  6
Continuous
 62
     7
370
    25
100
AcDbCircle
 10
144.8371548004
 20
543.3899106762
 30
0.0
 40
1.0
100
AcDbArc
 50
90.0
 51
180.0
  0
LINE
  5
27E
330
1F
100
AcDbEntity
  8
0
  6
Continuous
 62
     7
370
    25
100
AcDbLine
 10
144.8371511049
 20
544.3899090669
 30
0.0
 11
144.886801774
 21
544.3899090669
 31
0.0
  0
LINE
  5
27F
330
1F
100
AcDbEntity
  8
0
  6
Continuous
 62
     7
370
    25
100
AcDbLine
 10
143.8371565289
 20
541.3739214918
 30
0.0
 11
143.8371565289
 21
543.3899107656
 31
0.0
  0
LINE
  5
280
330
1F
100
AcDbEntity
  8
0
  6
Continuous
 62
     7
370
    25
100
AcDbLine
 10
142.8371545024
 20
502.3899105644
 30
0.0
 11
134.8371531911
 21
502.3899105644
 31
0.0
  0
LINE
  5
281
330
1F
100
AcDbEntity
  8
0
  6
Continuous
 62
     7
370
    25
100
AcDbLine
 10
134.8371531911
 20
542.3899124643
 30
0.0
 11
141.0087298698
 21
542.3899124643
 31
0.0
  0
LINE
  5
282
330
1F
100
AcDbEntity
  8
0
  6
Continuous
 62
     7
370
    25
100
AcDbLine
 10
132.8371565885
 20
537.3899097821
 30
0.0
 11
132.8371565885
 21
540.3899121365
 31
0.0
  0
ARC
  5
283
330
1F
100
AcDbEntity
  8
0
  6
Continuous
 62
     7
370
    25
100
AcDbCircle
 10
134.8371548004
 20
540.3899106762
 30
0.0
 40
2.0
100
AcDbArc
 50
89.9999999993
 51
180.0
  0
LINE
  5
284
330
1F
100
AcDbEntity
  8
0
  6
Continuous
 62
     7
370
    25
100
AcDbLine
 10
132.8371565885
 20
504.3899108922
 30
0.0
 11
132.8371565885
 21
505.3899110562
 31
0.0
  0
ARC
  5
285
330
1F
100
AcDbEntity
  8
0
  6
Continuous
 62
     7
370
    25
100
AcDbCircle
 10
134.8371548004
 20
504.3899106762
 30
0.0
 40
2.000000000025466
100
AcDbArc
 50
180.0
 51
270.0
  0
LINE
  5
286
330
1F
100
AcDbEntity
  8
0
  6
Continuous
 62
     7
370
    25
100
AcDbLine
 10
132.8371565885
 20
505.3899110562
 30
0.0
 11
132.8371565885
 21
537.3899097821
 31
0.0
  0
LINE
  5
287
330
1F
100
AcDbEntity
  8
0
  6
Continuous
 62
     7
370
    25
100
AcDbLine
 10
267.0297872372
 20
336.4899139187
 30
0.0
 11
267.0297872372
 21
335.4899118921
 31
0.0
  0
SPLINE
  5
288
330
1F
100
AcDbEntity
  8
0
  6
Continuous
 62
     7
370
    25
100
AcDbSpline
210
0.0
220
0.0
230
1.0
 70
     8
 71
     3
 72
    11
 73
     7
 74
     0
 42
0.000000001
 43
0.00000001
 40
0.0
 40
0.0
 40
0.0
 40
0.0
 40
0.0688187431440997
 40
0.3207817336158077
 40
0.7168173707691196
 40
0.9999999999999999
 40
0.9999999999999999
 40
0.9999999999999999
 40
0.9999999999999999
 10
267.0297872371605
 20
335.489911892114
 30
0.0
 10
267.0312808456991
 20
335.4274267967069
 30
0.0
 10
267.0382429364678
 20
335.1361678123938
 30
0.0
 10
267.188401052073
 20
334.5026211246119
 30
0.0
 10
267.5888222119799
 20
333.7687798097974
 30
0.0
 10
268.0538095164403
 20
333.3602455426328
 30
0.0
 10
268.2476740426949
 20
333.1899176618436
 30
0.0
  0
LINE
  5
289
330
1F
100
AcDbEntity
  8
0
  6
Continuous
 62
     7
370
    25
100
AcDbLine
 10
266.2637483425
 20
337.9899095079
 30
0.0
 11
266.8482575662
 21
337.9899095079
 31
0.0
  0
ARC
  5
28A
330
1F
100
AcDbEntity
  8
0
  6
Continuous
 62
     7
370
    25
100
AcDbCircle
 10
144.4728292908
 20
543.3899106762
 30
0.0
 40
1.0
100
AcDbArc
 50
90.0
 51
150.0
  0
ARC
  5
28B
330
1F
100
AcDbEntity
  8
0
  6
Continuous
 62
     7
370
    25
100
AcDbCircle
 10
141.0087276757
 20
545.3899106762
 30
0.0
 40
3.000000000000082
100
AcDbArc
 50
270.0000000003
 51
330.0
  0
LINE
  5
28C
330
1F
100
AcDbEntity
  8
0
  6
Continuous
 62
     7
370
    25
100
AcDbLine
 10
177.3371536381
 20
356.3658724806
 30
0.0
 11
177.3341957576
 21
357.191143491
 31
0.0
  0
LINE
  5
28D
330
1F
100
AcDbEntity
  8
0
  6
Continuous
 62
     7
370
    25
100
AcDbLine
 10
177.3371536381
 20
356.3658724806
 30
0.0
 11
177.3371536381
 21
347.4899064085
 31
0.0
  0
ARC
  5
28E
330
1F
100
AcDbEntity
  8
0
  6
Continuous
 62
     7
370
    25
100
AcDbCircle
 10
180.3371548004
 20
347.4899106762
 30
0.0
 40
3.0
100
AcDbArc
 50
180.0
 51
270.0
  0
ARC
  5
28F
330
1F
100
AcDbEntity
  8
0
  6
Continuous
 62
     7
370
    25
100
AcDbCircle
 10
230.8371548004
 20
345.4899106762
 30
0.0
 40
1.0
100
AcDbArc
 50
270.0
 51
0.0
  0
ARC
  5
290
330
1F
100
AcDbEntity
  8
0
  6
Continuous
 62
     7
370
    25
100
AcDbCircle
 10
194.8371548004
 20
345.4899106762
 30
0.0
 40
1.0
100
AcDbArc
 50
180.0
 51
270.0
  0
LINE
  5
291
330
1F
100
AcDbEntity
  8
0
  6
Continuous
 62
     7
370
    25
100
AcDbLine
 10
232.8371543534
 20
347.4899064085
 30
0.0
 11
234.0031646289
 21
347.4899064085
 31
0.0
  0
LINE
  5
292
330
1F
100
AcDbEntity
  8
0
  6
Continuous
 62
     7
370
    25
100
AcDbLine
 10
231.8371541895
 20
345.4899172565
 30
0.0
 11
231.8371541895
 21
346.4899043819
 31
0.0
  0
ARC
  5
293
330
1F
100
AcDbEntity
  8
0
  6
Continuous
 62
     7
370
    25
100
AcDbCircle
 10
232.8371548004
 20
346.4899106762
 30
0.0
 40
1.000000000000028
100
AcDbArc
 50
90.0
 51
180.0
  0
ARC
  5
294
330
1F
100
AcDbEntity
  8
0
  6
Continuous
 62
     7
370
    25
100
AcDbCircle
 10
192.8371548004
 20
346.4899106762
 30
0.0
 40
1.0
100
AcDbArc
 50
0.0
 51
90.0
  0
LINE
  5
295
330
1F
100
AcDbEntity
  8
0
  6
Continuous
 62
     7
370
    25
100
AcDbLine
 10
193.8371554114
 20
346.4899043819
 30
0.0
 11
193.8371554114
 21
345.4899172565
 31
0.0
  0
LINE
  5
296
330
1F
100
AcDbEntity
  8
0
  6
Continuous
 62
     7
370
    25
100
AcDbLine
 10
191.671144972
 20
347.4899064085
 30
0.0
 11
192.8371552474
 21
347.4899064085
 31
0.0
  0
LINE
  5
297
330
1F
100
AcDbEntity
  8
0
  6
Continuous
 62
     7
370
    25
100
AcDbLine
 10
234.0031646289
 20
347.4899064085
 30
0.0
 11
235.8371548451
 21
347.4899064085
 31
0.0
  0
LINE
  5
298
330
1F
100
AcDbEntity
  8
0
  6
Continuous
 62
     7
370
    25
100
AcDbLine
 10
189.8371547557
 20
347.4899064085
 30
0.0
 11
191.671144972
 21
347.4899064085
 31
0.0
  0
SPLINE
  5
299
330
1F
100
AcDbEntity
  8
0
  6
Continuous
 62
     7
370
    25
100
AcDbSpline
210
0.0
220
0.0
230
1.0
 70
     8
 71
     3
 72
    14
 73
    10
 74
     0
 42
0.000000001
 43
0.00000001
 40
0.0
 40
0.0
 40
0.0
 40
0.0
 40
0.25
 40
0.25
 40
0.5
 40
0.5
 40
0.75
 40
0.75
 40
1.0
 40
1.0
 40
1.0
 40
1.0
 10
150.3382529268927
 20
489.3899106761793
 30
0.0
 10
150.3382529268927
 20
489.724377364321
 30
0.0
 10
150.3050243742458
 20
490.0527060224883
 30
0.0
 10
150.1753514862603
 20
490.6976860104177
 30
0.0
 10
150.0777871999376
 20
491.0168861406761
 30
0.0
 10
149.8201412944925
 20
491.6309753065893
 30
0.0
 10
149.6625190653622
 20
491.9215267317184
 30
0.0
 10
149.2904881500771
 20
492.470108212192
 30
0.0
 10
149.0748472357231
 20
492.7285071085388
 30
0.0
 10
148.8371720665366
 20
492.9613288582813
 30
0.0
  0
ARC
  5
29A
330
1F
100
AcDbEntity
  8
0
  6
Continuous
 62
     7
370
    25
100
AcDbCircle
 10
275.3371548004
 20
489.3899106762
 30
0.0
 40
5.0
100
AcDbArc
 50
90.0
 51
179.9999999998
  0
ARC
  5
29B
330
1F
100
AcDbEntity
  8
0
  6
Continuous
 62
     7
370
    25
100
AcDbCircle
 10
182.3371548004
 20
489.3899106762
 30
0.0
 40
5.0
100
AcDbArc
 50
90.0
 51
180.0
  0
LINE
  5
29C
330
1F
100
AcDbEntity
  8
0
  6
Continuous
 62
     7
370
    25
100
AcDbLine
 10
177.3371536381
 20
489.3899102962
 30
0.0
 11
177.3371536381
 21
375.135665693
 31
0.0
  0
SPLINE
  5
29D
330
1F
100
AcDbEntity
  8
0
  6
Continuous
 62
     7
370
    25
100
AcDbSpline
210
0.0
220
0.0
230
1.0
 70
     8
 71
     3
 72
    12
 73
     8
 74
     0
 42
0.000000001
 43
0.00000001
 40
0.0
 40
0.0
 40
0.0
 40
0.0
 40
0.4999999999999931
 40
0.4999999999999931
 40
0.7499999999999966
 40
0.7499999999999966
 40
1.0
 40
1.0
 40
1.0
 40
1.0
 10
177.3123386029543
 20
372.4899106761792
 30
0.0
 10
177.3123386029543
 20
372.9618454476026
 30
0.0
 10
177.3169258137681
 20
373.4270641755294
 30
0.0
 10
177.3262463399755
 20
374.102531259186
 30
0.0
 10
177.3296544900315
 20
374.322447197188
 30
0.0
 10
177.3350892267425
 20
374.7424938474542
 30
0.0
 10
177.3371548004083
 20
374.9439693298744
 30
0.0
 10
177.3371548004083
 20
375.1356619872439
 30
0.0
  0
ARC
  5
29E
330
1F
100
AcDbEntity
  8
0
  6
Continuous
 62
     7
370
    25
100
AcDbCircle
 10
239.8371548004
 20
347.4899106762
 30
0.0
 40
3.0
100
AcDbArc
 50
270.0
 51
0.0
  0
ARC
  5
29F
330
1F
100
AcDbEntity
  8
0
  6
Continuous
 62
     7
370
    25
100
AcDbCircle
 10
185.8371548004
 20
347.4899106762
 30
0.0
 40
3.0
100
AcDbArc
 50
180.0
 51
270.0
  0
ARC
  5
2A0
330
1F
100
AcDbEntity
  8
0
  6
Continuous
 62
     7
370
    25
100
AcDbCircle
 10
273.3371548004
 20
335.4899106762
 30
0.0
 40
3.0
100
AcDbArc
 50
180.0000000001
 51
269.9052897198
  0
SPLINE
  5
2A1
330
1F
100
AcDbEntity
  8
0
  6
Continuous
 62
     7
370
    25
100
AcDbSpline
210
0.0
220
0.0
230
1.0
 70
     8
 71
     3
 72
     8
 73
     4
 74
     0
 42
0.000000001
 43
0.00000001
 40
0.0
 40
0.0
 40
0.0
 40
0.0
 40
0.000403204976085
 40
0.000403204976085
 40
0.000403204976085
 40
0.000403204976085
 10
273.3208836965865
 20
332.4899106761792
 30
0.0
 10
273.3270868335411
 20
332.4899106761792
 30
0.0
 10
273.3308636406222
 20
332.4899169768631
 30
0.0
 10
273.3321957839919
 20
332.4899147748198
 30
0.0
  0
ARC
  5
2A2
330
1F
100
AcDbEntity
  8
0
  6
Continuous
 62
     7
370
    25
100
AcDbCircle
 10
180.3371548004
 20
376.4899106762
 30
0.0
 40
3.0
100
AcDbArc
 50
180.0
 51
270.0
  0
ARC
  5
2A3
330
1F
100
AcDbEntity
  8
0
  6
Continuous
 62
     7
370
    25
100
AcDbCircle
 10
276.8060126857
 20
529.392182524
 30
0.0
 40
2.997728303522685
100
AcDbArc
 50
90.0022454347
 51
129.11008222
  0
LINE
  5
2A4
330
1F
100
AcDbEntity
  8
0
  6
Continuous
 62
     7
370
    25
100
AcDbLine
 10
270.3371558435
 20
489.3899102962
 30
0.0
 11
270.3371558435
 21
335.4899118921
 31
0.0
  0
LINE
  5
2A5
330
1F
100
AcDbEntity
  8
0
  6
Continuous
 62
     7
370
    25
100
AcDbLine
 10
274.8351160533
 20
544.3899090669
 30
0.0
 11
276.7668020077
 21
544.3899090669
 31
0.0
  0
ARC
  5
2A6
330
1F
100
AcDbEntity
  8
0
  6
Continuous
 62
     7
370
    25
100
AcDbCircle
 10
274.8351292242
 20
545.3898828459
 30
0.0
 40
0.9999737791211161
100
AcDbArc
 50
222.6503807529
 51
269.9992453465
  0
LINE
  5
2A7
330
1F
100
AcDbEntity
  8
0
  6
Continuous
 62
     7
370
    25
100
AcDbLine
 10
240.2513686664
 20
373.4899143955
 30
0.0
 11
245.3854892499
 21
373.4899143955
 31
0.0
  0
LINE
  5
2A8
330
1F
100
AcDbEntity
  8
0
  6
Continuous
 62
     7
370
    25
100
AcDbLine
 10
242.8371541299
 20
347.4899064085
 30
0.0
 11
242.8371541299
 21
356.4899097463
 31
0.0
  0
ARC
  5
2A9
330
1F
100
AcDbEntity
  8
0
  6
Continuous
 62
     7
370
    25
100
AcDbCircle
 10
237.8371548004
 20
356.4899106762
 30
0.0
 40
5.0
100
AcDbArc
 50
0.0
 51
90.0
  0
ARC
  5
2AA
330
1F
100
AcDbEntity
  8
0
  6
Continuous
 62
     7
370
    25
100
AcDbCircle
 10
240.2513683628
 20
372.4899106762
 30
0.0
 40
1.000000000000008
100
AcDbArc
 50
90.0
 51
135.0
  0
LINE
  5
2AB
330
1F
100
AcDbEntity
  8
0
  6
Continuous
 62
     7
370
    25
100
AcDbLine
 10
230.1300473608
 20
363.7828062555
 30
0.0
 11
239.5442620016
 21
373.1970171711
 31
0.0
  0
LINE
  5
2AC
330
1F
100
AcDbEntity
  8
0
  6
Continuous
 62
     7
370
    25
100
AcDbLine
 10
237.8371551729
 20
361.489904978
 30
0.0
 11
229.8371557243
 21
361.489904978
 31
0.0
  0
LWPOLYLINE
  5
2AD
330
1F
100
AcDbEntity
  8
0
  6
Continuous
 62
     7
370
    25
100
AcDbPolyline
 90
        9
 70
   128
 43
0.0
 10
230.8371540255
 20
362.4899070045
 10
230.6420642979
 20
362.2948210022
 10
230.454471717
 20
362.1072302839
 10
230.2815847195
 20
361.9343470117
 10
230.1300473608
 20
361.7828022024
 10
230.0056859947
 20
361.6584371111
 10
229.9132745809
 20
361.5660350105
 10
229.856368909
 20
361.5091274759
 10
229.8371557243
 20
361.489904978
  0
LINE
  5
2AE
330
1F
100
AcDbEntity
  8
0
  6
Continuous
 62
     7
370
    25
100
AcDbLine
 10
229.8371557243
 20
361.489904978
 30
0.0
 11
229.8371557243
 21
363.0757014534
 31
0.0
  0
ARC
  5
2AF
330
1F
100
AcDbEntity
  8
0
  6
Continuous
 62
     7
370
    25
100
AcDbCircle
 10
230.8371548004
 20
363.0756971138
 30
0.0
 40
1.000000000000008
100
AcDbArc
 50
135.0
 51
180.0
  0
ARC
  5
2B0
330
1F
100
AcDbEntity
  8
0
  6
Continuous
 62
     7
370
    25
100
AcDbCircle
 10
194.8371548004
 20
363.0756971138
 30
0.0
 40
1.000000000000028
100
AcDbArc
 50
0.0
 51
45.0
  0
ARC
  5
2B1
330
1F
100
AcDbEntity
  8
0
  6
Continuous
 62
     7
370
    25
100
AcDbCircle
 10
194.8371548004
 20
362.4899106762
 30
0.0
 40
1.0
100
AcDbArc
 50
270.0
 51
0.0
  0
LINE
  5
2B2
330
1F
100
AcDbEntity
  8
0
  6
Continuous
 62
     7
370
    25
100
AcDbLine
 10
195.8371538765
 20
363.0757014534
 30
0.0
 11
195.8371538765
 21
362.4899070045
 31
0.0
  0
LINE
  5
2B3
330
1F
100
AcDbEntity
  8
0
  6
Continuous
 62
     7
370
    25
100
AcDbLine
 10
186.1300475992
 20
373.1970171711
 30
0.0
 11
195.54426224
 21
363.7828062555
 31
0.0
  0
LINE
  5
2B4
330
1F
100
AcDbEntity
  8
0
  6
Continuous
 62
     7
370
    25
100
AcDbLine
 10
194.8371555753
 20
361.489904978
 30
0.0
 11
187.8371544279
 21
361.489904978
 31
0.0
  0
ARC
  5
2B5
330
1F
100
AcDbEntity
  8
0
  6
Continuous
 62
     7
370
    25
100
AcDbCircle
 10
187.8371548004
 20
356.4899106762
 30
0.0
 40
5.000000000000028
100
AcDbArc
 50
90.0
 51
180.0
  0
ARC
  5
2B6
330
1F
100
AcDbEntity
  8
0
  6
Continuous
 62
     7
370
    25
100
AcDbCircle
 10
185.422941238
 20
372.4899106762
 30
0.0
 40
1.000000000000008
100
AcDbArc
 50
45.0
 51
90.0
  0
LINE
  5
2B7
330
1F
100
AcDbEntity
  8
0
  6
Continuous
 62
     7
370
    25
100
AcDbLine
 10
180.3371559925
 20
373.4899143955
 30
0.0
 11
185.4229409344
 21
373.4899143955
 31
0.0
  0
LINE
  5
2B8
330
1F
100
AcDbEntity
  8
0
  6
Continuous
 62
     7
370
    25
100
AcDbLine
 10
182.837155471
 20
356.4899097463
 30
0.0
 11
182.837155471
 21
347.4899064085
 31
0.0
  0
ELLIPSE
  5
2B9
330
1F
100
AcDbEntity
  8
0
  6
Continuous
 62
     7
370
    25
100
AcDbEllipse
 10
245.3354885964
 20
376.4899106762
 30
0.0
 11
3.001666203960752
 21
0.0
 31
2.664535259100375E-14
210
-8.876853980580763E-15
220
0.0
230
1.0
 40
0.999444907
 41
4.712388980384713
 42
6.283185307179586
  0
LWPOLYLINE
  5
2BA
330
1F
100
AcDbEntity
  8
0
  6
Continuous
 62
     7
370
    25
100
AcDbPolyline
 90
        3
 70
   128
 43
0.0
 10
273.9206764944
 20
332.4003349325
 10
273.7218540258
 20
332.4509243748
 10
273.3321961112
 20
332.4899207136
  0
SPLINE
  5
2BB
330
1F
100
AcDbEntity
  8
0
  6
Continuous
 62
     7
370
    25
100
AcDbSpline
210
0.0
220
0.0
230
1.0
 70
     8
 71
     3
 72
     8
 73
     4
 74
     0
 42
0.000000001
 43
0.00000001
 40
0.0
 40
0.0
 40
0.0
 40
0.0
 40
0.0010000122958547
 40
0.0010000122958547
 40
0.0010000122958547
 40
0.0010000122958547
 10
273.3321957839919
 20
332.4899147748199
 30
0.0
 10
273.3355018988149
 20
332.4899093097865
 30
0.0
 10
273.3371548004085
 20
332.4899106761764
 30
0.0
 10
273.3371548004085
 20
332.4899106761764
 30
0.0
  0
ARC
  5
2BC
330
1F
100
AcDbEntity
  8
0
  6
Continuous
 62
     7
370
    25
100
AcDbCircle
 10
273.3371548004
 20
330.4899106762
 30
0.0
 40
2.0
100
AcDbArc
 50
359.9999999999
 51
90.0
  0
LINE
  5
2BD
330
1F
100
AcDbEntity
  8
0
  6
Continuous
 62
     7
370
    25
100
AcDbLine
 10
150.337162251
 20
489.3899102962
 30
0.0
 11
150.338253761
 21
489.3899102962
 31
0.0
  0
SPLINE
  5
2BE
330
1F
100
AcDbEntity
  8
0
  6
Continuous
 62
     7
370
    25
100
AcDbSpline
210
0.0
220
0.0
230
1.0
 70
     8
 71
     3
 72
    14
 73
    10
 74
     0
 42
0.000000001
 43
0.00000001
 40
0.0
 40
0.0
 40
0.0
 40
0.0
 40
0.25
 40
0.25
 40
0.5
 40
0.5
 40
0.75
 40
0.75
 40
1.0
 40
1.0
 40
1.0
 40
1.0
 10
150.3371637976209
 20
489.3899106761793
 30
0.0
 10
150.3371637976209
 20
489.7242930548239
 30
0.0
 10
150.3039599555837
 20
490.0525404771511
 30
0.0
 10
150.1743834162129
 20
490.6973638653114
 30
0.0
 10
150.0768943073864
 20
491.0164824208763
 30
0.0
 10
149.8194336331022
 20
491.6304504393504
 30
0.0
 10
149.661923934146
 20
491.9209489231705
 30
0.0
 10
149.2901605028196
 20
492.4694418790145
 30
0.0
 10
149.0746685055184
 20
492.7278147738695
 30
0.0
 10
148.8371548219062
 20
492.9606248904507
 30
0.0
  0
LINE
  5
2BF
330
1F
100
AcDbEntity
  8
0
  6
Continuous
 62
     7
370
    25
100
AcDbLine
 10
281.8371530719
 20
543.3899107656
 30
0.0
 11
281.8371530719
 21
534.389911153
 31
0.0
  0
ARC
  5
2C0
330
1F
100
AcDbEntity
  8
0
  6
Continuous
 62
     7
370
    25
100
AcDbCircle
 10
279.8371548004
 20
534.3899106762
 30
0.0
 40
2.0
100
AcDbArc
 50
270.0
 51
0.0
  0
LINE
  5
2C1
330
1F
100
AcDbEntity
  8
0
  6
Continuous
 62
     7
370
    25
100
AcDbLine
 10
279.8371564693
 20
544.3899090669
 30
0.0
 11
280.8371584959
 21
544.3899090669
 31
0.0
  0
ARC
  5
2C2
330
1F
100
AcDbEntity
  8
0
  6
Continuous
 62
     7
370
    25
100
AcDbCircle
 10
280.8371548004
 20
543.3899106762
 30
0.0
 40
1.0
100
AcDbArc
 50
0.0
 51
90.0
  0
LINE
  5
2C3
330
1F
100
AcDbEntity
  8
0
  6
Continuous
 62
     7
370
    25
100
AcDbLine
 10
276.7668020077
 20
544.3899090669
 30
0.0
 11
279.8371564693
 21
544.3899090669
 31
0.0
  0
LINE
  5
2C4
330
1F
100
AcDbEntity
  8
0
  6
Continuous
 62
     7
370
    25
100
AcDbLine
 10
279.8371564693
 20
532.3899108252
 30
0.0
 11
276.8058952041
 21
532.3899108252
 31
0.0
  0
LINE
  5
2C5
330
1F
100
AcDbEntity
  8
0
  6
Continuous
 62
     7
370
    25
100
AcDbLine
 10
239.8371555008
 20
231.3699811315
 30
0.0
 11
239.8371555008
 21
229.8308848953
 31
0.0
  0
LINE
  5
2C6
330
1F
100
AcDbEntity
  8
0
  6
Continuous
 62
     7
370
    25
100
AcDbLine
 10
243.8371542938
 20
229.8308848953
 30
0.0
 11
243.8371542938
 21
231.3314914322
 31
0.0
  0
LINE
  5
2C7
330
1F
100
AcDbEntity
  8
0
  6
Continuous
 62
     7
370
    25
100
AcDbLine
 10
245.8371546216
 20
236.5645929789
 30
0.0
 11
245.8371546216
 21
236.9205817199
 31
0.0
  0
LINE
  5
2C8
330
1F
100
AcDbEntity
  8
0
  6
Continuous
 62
     7
370
    25
100
AcDbLine
 10
237.8870181836
 20
237.0676636314
 30
0.0
 11
237.8627460546
 21
236.9500636673
 31
0.0
  0
LINE
  5
2C9
330
1F
100
AcDbEntity
  8
0
  6
Continuous
 62
     7
370
    25
100
AcDbLine
 10
245.8371546216
 20
236.9205817199
 30
0.0
 11
245.7901228316
 21
237.1340110516
 31
0.0
  0
ARC
  5
2CA
330
1F
100
AcDbEntity
  8
0
  6
Continuous
 62
     7
370
    25
100
AcDbCircle
 10
241.8371548004
 20
232.2740884998
 30
0.0
 40
6.500000000000002
100
AcDbArc
 50
58.9823638146
 51
121.0176361854
  0
LINE
  5
2CB
330
1F
100
AcDbEntity
  8
0
  6
Continuous
 62
     7
370
    25
100
AcDbLine
 10
181.837155307
 20
231.2096148348
 30
0.0
 11
181.837155307
 21
229.8308848953
 31
0.0
  0
LINE
  5
2CC
330
1F
100
AcDbEntity
  8
0
  6
Continuous
 62
     7
370
    25
100
AcDbLine
 10
185.8371541001
 20
229.8308848953
 30
0.0
 11
185.8371541001
 21
231.3699811315
 31
0.0
  0
LINE
  5
2CD
330
1F
100
AcDbEntity
  8
0
  6
Continuous
 62
     7
370
    25
100
AcDbLine
 10
179.8371549792
 20
236.9205817199
 30
0.0
 11
179.8371549792
 21
236.1804931974
 31
0.0
  0
LINE
  5
2CE
330
1F
100
AcDbEntity
  8
0
  6
Continuous
 62
     7
370
    25
100
AcDbLine
 10
179.8870179899
 20
237.0676636314
 30
0.0
 11
179.8627477236
 21
236.9500636673
 31
0.0
  0
LINE
  5
2CF
330
1F
100
AcDbEntity
  8
0
  6
Continuous
 62
     7
370
    25
100
AcDbLine
 10
187.8371544279
 20
236.9205817199
 30
0.0
 11
187.7901245005
 21
237.1340110516
 31
0.0
  0
ARC
  5
2D0
330
1F
100
AcDbEntity
  8
0
  6
Continuous
 62
     7
370
    25
100
AcDbCircle
 10
183.8371548004
 20
232.2740884998
 30
0.0
 40
6.500000000000026
100
AcDbArc
 50
58.9823638146
 51
121.0176361854
  0
LINE
  5
2D1
330
1F
100
AcDbEntity
  8
0
  6
Continuous
 62
     7
370
    25
100
AcDbLine
 10
202.0692059867
 20
238.6666252827
 30
0.0
 11
202.0692059867
 21
238.6166244364
 31
0.0
  0
LINE
  5
2D2
330
1F
100
AcDbEntity
  8
0
  6
Continuous
 62
     7
370
    25
100
AcDbLine
 10
223.6051036141
 20
238.6166244364
 30
0.0
 11
223.6051036141
 21
238.6666252827
 31
0.0
  0
LINE
  5
2D3
330
1F
100
AcDbEntity
  8
0
  6
Continuous
 62
     7
370
    25
100
AcDbLine
 10
202.337154942
 20
214.0618130183
 30
0.0
 11
202.337154942
 21
214.5618140316
 31
0.0
  0
LINE
  5
2D4
330
1F
100
AcDbEntity
  8
0
  6
Continuous
 62
     7
370
    25
100
AcDbLine
 10
216.3371549084
 20
214.0618130183
 30
0.0
 11
216.3371549084
 21
214.5618140316
 31
0.0
  0
LINE
  5
2D5
330
1F
100
AcDbEntity
  8
0
  6
Continuous
 62
     7
370
    25
100
AcDbLine
 10
209.3371546924
 20
214.5618140316
 30
0.0
 11
209.3371546924
 21
214.0618130183
 31
0.0
  0
LINE
  5
2D6
330
1F
100
AcDbEntity
  8
0
  6
Continuous
 62
     7
370
    25
100
AcDbLine
 10
223.3371546588
 20
214.5618140316
 30
0.0
 11
223.3371546588
 21
214.0618130183
 31
0.0
  0
LINE
  5
2D7
330
1F
100
AcDbEntity
  8
0
  6
Continuous
 62
     7
370
    25
100
AcDbLine
 10
215.8371548265
 20
214.5618140316
 30
0.0
 11
215.8371548265
 21
215.5618160581
 31
0.0
  0
LINE
  5
2D8
330
1F
100
AcDbEntity
  8
0
  6
Continuous
 62
     7
370
    25
100
AcDbLine
 10
209.8371547743
 20
215.5618160581
 30
0.0
 11
209.8371547743
 21
214.5618140316
 31
0.0
  0
ARC
  5
2D9
330
1F
100
AcDbEntity
  8
0
  6
Continuous
 62
     7
370
    25
100
AcDbCircle
 10
211.8371548004
 20
215.5618152287
 30
0.0
 40
2.000000000000017
100
AcDbArc
 50
119.9771513514
 51
180.0
  0
ARC
  5
2DA
330
1F
100
AcDbEntity
  8
0
  6
Continuous
 62
     7
370
    25
100
AcDbCircle
 10
213.8371548004
 20
215.5618152287
 30
0.0
 40
2.000000000000003
100
AcDbArc
 50
0.0
 51
60.0024706426
  0
SPLINE
  5
2DB
330
1F
100
AcDbEntity
  8
0
  6
Continuous
 62
     7
370
    25
100
AcDbSpline
210
0.0
220
0.0
230
1.0
 70
     8
 71
     3
 72
    15
 73
    11
 74
     0
 42
0.000000001
 43
0.00000001
 40
0.0
 40
0.0
 40
0.0
 40
0.0
 40
0.0815961104514669
 40
0.237638211313466
 40
0.3974091875701009
 40
0.5672457799199254
 40
0.7066719565859348
 40
0.8222271145093549
 40
0.9331893182097667
 40
1.0
 40
1.0
 40
1.0
 40
1.0
 10
183.8371556348723
 20
236.9396477556061
 30
0.0
 10
183.6137360482051
 20
236.9362751166522
 30
0.0
 10
182.9630551437575
 20
236.9264527380612
 30
0.0
 10
181.8988514500002
 20
236.8157576062156
 30
0.0
 10
180.718088557135
 20
236.5616943846085
 30
0.0
 10
179.741291382769
 20
236.1873757798237
 30
0.0
 10
178.9867498830162
 20
235.6945344009155
 30
0.0
 10
178.4541705003629
 20
235.0851478541969
 30
0.0
 10
178.174889298393
 20
234.4481041582702
 30
0.0
 10
178.1474632671881
 20
234.0290535134292
 30
0.0
 10
178.1371560044211
 20
233.8715657210182
 30
0.0
  0
LINE
  5
2DC
330
1F
100
AcDbEntity
  8
0
  6
Continuous
 62
     7
370
    25
100
AcDbLine
 10
242.8371541299
 20
236.9396477556
 30
0.0
 11
183.8371556349
 21
236.9396477556
 31
0.0
  0
SPLINE
  5
2DD
330
1F
100
AcDbEntity
  8
0
  6
Continuous
 62
     7
370
    25
100
AcDbSpline
210
0.0
220
0.0
230
1.0
 70
     8
 71
     3
 72
    15
 73
    11
 74
     0
 42
0.000000001
 43
0.00000001
 40
0.0
 40
0.0
 40
0.0
 40
0.0
 40
0.1127078154973597
 40
0.2198722285311902
 40
0.3293857297253203
 40
0.4560125270277617
 40
0.6132194020317863
 40
0.7803862503256903
 40
0.9394145971398351
 40
1.0
 40
1.0
 40
1.0
 40
1.0
 10
248.5371556229514
 20
233.8715657210189
 30
0.0
 10
248.507969326168
 20
234.1377850549731
 30
0.0
 10
248.4510322265709
 20
234.6571300354101
 30
0.0
 10
248.0500213623484
 20
235.310433186982
 30
0.0
 10
247.513500960801
 20
235.8230535580849
 30
0.0
 10
246.7928574514214
 20
236.2474118569028
 30
0.0
 10
245.8373755168854
 20
236.5945034894932
 30
0.0
 10
244.6482331094939
 20
236.8363588807331
 30
0.0
 10
243.6040479002721
 20
236.9308986199086
 30
0.0
 10
243.00297393199
 20
236.9377559943142
 30
0.0
 10
242.837154129855
 20
236.9396477556067
 30
0.0
  0
LWPOLYLINE
  5
2DE
330
1F
100
AcDbEntity
  8
0
  6
Continuous
 62
     7
370
    25
100
AcDbPolyline
 90
       17
 70
   128
 43
0.0
 10
243.8371542938
 20
229.8308848953
 10
243.6849147178
 20
229.5691161966
 10
243.2513691581
 20
229.3472006535
 10
242.6025223083
 20
229.1989191985
 10
241.8371539659
 20
229.1468470907
 10
241.0717874862
 20
229.1989191985
 10
240.4229406364
 20
229.3472006535
 10
239.9893950767
 20
229.5691161966
 10
239.8371555008
 20
229.8308848953
 10
239.9893950767
 20
230.0926610446
 10
240.4229406364
 20
230.3145765877
 10
241.0717874862
 20
230.4628580427
 10
241.8371539659
 20
230.5149301505
 10
242.6025223083
 20
230.4628580427
 10
243.2513691581
 20
230.3145765877
 10
243.6849147178
 20
230.0926610446
 10
243.8371542938
 20
229.8308848953
  0
LWPOLYLINE
  5
2DF
330
1F
100
AcDbEntity
  8
0
  6
Continuous
 62
     7
370
    25
100
AcDbPolyline
 90
       11
 70
   128
 43
0.0
 10
237.9915665932
 20
237.2769951439
 10
238.1723344423
 20
237.6002832866
 10
238.7196727194
 20
237.967686317
 10
239.5721718765
 20
238.259257338
 10
240.6463816858
 20
238.4464531755
 10
241.8371539659
 20
238.5109603023
 10
243.027926246
 20
238.4464531755
 10
244.102137918
 20
238.259257338
 10
244.9546370752
 20
237.967686317
 10
245.5019753523
 20
237.6002832866
 10
245.6731487162
 20
237.3182192063
  0
LWPOLYLINE
  5
2E0
330
1F
100
AcDbEntity
  8
0
  6
Continuous
 62
     7
370
    25
100
AcDbPolyline
 90
       17
 70
   128
 43
0.0
 10
185.8371541001
 20
229.8308848953
 10
185.6849145241
 20
229.5691161966
 10
185.2513689644
 20
229.3472006535
 10
184.6025221146
 20
229.1989191985
 10
183.8371556349
 20
229.1468470907
 10
183.0717872925
 20
229.1989191985
 10
182.4229404427
 20
229.3472006535
 10
181.989394883
 20
229.5691161966
 10
181.837155307
 20
229.8308848953
 10
181.989394883
 20
230.0926610446
 10
182.4229404427
 20
230.3145765877
 10
183.0717872925
 20
230.4628580427
 10
183.8371556349
 20
230.5149301505
 10
184.6025221146
 20
230.4628580427
 10
185.2513689644
 20
230.3145765877
 10
185.6849145241
 20
230.0926610446
 10
185.8371541001
 20
229.8308848953
  0
LWPOLYLINE
  5
2E1
330
1F
100
AcDbEntity
  8
0
  6
Continuous
 62
     7
370
    25
100
AcDbPolyline
 90
       11
 70
   128
 43
0.0
 10
179.9915645368
 20
237.2769951439
 10
180.1723342485
 20
237.6002832866
 10
180.7196725256
 20
237.967686317
 10
181.5721716828
 20
238.259257338
 10
182.6463833548
 20
238.4464531755
 10
183.8371556349
 20
238.5109603023
 10
185.027927915
 20
238.4464531755
 10
186.1021377243
 20
238.259257338
 10
186.9546368815
 20
237.967686317
 10
187.5019751586
 20
237.6002832866
 10
187.6731466598
 20
237.3182192063
  0
LINE
  5
2E2
330
1F
100
AcDbEntity
  8
0
  6
Continuous
 62
     7
370
    25
100
AcDbLine
 10
202.0692059867
 20
238.6666252827
 30
0.0
 11
203.0692052193
 21
238.6666252827
 31
0.0
  0
LINE
  5
2E3
330
1F
100
AcDbEntity
  8
0
  6
Continuous
 62
     7
370
    25
100
AcDbLine
 10
203.0692052193
 20
238.6666252827
 30
0.0
 11
222.6051043816
 21
238.6666252827
 31
0.0
  0
LINE
  5
2E4
330
1F
100
AcDbEntity
  8
0
  6
Continuous
 62
     7
370
    25
100
AcDbLine
 10
222.6051043816
 20
238.6666252827
 30
0.0
 11
223.6051036141
 21
238.6666252827
 31
0.0
  0
LINE
  5
2E5
330
1F
100
AcDbEntity
  8
0
  6
Continuous
 62
     7
370
    25
100
AcDbLine
 10
221.7390786953
 20
238.7166261291
 30
0.0
 11
221.7390786953
 21
238.6666252827
 31
0.0
  0
LINE
  5
2E6
330
1F
100
AcDbEntity
  8
0
  6
Continuous
 62
     7
370
    25
100
AcDbLine
 10
203.9352309055
 20
238.7166261291
 30
0.0
 11
221.7390786953
 21
238.7166261291
 31
0.0
  0
LINE
  5
2E7
330
1F
100
AcDbEntity
  8
0
  6
Continuous
 62
     7
370
    25
100
AcDbLine
 10
203.9352309055
 20
238.7166261291
 30
0.0
 11
203.9352309055
 21
238.6666252827
 31
0.0
  0
LINE
  5
2E8
330
1F
100
AcDbEntity
  8
0
  6
Continuous
 62
     7
370
    25
100
AcDbLine
 10
201.8412461601
 20
214.0618130183
 30
0.0
 11
204.3371543385
 21
214.0618130183
 31
0.0
  0
LINE
  5
2E9
330
1F
100
AcDbEntity
  8
0
  6
Continuous
 62
     7
370
    25
100
AcDbLine
 10
204.3371543385
 20
214.0618130183
 30
0.0
 11
204.3371543385
 21
218.5618146872
 31
0.0
  0
LINE
  5
2EA
330
1F
100
AcDbEntity
  8
0
  6
Continuous
 62
     7
370
    25
100
AcDbLine
 10
207.3371548302
 20
218.5618146872
 30
0.0
 11
204.3371543385
 21
218.5618146872
 31
0.0
  0
LINE
  5
2EB
330
1F
100
AcDbEntity
  8
0
  6
Continuous
 62
     7
370
    25
100
AcDbLine
 10
207.3371548302
 20
214.0618130183
 30
0.0
 11
207.3371548302
 21
218.5618146872
 31
0.0
  0
LINE
  5
2EC
330
1F
100
AcDbEntity
  8
0
  6
Continuous
 62
     7
370
    25
100
AcDbLine
 10
207.3371548302
 20
214.0618130183
 30
0.0
 11
218.3371547706
 21
214.0618130183
 31
0.0
  0
LINE
  5
2ED
330
1F
100
AcDbEntity
  8
0
  6
Continuous
 62
     7
370
    25
100
AcDbLine
 10
218.3371547706
 20
214.0618130183
 30
0.0
 11
218.3371547706
 21
218.5618146872
 31
0.0
  0
LINE
  5
2EE
330
1F
100
AcDbEntity
  8
0
  6
Continuous
 62
     7
370
    25
100
AcDbLine
 10
221.3371552623
 20
218.5618146872
 30
0.0
 11
218.3371547706
 21
218.5618146872
 31
0.0
  0
LINE
  5
2EF
330
1F
100
AcDbEntity
  8
0
  6
Continuous
 62
     7
370
    25
100
AcDbLine
 10
221.3371552623
 20
214.0618130183
 30
0.0
 11
221.3371552623
 21
218.5618146872
 31
0.0
  0
LINE
  5
2F0
330
1F
100
AcDbEntity
  8
0
  6
Continuous
 62
     7
370
    25
100
AcDbLine
 10
221.3371552623
 20
214.0618130183
 30
0.0
 11
223.8330634407
 21
214.0618130183
 31
0.0
  0
ARC
  5
2F1
330
1F
100
AcDbEntity
  8
0
  6
Continuous
 62
     7
370
    25
100
AcDbCircle
 10
214.3371548004
 20
207.5618152287
 30
0.0
 40
1.5
100
AcDbArc
 50
270.0
 51
0.0
  0
LINE
  5
2F2
330
1F
100
AcDbEntity
  8
0
  6
Continuous
 62
     7
370
    25
100
AcDbLine
 10
215.8371548265
 20
207.5618147468
 30
0.0
 11
215.8371548265
 21
212.0618164158
 31
0.0
  0
LINE
  5
2F3
330
1F
100
AcDbEntity
  8
0
  6
Continuous
 62
     7
370
    25
100
AcDbLine
 10
215.8371548265
 20
212.0618164158
 30
0.0
 11
209.8371547743
 21
212.0618164158
 31
0.0
  0
LINE
  5
2F4
330
1F
100
AcDbEntity
  8
0
  6
Continuous
 62
     7
370
    25
100
AcDbLine
 10
209.8371547743
 20
212.0618164158
 30
0.0
 11
209.8371547743
 21
207.5618147468
 31
0.0
  0
ARC
  5
2F5
330
1F
100
AcDbEntity
  8
0
  6
Continuous
 62
     7
370
    25
100
AcDbCircle
 10
211.3371548004
 20
207.5618152287
 30
0.0
 40
1.5
100
AcDbArc
 50
180.0
 51
270.0
  0
LINE
  5
2F6
330
1F
100
AcDbEntity
  8
0
  6
Continuous
 62
     7
370
    25
100
AcDbLine
 10
211.3371547874
 20
206.061811707
 30
0.0
 11
214.3371548134
 21
206.061811707
 31
0.0
  0
LINE
  5
2F7
330
1F
100
AcDbEntity
  8
0
  6
Continuous
 62
     7
370
    25
100
AcDbLine
 10
201.8389728017
 20
214.5618140316
 30
0.0
 11
202.337154942
 21
214.5618140316
 31
0.0
  0
LINE
  5
2F8
330
1F
100
AcDbEntity
  8
0
  6
Continuous
 62
     7
370
    25
100
AcDbLine
 10
209.3371546924
 20
214.5618140316
 30
0.0
 11
216.3371549084
 21
214.5618140316
 31
0.0
  0
LINE
  5
2F9
330
1F
100
AcDbEntity
  8
0
  6
Continuous
 62
     7
370
    25
100
AcDbLine
 10
223.3371546588
 20
214.5618140316
 30
0.0
 11
223.8353367991
 21
214.5618140316
 31
0.0
  0
SPLINE
  5
2FA
330
1F
100
AcDbEntity
  8
0
  6
Continuous
 62
     7
370
    25
100
AcDbSpline
210
0.0
220
0.0
230
1.0
 70
    24
 71
     3
 72
     9
 73
     5
 74
     0
 42
0.000000001
 43
0.00000001
 40
0.0
 40
0.0
 40
0.0
 40
0.0
 40
0.0041258773801285
 40
1.0
 40
1.0
 40
1.0
 40
1.0
 10
210.8371547054126
 20
217.2937109684779
 30
0.0
 10
210.8371547054126
 20
217.2937633356257
 30
0.0
 10
210.8371547054125
 20
217.3064557021072
 30
0.0
 10
210.8371547054125
 20
217.2815955887157
 30
0.0
 10
210.8371547054126
 20
217.2568380451038
 30
0.0
  0
SPLINE
  5
2FB
330
1F
100
AcDbEntity
  8
0
  6
Continuous
 62
     7
370
    25
100
AcDbSpline
210
0.0
220
0.0
230
1.0
 70
     8
 71
     3
 72
    10
 73
     6
 74
     0
 42
0.000000001
 43
0.00000001
 40
0.0
 40
0.0
 40
0.0
 40
0.0
 40
0.1224227166312788
 40
0.6420016844359956
 40
1.0
 40
1.0
 40
1.0
 40
1.0
 10
210.8371547054126
 20
217.2568380451038
 30
0.0
 10
210.8790878696403
 20
217.2810042346424
 30
0.0
 10
211.0989911915787
 20
217.4077350801681
 30
0.0
 10
211.4822539685088
 20
217.5379226783238
 30
0.0
 10
211.8294815909964
 20
217.5548907261162
 30
0.0
 10
211.9711294051817
 20
217.5618126606776
 30
0.0
  0
LINE
  5
2FC
330
1F
100
AcDbEntity
  8
0
  6
Continuous
 62
     7
370
    25
100
AcDbLine
 10
211.9711294052
 20
217.5618126607
 30
0.0
 11
212.3371547767
 21
217.5618126607
 31
0.0
  0
SPLINE
  5
2FD
330
1F
100
AcDbEntity
  8
0
  6
Continuous
 62
     7
370
    25
100
AcDbSpline
210
0.0
220
0.0
230
1.0
 70
    24
 71
     3
 72
    10
 73
     6
 74
     0
 42
0.000000001
 43
0.00000001
 40
0.0
 40
0.0
 40
0.0
 40
0.0
 40
0.3583517339429274
 40
0.9554877829335335
 40
1.0
 40
1.0
 40
1.0
 40
1.0
 10
212.3371547766587
 20
217.5618126606776
 30
0.0
 10
212.3371547766587
 20
217.554960761915
 30
0.0
 10
212.3371547766587
 20
217.5366912659493
 30
0.0
 10
212.3371547766587
 20
217.3955514222409
 30
0.0
 10
212.3371547766587
 20
217.2658365813136
 30
0.0
 10
212.3371547766587
 20
217.2568380451038
 30
0.0
  0
SPLINE
  5
2FE
330
1F
100
AcDbEntity
  8
0
  6
Continuous
 62
     7
370
    25
100
AcDbSpline
210
0.0
220
0.0
230
1.0
 70
     8
 71
     3
 72
     9
 73
     5
 74
     0
 42
0.000000001
 43
0.00000001
 40
0.0
 40
0.0
 40
0.0
 40
0.0
 40
0.4999999999993955
 40
1.0
 40
1.0
 40
1.0
 40
1.0
 10
212.3371547766587
 20
217.2568380451038
 30
0.0
 10
212.5038214512414
 20
217.2753527378871
 30
0.0
 10
212.8371548004072
 20
217.3123821234538
 30
0.0
 10
213.1704881495731
 20
217.2753527378871
 30
0.0
 10
213.3371548241562
 20
217.2568380451038
 30
0.0
  0
SPLINE
  5
2FF
330
1F
100
AcDbEntity
  8
0
  6
Continuous
 62
     7
370
    25
100
AcDbSpline
210
0.0
220
0.0
230
1.0
 70
    24
 71
     3
 72
    10
 73
     6
 74
     0
 42
0.000000001
 43
0.00000001
 40
0.0
 40
0.0
 40
0.0
 40
0.0
 40
0.1224222145569803
 40
0.6419995245575733
 40
0.9999999999999999
 40
0.9999999999999999
 40
0.9999999999999999
 40
0.9999999999999999
 10
213.3371548241562
 20
217.2568380451038
 30
0.0
 10
213.3371548241562
 20
217.2810042359707
 30
0.0
 10
213.3371548241562
 20
217.4077351818458
 30
0.0
 10
213.3371548241562
 20
217.5379231045516
 30
0.0
 10
213.3371548241562
 20
217.5548908227642
 30
0.0
 10
213.3371548241562
 20
217.5618126606776
 30
0.0
  0
LINE
  5
300
330
1F
100
AcDbEntity
  8
0
  6
Continuous
 62
     7
370
    25
100
AcDbLine
 10
213.3371548242
 20
217.5618126607
 30
0.0
 11
213.7031801956
 21
217.5618126607
 31
0.0
  0
SPLINE
  5
301
330
1F
100
AcDbEntity
  8
0
  6
Continuous
 62
     7
370
    25
100
AcDbSpline
210
0.0
220
0.0
230
1.0
 70
     8
 71
     3
 72
    10
 73
     6
 74
     0
 42
0.000000001
 43
0.00000001
 40
0.0
 40
0.0
 40
0.0
 40
0.0
 40
0.3583496004024024
 40
0.9554865546589556
 40
1.0
 40
1.0
 40
1.0
 40
1.0
 10
213.7031801956332
 20
217.5618126606776
 30
0.0
 10
213.844826696498
 20
217.5549608722099
 30
0.0
 10
214.2225062779427
 20
217.5366915850419
 30
0.0
 10
214.6043321613235
 20
217.39554817718
 30
0.0
 10
214.8220510071343
 20
217.2658365750146
 30
0.0
 10
214.8371548954024
 20
217.2568380451038
 30
0.0
  0
SPLINE
  5
302
330
1F
100
AcDbEntity
  8
0
  6
Continuous
 62
     7
370
    25
100
AcDbSpline
210
0.0
220
0.0
230
1.0
 70
    24
 71
     3
 72
     9
 73
     5
 74
     0
 42
0.000000001
 43
0.00000001
 40
0.0
 40
0.0
 40
0.0
 40
0.0
 40
0.9949740206164909
 40
1.0
 40
1.0
 40
1.0
 40
1.0
 10
214.8371548954024
 20
217.2568380451038
 30
0.0
 10
214.8371548954024
 20
217.2814365112575
 30
0.0
 10
214.8371548954024
 20
217.3061592333025
 30
0.0
 10
214.8371548954024
 20
217.2937435670382
 30
0.0
 10
214.8371548954024
 20
217.2936811661556
 30
0.0
  0
LINE
  5
303
330
1F
100
AcDbEntity
  8
0
  6
Continuous
 62
     7
370
    25
100
AcDbLine
 10
178.1371560044
 20
229.8308848953
 30
0.0
 11
178.1371560044
 21
203.7885799622
 31
0.0
  0
LWPOLYLINE
  5
304
330
1F
100
AcDbEntity
  8
0
  6
Continuous
 62
     7
370
    25
100
AcDbPolyline
 90
        9
 70
   128
 43
0.0
 10
183.8371556349
 20
231.7804038143
 10
182.725139717
 20
231.7429422951
 10
181.6558584667
 20
231.63200315
 10
180.6704055614
 20
231.4518481111
 10
179.8066448517
 20
231.2094062185
 10
179.0977779872
 20
230.9139832473
 10
178.5710405655
 20
230.5769338822
 10
178.2466795392
 20
230.2112221336
 10
178.1371560044
 20
229.8308848953
  0
LINE
  5
305
330
1F
100
AcDbEntity
  8
0
  6
Continuous
 62
     7
370
    25
100
AcDbLine
 10
242.8371541299
 20
231.7804038143
 30
0.0
 11
183.8371556349
 21
231.7804038143
 31
0.0
  0
LWPOLYLINE
  5
306
330
1F
100
AcDbEntity
  8
0
  6
Continuous
 62
     7
370
    25
100
AcDbPolyline
 90
        9
 70
   128
 43
0.0
 10
248.537155623
 20
229.8308848953
 10
248.4276320882
 20
230.2112221336
 10
248.1032673366
 20
230.5769338822
 10
247.5765299148
 20
230.9139832473
 10
246.8676630504
 20
231.2094062185
 10
246.0039060659
 20
231.4518481111
 10
245.018451298
 20
231.63200315
 10
243.9491700478
 20
231.7429422951
 10
242.8371541299
 20
231.7804038143
  0
LINE
  5
307
330
1F
100
AcDbEntity
  8
0
  6
Continuous
 62
     7
370
    25
100
AcDbLine
 10
248.537155623
 20
203.7885799622
 30
0.0
 11
248.537155623
 21
229.8308848953
 31
0.0
  0
LINE
  5
308
330
1F
100
AcDbEntity
  8
0
  6
Continuous
 62
     7
370
    25
100
AcDbLine
 10
247.3371539361
 20
203.7885799622
 30
0.0
 11
247.3371539361
 21
229.8308848953
 31
0.0
  0
LWPOLYLINE
  5
309
330
1F
100
AcDbEntity
  8
0
  6
Continuous
 62
     7
370
    25
100
AcDbPolyline
 90
        9
 70
   128
 43
0.0
 10
242.8371541299
 20
231.3699811315
 10
243.7150616295
 20
231.3404023266
 10
244.5592310376
 20
231.2528207517
 10
245.3372206635
 20
231.1105966186
 10
246.0191350527
 20
230.9191912031
 10
246.5787667878
 20
230.6859582281
 10
246.9946134932
 20
230.4198756432
 10
247.2506899483
 20
230.1311507439
 10
247.3371539361
 20
229.8308848953
  0
LINE
  5
30A
330
1F
100
AcDbEntity
  8
0
  6
Continuous
 62
     7
370
    25
100
AcDbLine
 10
242.8371541299
 20
231.3699811315
 30
0.0
 11
183.8371556349
 21
231.3699811315
 31
0.0
  0
LWPOLYLINE
  5
30B
330
1F
100
AcDbEntity
  8
0
  6
Continuous
 62
     7
370
    25
100
AcDbPolyline
 90
        9
 70
   128
 43
0.0
 10
179.3371539659
 20
229.8308848953
 10
179.4236216791
 20
230.1311507439
 10
179.6796981342
 20
230.4198756432
 10
180.0955411143
 20
230.6859582281
 10
180.6551728494
 20
230.9191912031
 10
181.3370872385
 20
231.1105966186
 10
182.1150787271
 20
231.2528207517
 10
182.9592481352
 20
231.3404023266
 10
183.8371556349
 20
231.3699811315
  0
LINE
  5
30C
330
1F
100
AcDbEntity
  8
0
  6
Continuous
 62
     7
370
    25
100
AcDbLine
 10
179.3371539659
 20
229.8308848953
 30
0.0
 11
179.3371539659
 21
203.7885799622
 31
0.0
  0
LINE
  5
30D
330
1F
100
AcDbEntity
  8
0
  6
Continuous
 62
     7
370
    25
100
AcDbLine
 10
178.1371560044
 20
229.8308848953
 30
0.0
 11
178.1371560044
 21
233.871565721
 31
0.0
  0
LINE
  5
30E
330
1F
100
AcDbEntity
  8
0
  6
Continuous
 62
     7
370
    25
100
AcDbLine
 10
248.537155623
 20
233.871565721
 30
0.0
 11
248.537155623
 21
229.8308848953
 31
0.0
  0
ARC
  5
30F
330
1F
100
AcDbEntity
  8
0
  6
Continuous
 62
     7
370
    25
100
AcDbCircle
 10
189.6371548004
 20
236.6166272569
 30
0.0
 40
2.0
100
AcDbArc
 50
90.0
 51
167.6654072805
  0
LINE
  5
310
330
1F
100
AcDbEntity
  8
0
  6
Continuous
 62
     7
370
    25
100
AcDbLine
 10
189.6371550955
 20
238.6166244364
 30
0.0
 11
192.6371555872
 21
238.6166244364
 31
0.0
  0
LINE
  5
311
330
1F
100
AcDbEntity
  8
0
  6
Continuous
 62
     7
370
    25
100
AcDbLine
 10
192.6371555872
 20
238.6166244364
 30
0.0
 11
234.0371541775
 21
238.6166244364
 31
0.0
  0
LINE
  5
312
330
1F
100
AcDbEntity
  8
0
  6
Continuous
 62
     7
370
    25
100
AcDbLine
 10
234.0371541775
 20
238.6166244364
 30
0.0
 11
237.0371546693
 21
238.6166244364
 31
0.0
  0
ARC
  5
313
330
1F
100
AcDbEntity
  8
0
  6
Continuous
 62
     7
370
    25
100
AcDbCircle
 10
237.0371548004
 20
236.6166272569
 30
0.0
 40
2.000000000000038
100
AcDbArc
 50
39.7655702553
 51
90.0
  0
LINE
  5
314
330
1F
100
AcDbEntity
  8
0
  6
Continuous
 62
     7
370
    25
100
AcDbLine
 10
241.3371548153
 20
229.1685655331
 30
0.0
 11
241.3371548153
 21
203.7885799622
 31
0.0
  0
ARC
  5
315
330
1F
100
AcDbEntity
  8
0
  6
Continuous
 62
     7
370
    25
100
AcDbCircle
 10
240.5549319716
 20
234.2796170828
 30
0.0
 40
3.531466775328679
100
AcDbArc
 50
238.0559929506
 51
258.2728282234
  0
LINE
  5
316
330
1F
100
AcDbEntity
  8
0
  6
Continuous
 62
     7
370
    25
100
AcDbLine
 10
238.5459680207
 20
231.3699811315
 30
0.0
 11
238.6864673443
 21
231.2829359984
 31
0.0
  0
LINE
  5
317
330
1F
100
AcDbEntity
  8
0
  6
Continuous
 62
     7
370
    25
100
AcDbLine
 10
186.9878422565
 20
231.2829359984
 30
0.0
 11
187.1283415801
 21
231.3699811315
 31
0.0
  0
ARC
  5
318
330
1F
100
AcDbEntity
  8
0
  6
Continuous
 62
     7
370
    25
100
AcDbCircle
 10
185.1193776292
 20
234.2796170828
 30
0.0
 40
3.531466775328101
100
AcDbArc
 50
281.7271717766
 51
301.9440070494
  0
LINE
  5
319
330
1F
100
AcDbEntity
  8
0
  6
Continuous
 62
     7
370
    25
100
AcDbLine
 10
184.3371547855
 20
203.7885799622
 30
0.0
 11
184.3371547855
 21
229.1685655331
 31
0.0
  0
LINE
  5
31A
330
1F
100
AcDbEntity
  8
0
  6
Continuous
 62
     7
370
    25
100
AcDbLine
 10
180.3371559925
 20
203.7885799622
 30
0.0
 11
180.3371559925
 21
230.79826828
 31
0.0
  0
LINE
  5
31B
330
1F
100
AcDbEntity
  8
0
  6
Continuous
 62
     7
370
    25
100
AcDbLine
 10
245.3371536083
 20
231.1106115198
 30
0.0
 11
245.3371536083
 21
203.7885799622
 31
0.0
  0
LWPOLYLINE
  5
31C
330
1F
100
AcDbEntity
  8
0
  6
Continuous
 62
     7
370
    25
100
AcDbPolyline
 90
        3
 70
   128
 43
0.0
 10
185.8371541001
 20
230.3998335814
 10
185.9803002424
 20
230.4434120273
 10
186.1597363002
 20
230.4859920955
  0
ARC
  5
31D
330
1F
100
AcDbEntity
  8
0
  6
Continuous
 62
     7
370
    25
100
AcDbCircle
 10
185.3776237832
 20
235.2008061878
 30
0.0
 40
4.779243864330001
100
AcDbArc
 50
279.4186886696
 51
301.6867428406
  0
ARC
  5
31E
330
1F
100
AcDbEntity
  8
0
  6
Continuous
 62
     7
370
    25
100
AcDbCircle
 10
188.8137233529
 20
229.6456022623
 30
0.0
 40
1.752766944719517
100
AcDbArc
 50
100.3259834566
 51
121.8789822001
  0
ARC
  5
31F
330
1F
100
AcDbEntity
  8
0
  6
Continuous
 62
     7
370
    25
100
AcDbCircle
 10
236.8605862479
 20
229.6456022623
 30
0.0
 40
1.752766944717546
100
AcDbArc
 50
58.1210177999
 51
79.6740165434
  0
ARC
  5
320
330
1F
100
AcDbEntity
  8
0
  6
Continuous
 62
     7
370
    25
100
AcDbCircle
 10
240.2966858176
 20
235.2008061878
 30
0.0
 40
4.779243864330868
100
AcDbArc
 50
238.3132571594
 51
260.5813113304
  0
LWPOLYLINE
  5
321
330
1F
100
AcDbEntity
  8
0
  6
Continuous
 62
     7
370
    25
100
AcDbPolyline
 90
        3
 70
   128
 43
0.0
 10
239.5145733006
 20
230.4859920955
 10
239.6940093584
 20
230.4434120273
 10
239.8371555008
 20
230.3998335814
  0
LINE
  5
322
330
1F
100
AcDbEntity
  8
0
  6
Continuous
 62
     7
370
    25
100
AcDbLine
 10
240.3371546514
 20
229.378440938
 30
0.0
 11
240.3371546514
 21
203.7885799622
 31
0.0
  0
LINE
  5
323
330
1F
100
AcDbEntity
  8
0
  6
Continuous
 62
     7
370
    25
100
AcDbLine
 10
185.3371549494
 20
203.7885799622
 30
0.0
 11
185.3371549494
 21
229.378440938
 31
0.0
  0
LINE
  5
324
330
1F
100
AcDbEntity
  8
0
  6
Continuous
 62
     7
370
    25
100
AcDbLine
 10
187.137155617
 20
203.7885799622
 30
0.0
 11
187.137155617
 21
227.6676684236
 31
0.0
  0
ARC
  5
325
330
1F
100
AcDbEntity
  8
0
  6
Continuous
 62
     7
370
    25
100
AcDbCircle
 10
212.8371548004
 20
214.3618152287
 30
0.0
 40
10.99999999999999
100
AcDbArc
 50
286.0121479694
 51
253.9878520306
  0
LINE
  5
326
330
1F
100
AcDbEntity
  8
0
  6
Continuous
 62
     7
370
    25
100
AcDbLine
 10
238.5371539838
 20
227.6676684236
 30
0.0
 11
238.5371539838
 21
203.7885799622
 31
0.0
  0
LINE
  5
327
330
1F
100
AcDbEntity
  8
0
  6
Continuous
 62
     7
370
    25
100
AcDbLine
 10
195.8795961089
 20
193.6492561912
 30
0.0
 11
199.6857773609
 21
191.4517558729
 31
0.0
  0
LINE
  5
328
330
1F
100
AcDbEntity
  8
0
  6
Continuous
 62
     7
370
    25
100
AcDbLine
 10
199.6857773609
 20
191.4517558729
 30
0.0
 11
199.6857773609
 21
187.0567552364
 31
0.0
  0
LINE
  5
329
330
1F
100
AcDbEntity
  8
0
  6
Continuous
 62
     7
370
    25
100
AcDbLine
 10
192.0734148569
 20
191.4517558729
 30
0.0
 11
195.8795961089
 21
193.6492561912
 31
0.0
  0
LINE
  5
32A
330
1F
100
AcDbEntity
  8
0
  6
Continuous
 62
     7
370
    25
100
AcDbLine
 10
192.0734148569
 20
187.0567552364
 30
0.0
 11
192.0734148569
 21
191.4517558729
 31
0.0
  0
LINE
  5
32B
330
1F
100
AcDbEntity
  8
0
  6
Continuous
 62
     7
370
    25
100
AcDbLine
 10
195.8795961089
 20
184.8592549181
 30
0.0
 11
192.0734148569
 21
187.0567552364
 31
0.0
  0
LINE
  5
32C
330
1F
100
AcDbEntity
  8
0
  6
Continuous
 62
     7
370
    25
100
AcDbLine
 10
199.6857773609
 20
187.0567552364
 30
0.0
 11
195.8795961089
 21
184.8592549181
 31
0.0
  0
ARC
  5
32D
330
1F
100
AcDbEntity
  8
0
  6
Continuous
 62
     7
370
    25
100
AcDbCircle
 10
195.8795959265
 20
189.2542555101
 30
0.0
 40
4.394999999999998
100
AcDbArc
 50
150.0
 51
210.0
  0
ARC
  5
32E
330
1F
100
AcDbEntity
  8
0
  6
Continuous
 62
     7
370
    25
100
AcDbCircle
 10
195.8795959265
 20
189.2542555101
 30
0.0
 40
4.394999999999998
100
AcDbArc
 50
210.0
 51
270.0
  0
ARC
  5
32F
330
1F
100
AcDbEntity
  8
0
  6
Continuous
 62
     7
370
    25
100
AcDbCircle
 10
195.8795959265
 20
189.2542555101
 30
0.0
 40
4.394999999999982
100
AcDbArc
 50
270.0
 51
330.0
  0
ARC
  5
330
330
1F
100
AcDbEntity
  8
0
  6
Continuous
 62
     7
370
    25
100
AcDbCircle
 10
195.8795959265
 20
189.2542555101
 30
0.0
 40
4.395000000000012
100
AcDbArc
 50
330.0
 51
30.0
  0
ARC
  5
331
330
1F
100
AcDbEntity
  8
0
  6
Continuous
 62
     7
370
    25
100
AcDbCircle
 10
195.8795959265
 20
189.2542555101
 30
0.0
 40
4.39500000000001
100
AcDbArc
 50
90.0
 51
150.0
  0
ARC
  5
332
330
1F
100
AcDbEntity
  8
0
  6
Continuous
 62
     7
370
    25
100
AcDbCircle
 10
195.8795959265
 20
189.2542555101
 30
0.0
 40
4.395000000000012
100
AcDbArc
 50
30.0
 51
90.0
  0
LINE
  5
333
330
1F
100
AcDbEntity
  8
0
  6
Continuous
 62
     7
370
    25
100
AcDbLine
 10
229.7947134919
 20
82.7179044103
 30
0.0
 11
233.6008947439
 21
80.5204040921
 31
0.0
  0
LINE
  5
334
330
1F
100
AcDbEntity
  8
0
  6
Continuous
 62
     7
370
    25
100
AcDbLine
 10
233.6008947439
 20
80.5204040921
 30
0.0
 11
233.6008947439
 21
76.1254034555
 31
0.0
  0
LINE
  5
335
330
1F
100
AcDbEntity
  8
0
  6
Continuous
 62
     7
370
    25
100
AcDbLine
 10
233.6008947439
 20
76.1254034555
 30
0.0
 11
229.7947134919
 21
73.9279031372
 31
0.0
  0
LINE
  5
336
330
1F
100
AcDbEntity
  8
0
  6
Continuous
 62
     7
370
    25
100
AcDbLine
 10
225.9885322399
 20
80.5204040921
 30
0.0
 11
229.7947134919
 21
82.7179044103
 31
0.0
  0
LINE
  5
337
330
1F
100
AcDbEntity
  8
0
  6
Continuous
 62
     7
370
    25
100
AcDbLine
 10
229.7947134919
 20
73.9279031372
 30
0.0
 11
225.9885322399
 21
76.1254034555
 31
0.0
  0
LINE
  5
338
330
1F
100
AcDbEntity
  8
0
  6
Continuous
 62
     7
370
    25
100
AcDbLine
 10
225.9885322399
 20
76.1254034555
 30
0.0
 11
225.9885322399
 21
80.5204040921
 31
0.0
  0
ARC
  5
339
330
1F
100
AcDbEntity
  8
0
  6
Continuous
 62
     7
370
    25
100
AcDbCircle
 10
229.7947136743
 20
78.3229038184
 30
0.0
 40
4.394999999999986
100
AcDbArc
 50
150.0
 51
210.0
  0
ARC
  5
33A
330
1F
100
AcDbEntity
  8
0
  6
Continuous
 62
     7
370
    25
100
AcDbCircle
 10
229.7947136743
 20
78.3229038184
 30
0.0
 40
4.394999999999996
100
AcDbArc
 50
210.0
 51
270.0
  0
ARC
  5
33B
330
1F
100
AcDbEntity
  8
0
  6
Continuous
 62
     7
370
    25
100
AcDbCircle
 10
229.7947136743
 20
78.3229038184
 30
0.0
 40
4.39500000000003
100
AcDbArc
 50
30.0
 51
90.0
  0
ARC
  5
33C
330
1F
100
AcDbEntity
  8
0
  6
Continuous
 62
     7
370
    25
100
AcDbCircle
 10
229.7947136743
 20
78.3229038184
 30
0.0
 40
4.395000000000036
100
AcDbArc
 50
270.0
 51
330.0
  0
ARC
  5
33D
330
1F
100
AcDbEntity
  8
0
  6
Continuous
 62
     7
370
    25
100
AcDbCircle
 10
229.7947136743
 20
78.3229038184
 30
0.0
 40
4.394999999999996
100
AcDbArc
 50
90.0
 51
150.0
  0
ARC
  5
33E
330
1F
100
AcDbEntity
  8
0
  6
Continuous
 62
     7
370
    25
100
AcDbCircle
 10
229.7947136743
 20
78.3229038184
 30
0.0
 40
4.395000000000036
100
AcDbArc
 50
330.0
 51
30.0
  0
LINE
  5
33F
330
1F
100
AcDbEntity
  8
0
  6
Continuous
 62
     7
370
    25
100
AcDbLine
 10
157.37147891
 20
121.226020678
 30
0.0
 11
161.177660162
 21
119.0285203597
 31
0.0
  0
LINE
  5
340
330
1F
100
AcDbEntity
  8
0
  6
Continuous
 62
     7
370
    25
100
AcDbLine
 10
161.177660162
 20
119.0285203597
 30
0.0
 11
161.177660162
 21
114.6335206544
 31
0.0
  0
LINE
  5
341
330
1F
100
AcDbEntity
  8
0
  6
Continuous
 62
     7
370
    25
100
AcDbLine
 10
161.177660162
 20
114.6335206544
 30
0.0
 11
157.37147891
 21
112.4360203361
 31
0.0
  0
LINE
  5
342
330
1F
100
AcDbEntity
  8
0
  6
Continuous
 62
     7
370
    25
100
AcDbLine
 10
153.565297658
 20
114.6335206544
 30
0.0
 11
153.565297658
 21
119.0285203597
 31
0.0
  0
LINE
  5
343
330
1F
100
AcDbEntity
  8
0
  6
Continuous
 62
     7
370
    25
100
AcDbLine
 10
153.565297658
 20
119.0285203597
 30
0.0
 11
157.37147891
 21
121.226020678
 31
0.0
  0
LINE
  5
344
330
1F
100
AcDbEntity
  8
0
  6
Continuous
 62
     7
370
    25
100
AcDbLine
 10
157.37147891
 20
112.4360203361
 30
0.0
 11
153.565297658
 21
114.6335206544
 31
0.0
  0
ARC
  5
345
330
1F
100
AcDbEntity
  8
0
  6
Continuous
 62
     7
370
    25
100
AcDbCircle
 10
157.3714789546
 20
116.8310207903
 30
0.0
 40
4.395000000000036
100
AcDbArc
 50
150.0
 51
210.0
  0
ARC
  5
346
330
1F
100
AcDbEntity
  8
0
  6
Continuous
 62
     7
370
    25
100
AcDbCircle
 10
157.3714789546
 20
116.8310207903
 30
0.0
 40
4.395000000000022
100
AcDbArc
 50
210.0
 51
270.0
  0
ARC
  5
347
330
1F
100
AcDbEntity
  8
0
  6
Continuous
 62
     7
370
    25
100
AcDbCircle
 10
157.3714789546
 20
116.8310207903
 30
0.0
 40
4.394999999999996
100
AcDbArc
 50
270.0
 51
330.0
  0
ARC
  5
348
330
1F
100
AcDbEntity
  8
0
  6
Continuous
 62
     7
370
    25
100
AcDbCircle
 10
157.3714789546
 20
116.8310207903
 30
0.0
 40
4.39499999999998
100
AcDbArc
 50
330.0
 51
30.0
  0
ARC
  5
349
330
1F
100
AcDbEntity
  8
0
  6
Continuous
 62
     7
370
    25
100
AcDbCircle
 10
157.3714789546
 20
116.8310207903
 30
0.0
 40
4.395000000000036
100
AcDbArc
 50
90.0
 51
150.0
  0
ARC
  5
34A
330
1F
100
AcDbEntity
  8
0
  6
Continuous
 62
     7
370
    25
100
AcDbCircle
 10
157.3714789546
 20
116.8310207903
 30
0.0
 40
4.394999999999996
100
AcDbArc
 50
30.0
 51
90.0
  0
LINE
  5
34B
330
1F
100
AcDbEntity
  8
0
  6
Continuous
 62
     7
370
    25
100
AcDbLine
 10
268.3028306909
 20
155.1411389923
 30
0.0
 11
272.1090119429
 21
152.943638674
 31
0.0
  0
LINE
  5
34C
330
1F
100
AcDbEntity
  8
0
  6
Continuous
 62
     7
370
    25
100
AcDbLine
 10
272.1090119429
 20
152.943638674
 30
0.0
 11
272.1090119429
 21
148.5486389687
 31
0.0
  0
LINE
  5
34D
330
1F
100
AcDbEntity
  8
0
  6
Continuous
 62
     7
370
    25
100
AcDbLine
 10
272.1090119429
 20
148.5486389687
 30
0.0
 11
268.3028306909
 21
146.3511386505
 31
0.0
  0
LINE
  5
34E
330
1F
100
AcDbEntity
  8
0
  6
Continuous
 62
     7
370
    25
100
AcDbLine
 10
264.4966494389
 20
152.943638674
 30
0.0
 11
268.3028306909
 21
155.1411389923
 31
0.0
  0
LINE
  5
34F
330
1F
100
AcDbEntity
  8
0
  6
Continuous
 62
     7
370
    25
100
AcDbLine
 10
264.4966494389
 20
148.5486389687
 30
0.0
 11
264.4966494389
 21
152.943638674
 31
0.0
  0
LINE
  5
350
330
1F
100
AcDbEntity
  8
0
  6
Continuous
 62
     7
370
    25
100
AcDbLine
 10
268.3028306909
 20
146.3511386505
 30
0.0
 11
264.4966494389
 21
148.5486389687
 31
0.0
  0
ARC
  5
351
330
1F
100
AcDbEntity
  8
0
  6
Continuous
 62
     7
370
    25
100
AcDbCircle
 10
268.3028306463
 20
150.7461385381
 30
0.0
 40
4.395000000000022
100
AcDbArc
 50
210.0
 51
270.0
  0
ARC
  5
352
330
1F
100
AcDbEntity
  8
0
  6
Continuous
 62
     7
370
    25
100
AcDbCircle
 10
268.3028306463
 20
150.7461385381
 30
0.0
 40
4.395000000000029
100
AcDbArc
 50
150.0
 51
210.0
  0
ARC
  5
353
330
1F
100
AcDbEntity
  8
0
  6
Continuous
 62
     7
370
    25
100
AcDbCircle
 10
268.3028306463
 20
150.7461385381
 30
0.0
 40
4.394999999999982
100
AcDbArc
 50
30.0
 51
90.0
  0
ARC
  5
354
330
1F
100
AcDbEntity
  8
0
  6
Continuous
 62
     7
370
    25
100
AcDbCircle
 10
268.3028306463
 20
150.7461385381
 30
0.0
 40
4.395000000000029
100
AcDbArc
 50
90.0
 51
150.0
  0
ARC
  5
355
330
1F
100
AcDbEntity
  8
0
  6
Continuous
 62
     7
370
    25
100
AcDbCircle
 10
268.3028306463
 20
150.7461385381
 30
0.0
 40
4.394999999999994
100
AcDbArc
 50
330.0
 51
30.0
  0
ARC
  5
356
330
1F
100
AcDbEntity
  8
0
  6
Continuous
 62
     7
370
    25
100
AcDbCircle
 10
268.3028306463
 20
150.7461385381
 30
0.0
 40
4.39500000000001
100
AcDbArc
 50
270.0
 51
330.0
  0
CIRCLE
  5
357
330
1F
100
AcDbEntity
  8
0
  6
Continuous
 62
     7
370
    25
100
AcDbCircle
 10
212.8371548004
 20
133.7885796642
 30
0.0
 40
10.55269119345814
  0
CIRCLE
  5
358
330
1F
100
AcDbEntity
  8
0
  6
Continuous
 62
     7
370
    25
100
AcDbCircle
 10
212.8371548004
 20
133.7885796642
 30
0.0
 40
26.95269119345814
  0
CIRCLE
  5
359
330
1F
100
AcDbEntity
  8
0
  6
Continuous
 62
     7
370
    25
100
AcDbCircle
 10
212.8371548004
 20
133.7885796642
 30
0.0
 40
43.44730880654186
  0
LINE
  5
35A
330
1F
100
AcDbEntity
  8
0
  6
Continuous
 62
     7
370
    25
100
AcDbLine
 10
193.7967415996
 20
74.2594875014
 30
0.0
 11
174.1325657911
 21
84.715118221
 31
0.0
  0
ARC
  5
35B
330
1F
100
AcDbEntity
  8
0
  6
Continuous
 62
     7
370
    25
100
AcDbCircle
 10
212.8371548004
 20
133.7885796642
 30
0.0
 40
62.49999999999999
100
AcDbArc
 50
162.2630958986
 51
231.7369041014
  0
LINE
  5
35C
330
1F
100
AcDbEntity
  8
0
  6
Continuous
 62
     7
370
    25
100
AcDbLine
 10
153.3080626376
 20
152.8289928651
 30
0.0
 11
163.7636933572
 21
172.4931686735
 31
0.0
  0
ARC
  5
35D
330
1F
100
AcDbEntity
  8
0
  6
Continuous
 62
     7
370
    25
100
AcDbCircle
 10
212.8371548004
 20
133.7885796642
 30
0.0
 40
62.50000000000004
100
AcDbArc
 50
72.2630958986
 51
141.7369041014
  0
LINE
  5
35E
330
1F
100
AcDbEntity
  8
0
  6
Continuous
 62
     7
370
    25
100
AcDbLine
 10
231.8775680013
 20
193.3176718271
 30
0.0
 11
251.5417438097
 21
182.8620411074
 31
0.0
  0
ARC
  5
35F
330
1F
100
AcDbEntity
  8
0
  6
Continuous
 62
     7
370
    25
100
AcDbCircle
 10
212.8371548004
 20
133.7885796642
 30
0.0
 40
62.50000000000004
100
AcDbArc
 50
342.2630958986
 51
51.7369041014
  0
LINE
  5
360
330
1F
100
AcDbEntity
  8
0
  6
Continuous
 62
     7
370
    25
100
AcDbLine
 10
272.3662469633
 20
114.7481664634
 30
0.0
 11
261.9106162436
 21
95.0839906549
 31
0.0
  0
ARC
  5
361
330
1F
100
AcDbEntity
  8
0
  6
Continuous
 62
     7
370
    25
100
AcDbCircle
 10
212.8371548004
 20
133.7885796642
 30
0.0
 40
62.50000000000001
100
AcDbArc
 50
252.2630958986
 51
321.7369041014
  0
ARC
  5
362
330
1F
100
AcDbEntity
  8
0
  6
Continuous
 62
     7
370
    25
100
AcDbCircle
 10
212.8371548004
 20
133.7885796642
 30
0.0
 40
62.49999999999999
100
AcDbArc
 50
180.0
 51
252.2630958986
  0
ARC
  5
363
330
1F
100
AcDbEntity
  8
0
  6
Continuous
 62
     7
370
    25
100
AcDbCircle
 10
212.8371548004
 20
133.7885796642
 30
0.0
 40
62.50000000000004
100
AcDbArc
 50
321.7369041014
 51
342.2630958986
  0
ARC
  5
364
330
1F
100
AcDbEntity
  8
0
  6
Continuous
 62
     7
370
    25
100
AcDbCircle
 10
212.8371548004
 20
133.7885796642
 30
0.0
 40
62.50000000000003
100
AcDbArc
 50
51.7369041014
 51
72.2630958986
  0
ARC
  5
365
330
1F
100
AcDbEntity
  8
0
  6
Continuous
 62
     7
370
    25
100
AcDbCircle
 10
212.8371548004
 20
133.7885796642
 30
0.0
 40
62.49999999999996
100
AcDbArc
 50
141.7369041014
 51
162.2630958986
  0
LINE
  5
366
330
1F
100
AcDbEntity
  8
0
  6
Continuous
 62
     7
370
    25
100
AcDbLine
 10
173.6003037639
 20
121.8944867691
 30
0.0
 11
173.3896646745
 21
122.3624176895
 31
0.0
  0
ARC
  5
367
330
1F
100
AcDbEntity
  8
0
  6
Continuous
 62
     7
370
    25
100
AcDbCircle
 10
212.8371548004
 20
133.7885796642
 30
0.0
 40
41.00000000000001
100
AcDbArc
 50
196.8639330158
 51
205.824263497
  0
LINE
  5
368
330
1F
100
AcDbEntity
  8
0
  6
Continuous
 62
     7
370
    25
100
AcDbLine
 10
177.4780813701
 20
112.6455362505
 30
0.0
 11
175.931646312
 21
115.928474403
 31
0.0
  0
SPLINE
  5
369
330
1F
100
AcDbEntity
  8
0
  6
Continuous
 62
     7
370
    25
100
AcDbSpline
210
0.0
220
0.0
230
1.0
 70
     8
 71
     3
 72
    16
 73
    12
 74
     0
 42
0.000000001
 43
0.00000001
 40
0.0
 40
0.0
 40
0.0
 40
0.0
 40
0.2500000000000005
 40
0.2500000000000005
 40
0.3750000000000011
 40
0.3750000000000011
 40
0.5000000000000017
 40
0.5000000000000017
 40
0.7500000000000008
 40
0.7500000000000008
 40
1.0
 40
1.0
 40
1.0
 40
1.0
 10
150.8971721727391
 20
125.4406127210583
 30
0.0
 10
150.8971721727391
 20
125.4406127210583
 30
0.0
 10
150.8645503094515
 20
125.4336046839034
 30
0.0
 10
150.7686898165392
 20
125.4130439732841
 30
0.0
 10
150.7288553615177
 20
125.4045034623786
 30
0.0
 10
150.633046104692
 20
125.3839807473304
 30
0.0
 10
150.5768674168627
 20
125.3719550953653
 30
0.0
 10
150.3877273867324
 20
125.3315135601858
 30
0.0
 10
150.2334432276771
 20
125.2985774936001
 30
0.0
 10
149.8688087052549
 20
125.2209855075949
 30
0.0
 10
149.6570289997998
 20
125.1760305350324
 30
0.0
 10
149.4259588382064
 20
125.1271579193023
 30
0.0
  0
ARC
  5
36A
330
1F
100
AcDbEntity
  8
0
  6
Continuous
 62
     7
370
    25
100
AcDbCircle
 10
212.8371548004
 20
133.7885796642
 30
0.0
 40
63.99999999999999
100
AcDbArc
 50
179.9985149408
 51
187.7779752605
  0
SPLINE
  5
36B
330
1F
100
AcDbEntity
  8
0
  6
Continuous
 62
     7
370
    25
100
AcDbSpline
210
0.0
220
0.0
230
1.0
 70
     8
 71
     3
 72
     8
 73
     4
 74
     0
 42
0.000000001
 43
0.00000001
 40
0.0
 40
0.0
 40
0.0
 40
0.0
 40
1.0
 40
1.0
 40
1.0
 40
1.0
 10
148.8371720665365
 20
133.8355909832199
 30
0.0
 10
148.8394085026571
 20
136.8802167484576
 30
0.0
 10
149.0577896566525
 20
139.9088298885816
 30
0.0
 10
149.4921496947118
 20
142.9215051626115
 30
0.0
  0
SPLINE
  5
36C
330
1F
100
AcDbEntity
  8
0
  6
Continuous
 62
     7
370
    25
100
AcDbSpline
210
0.0
220
0.0
230
1.0
 70
     8
 71
     3
 72
     8
 73
     4
 74
     0
 42
0.000000001
 43
0.00000001
 40
0.0
 40
0.0
 40
0.0
 40
0.0
 40
0.0000453579584788
 40
0.0000453579584788
 40
0.0000453579584788
 40
0.0000453579584788
 10
148.8371720665444
 20
133.8355909832197
 30
0.0
 10
148.8371609659671
 20
133.8204789468268
 30
0.0
 10
148.8371552137863
 20
133.8053578107221
 30
0.0
 10
148.837154821906
 20
133.7902384912342
 30
0.0
  0
SPLINE
  5
36D
330
1F
100
AcDbEntity
  8
0
  6
Continuous
 62
     7
370
    25
100
AcDbSpline
210
0.0
220
0.0
230
1.0
 70
     8
 71
     3
 72
    14
 73
    10
 74
     0
 42
0.000000001
 43
0.00000001
 40
0.0
 40
0.0
 40
0.0
 40
0.0
 40
0.2499999999999998
 40
0.2499999999999998
 40
0.4999999999999996
 40
0.4999999999999996
 40
0.7499999999999998
 40
0.7499999999999998
 40
1.0
 40
1.0
 40
1.0
 40
1.0
 10
151.5068057219288
 20
115.4968251854374
 30
0.0
 10
151.2698260923885
 20
116.291393219961
 30
0.0
 10
151.0492280402857
 20
117.0873447170531
 30
0.0
 10
150.6396761938778
 20
118.6838520246723
 30
0.0
 10
150.4504751952209
 20
119.4856171022475
 30
0.0
 10
150.1044698857792
 20
121.0888641708974
 30
0.0
 10
149.9476118586734
 20
121.8901113189282
 30
0.0
 10
149.6642402995842
 20
123.5001865022256
 30
0.0
 10
149.5377077540792
 20
124.3090321413794
 30
0.0
 10
149.4259588382064
 20
125.1271579193024
 30
0.0
  0
SPLINE
  5
36E
330
1F
100
AcDbEntity
  8
0
  6
Continuous
 62
     7
370
    25
100
AcDbSpline
210
0.0
220
0.0
230
1.0
 70
     8
 71
     3
 72
    10
 73
     6
 74
     0
 42
0.000000001
 43
0.00000001
 40
0.0
 40
0.0
 40
0.0
 40
0.0
 40
0.5
 40
0.5
 40
1.0
 40
1.0
 40
1.0
 40
1.0
 10
149.4921496947118
 20
142.9215051626115
 30
0.0
 10
149.5841802980719
 20
143.5598196918109
 30
0.0
 10
149.6848787245719
 20
144.1901413181477
 30
0.0
 10
149.9034771710752
 20
145.4399606315683
 30
0.0
 10
150.0213967040728
 20
146.0596109802598
 30
0.0
 10
150.1483938713549
 20
146.6773054809881
 30
0.0
  0
SPLINE
  5
36F
330
1F
100
AcDbEntity
  8
0
  6
Continuous
 62
     7
370
    25
100
AcDbSpline
210
0.0
220
0.0
230
1.0
 70
     8
 71
     3
 72
     8
 73
     4
 74
     0
 42
0.000000001
 43
0.00000001
 40
0.0
 40
0.0
 40
0.0
 40
0.0
 40
1.0
 40
1.0
 40
1.0
 40
1.0
 10
150.1483938713549
 20
146.677305480988
 30
0.0
 10
150.5193511318519
 20
148.4815839914307
 30
0.0
 10
150.9682139736749
 20
150.2744920642806
 30
0.0
 10
151.5068057219283
 20
152.080334142989
 30
0.0
  0
ARC
  5
370
330
1F
100
AcDbEntity
  8
0
  6
Continuous
 62
     7
370
    25
100
AcDbCircle
 10
212.8371548004
 20
133.7885796642
 30
0.0
 40
64.00000000000003
100
AcDbArc
 50
196.6071923598
 51
163.3928076402
  0
LINE
  5
371
330
1F
100
AcDbEntity
  8
0
  6
Continuous
 62
     7
370
    25
100
AcDbLine
 10
156.2686141677
 20
63.7885793662
 30
0.0
 11
269.4056954331
 21
63.7885793662
 31
0.0
  0
LINE
  5
372
330
1F
100
AcDbEntity
  8
0
  6
Continuous
 62
     7
370
    25
100
AcDbLine
 10
142.8371545024
 20
190.3571202969
 30
0.0
 11
142.8371545024
 21
77.2200390315
 31
0.0
  0
ARC
  5
373
330
1F
100
AcDbEntity
  8
0
  6
Continuous
 62
     7
370
    25
100
AcDbCircle
 10
212.8371548004
 20
133.7885796642
 30
0.0
 40
90.0
100
AcDbArc
 50
128.942441269
 51
141.057558731
  0
LINE
  5
374
330
1F
100
AcDbEntity
  8
0
  6
Continuous
 62
     7
370
    25
100
AcDbLine
 10
269.4056954331
 20
203.7885799622
 30
0.0
 11
156.2686141677
 21
203.7885799622
 31
0.0
  0
ARC
  5
375
330
1F
100
AcDbEntity
  8
0
  6
Continuous
 62
     7
370
    25
100
AcDbCircle
 10
212.8371548004
 20
133.7885796642
 30
0.0
 40
90.00000000000003
100
AcDbArc
 50
38.942441269
 51
51.057558731
  0
LINE
  5
376
330
1F
100
AcDbEntity
  8
0
  6
Continuous
 62
     7
370
    25
100
AcDbLine
 10
282.8371550984
 20
77.2200390315
 30
0.0
 11
282.8371550984
 21
190.3571202969
 31
0.0
  0
ARC
  5
377
330
1F
100
AcDbEntity
  8
0
  6
Continuous
 62
     7
370
    25
100
AcDbCircle
 10
212.8371548004
 20
133.7885796642
 30
0.0
 40
90.00000000000003
100
AcDbArc
 50
308.942441269
 51
321.057558731
  0
CIRCLE
  5
378
330
1F
100
AcDbEntity
  8
0
  6
Continuous
 62
     7
370
    25
100
AcDbCircle
 10
156.2686123055
 20
190.3571221591
 30
0.0
 40
5.0
  0
CIRCLE
  5
379
330
1F
100
AcDbEntity
  8
0
  6
Continuous
 62
     7
370
    25
100
AcDbCircle
 10
269.4056972953
 20
77.2200371693
 30
0.0
 40
5.0
  0
ARC
  5
37A
330
1F
100
AcDbEntity
  8
0
  6
Continuous
 62
     7
370
    25
100
AcDbCircle
 10
212.8371548004
 20
133.7885796642
 30
0.0
 40
90.00000000000001
100
AcDbArc
 50
218.942441269
 51
231.057558731
  0
ARC
  5
37B
330
1F
100
AcDbEntity
  8
0
  6
Continuous
 62
     7
370
    25
100
AcDbCircle
 10
134.8371548004
 20
115.7885796642
 30
0.0
 40
2.000000000025437
100
AcDbArc
 50
180.0
 51
270.0
  0
LINE
  5
37C
330
1F
100
AcDbEntity
  8
0
  6
Continuous
 62
     7
370
    25
100
AcDbLine
 10
132.8371565885
 20
115.7885804391
 30
0.0
 11
132.8371565885
 21
116.7885787403
 31
0.0
  0
LINE
  5
37D
330
1F
100
AcDbEntity
  8
0
  6
Continuous
 62
     7
370
    25
100
AcDbLine
 10
142.8371545024
 20
113.7885801112
 30
0.0
 11
134.8371531911
 21
113.7885801112
 31
0.0
  0
LINE
  5
37E
330
1F
100
AcDbEntity
  8
0
  6
Continuous
 62
     7
370
    25
100
AcDbLine
 10
132.8371565885
 20
116.7885787403
 30
0.0
 11
132.8371565885
 21
150.7885805881
 31
0.0
  0
LINE
  5
37F
330
1F
100
AcDbEntity
  8
0
  6
Continuous
 62
     7
370
    25
100
AcDbLine
 10
132.8371565885
 20
150.7885805881
 30
0.0
 11
132.8371565885
 21
151.7885788894
 31
0.0
  0
ARC
  5
380
330
1F
100
AcDbEntity
  8
0
  6
Continuous
 62
     7
370
    25
100
AcDbCircle
 10
134.8371548004
 20
151.7885796642
 30
0.0
 40
2.0
100
AcDbArc
 50
89.9999999993
 51
180.0
  0
LINE
  5
381
330
1F
100
AcDbEntity
  8
0
  6
Continuous
 62
     7
370
    25
100
AcDbLine
 10
134.8371531911
 20
153.7885792172
 30
0.0
 11
142.8371545024
 21
153.7885792172
 31
0.0
  0
ARC
  5
382
330
1F
100
AcDbEntity
  8
0
  6
Continuous
 62
     7
370
    25
100
AcDbCircle
 10
140.9513688299
 20
156.7885796642
 30
0.0
 40
3.0
100
AcDbArc
 50
270.0
 51
308.9465639199
  0
ENDSEC
  0
SECTION
  2
OBJECTS
  0
DICTIONARY
  5
C
330
0
100
AcDbDictionary
281
     1
  3
ACAD_GROUP
350
D
  3
ACAD_LAYOUT
350
1A
  3
ACAD_MLINESTYLE
350
17
  3
ACAD_PLOTSETTINGS
350
19
  3
ACAD_PLOTSTYLENAME
350
E
  3
ACAD_SCALELIST
350
47
  0
DICTIONARY
  5
D
102
{ACAD_REACTORS
330
C
102
}
330
C
100
AcDbDictionary
281
     1
  0
DICTIONARY
  5
1A
102
{ACAD_REACTORS
330
C
102
}
330
C
100
AcDbDictionary
281
     1
  3
Layout1
350
1E
  3
Layout2
350
26
  3
Model
350
22
  0
DICTIONARY
  5
17
102
{ACAD_REACTORS
330
C
102
}
330
C
100
AcDbDictionary
281
     1
  3
Standard
350
18
  0
DICTIONARY
  5
19
102
{ACAD_REACTORS
330
C
102
}
330
C
100
AcDbDictionary
281
     1
  0
ACDBDICTIONARYWDFLT
  5
E
102
{ACAD_REACTORS
330
C
102
}
330
C
100
AcDbDictionary
281
     1
  3
Normal
350
F
100
AcDbDictionaryWithDefault
340
F
  0
DICTIONARY
  5
47
102
{ACAD_REACTORS
330
C
102
}
330
C
100
AcDbDictionary
281
     1
  3
A0
350
48
  3
A1
350
49
  3
A2
350
4A
  3
A3
350
4B
  3
A4
350
4C
  3
A5
350
4D
  3
A6
350
4E
  3
A7
350
4F
  3
A8
350
50
  3
A9
350
51
  3
B0
350
52
  3
B1
350
53
  3
B2
350
54
  3
B3
350
55
  3
B4
350
56
  3
B5
350
57
  3
B6
350
58
  3
B7
350
59
  3
B8
350
5A
  3
B9
350
5B
  3
C0
350
5C
  3
C1
350
5D
  3
C2
350
5E
  3
C3
350
5F
  3
C4
350
60
  3
C5
350
61
  3
C6
350
62
  3
C7
350
63
  3
C8
350
64
  3
C9
350
65
  3
D0
350
66
  3
D1
350
67
  3
D2
350
68
  0
LAYOUT
  5
1E
102
{ACAD_REACTORS
330
1A
102
}
330
1A
100
AcDbPlotSettings
  1

  2
none_device
  4

  6

 40
0.0
 41
0.0
 42
0.0
 43
0.0
 44
0.0
 45
0.0
 46
0.0
 47
0.0
 48
0.0
 49
0.0
140
0.0
141
0.0
142
1.0
143
1.0
 70
   688
 72
     1
 73
     0
 74
     5
  7

 75
    16
147
1.0
148
0.0
149
0.0
100
AcDbLayout
  1
Layout1
 70
     1
 71
     1
 10
0.0
 20
0.0
 11
420.0
 21
297.0
 12
0.0
 22
0.0
 32
0.0
 14
1.0000000000E+20
 24
1.0000000000E+20
 34
1.0000000000E+20
 15
-1.0000000000E+20
 25
-1.0000000000E+20
 35
-1.0000000000E+20
146
0.0
 13
0.0
 23
0.0
 33
0.0
 16
1.0
 26
0.0
 36
0.0
 17
0.0
 27
1.0
 37
0.0
 76
     0
330
1B
  0
LAYOUT
  5
26
102
{ACAD_REACTORS
330
1A
102
}
330
1A
100
AcDbPlotSettings
  1

  2
none_device
  4

  6

 40
0.0
 41
0.0
 42
0.0
 43
0.0
 44
0.0
 45
0.0
 46
0.0
 47
0.0
 48
0.0
 49
0.0
140
0.0
141
0.0
142
1.0
143
1.0
 70
   688
 72
     1
 73
     0
 74
     5
  7

 75
    16
147
1.0
148
0.0
149
0.0
100
AcDbLayout
  1
Layout2
 70
     1
 71
     2
 10
0.0
 20
0.0
 11
0.0
 21
0.0
 12
0.0
 22
0.0
 32
0.0
 14
0.0
 24
0.0
 34
0.0
 15
0.0
 25
0.0
 35
0.0
146
0.0
 13
0.0
 23
0.0
 33
0.0
 16
1.0
 26
0.0
 36
0.0
 17
0.0
 27
1.0
 37
0.0
 76
     0
330
23
  0
LAYOUT
  5
22
102
{ACAD_REACTORS
330
1A
102
}
330
1A
100
AcDbPlotSettings
  1

  2
none_device
  4
Letter_(8.50_x_11.00_Inches)
  6

 40
6.35
 41
6.35
 42
6.35000508
 43
6.35000508
 44
215.9
 45
279.4
 46
0.0
 47
0.0
 48
0.0
 49
0.0
140
0.0
141
0.0
142
1.0
143
1.0
 70
  1712
 72
     1
 73
     0
 74
     0
  7

 75
     0
147
1.0
148
0.0
149
0.0
100
AcDbLayout
  1
Model
 70
     1
 71
     0
 10
0.0
 20
0.0
 11
420.0
 21
297.0
 12
0.0
 22
0.0
 32
0.0
 14
0.0
 24
0.0
 34
0.0
 15
420.0
 25
297.0
 35
0.0
146
0.0
 13
0.0
 23
0.0
 33
0.0
 16
1.0
 26
0.0
 36
0.0
 17
0.0
 27
1.0
 37
0.0
 76
     0
330
1F
331
29
  0
MLINESTYLE
  5
18
102
{ACAD_REACTORS
330
17
102
}
330
17
100
AcDbMlineStyle
  2
Standard
 70
     0
  3

 62
   256
 51
90.0
 52
90.0
 71
     2
 49
0.5
 62
   256
  6
BYLAYER
 49
-0.5
 62
   256
  6
BYLAYER
  0
ACDBPLACEHOLDER
  5
F
102
{ACAD_REACTORS
330
E
102
}
330
E
  0
SCALE
  5
48
102
{ACAD_REACTORS
330
47
102
}
330
47
100
AcDbScale
 70
     0
300
1:1
140
1.0
141
1.0
290
     1
  0
SCALE
  5
49
102
{ACAD_REACTORS
330
47
102
}
330
47
100
AcDbScale
 70
     0
300
1:2
140
1.0
141
2.0
290
     0
  0
SCALE
  5
4A
102
{ACAD_REACTORS
330
47
102
}
330
47
100
AcDbScale
 70
     0
300
1:4
140
1.0
141
4.0
290
     0
  0
SCALE
  5
4B
102
{ACAD_REACTORS
330
47
102
}
330
47
100
AcDbScale
 70
     0
300
1:5
140
1.0
141
5.0
290
     0
  0
SCALE
  5
4C
102
{ACAD_REACTORS
330
47
102
}
330
47
100
AcDbScale
 70
     0
300
1:8
140
1.0
141
8.0
290
     0
  0
SCALE
  5
4D
102
{ACAD_REACTORS
330
47
102
}
330
47
100
AcDbScale
 70
     0
300
1:10
140
1.0
141
10.0
290
     0
  0
SCALE
  5
4E
102
{ACAD_REACTORS
330
47
102
}
330
47
100
AcDbScale
 70
     0
300
1:16
140
1.0
141
16.0
290
     0
  0
SCALE
  5
4F
102
{ACAD_REACTORS
330
47
102
}
330
47
100
AcDbScale
 70
     0
300
1:20
140
1.0
141
20.0
290
     0
  0
SCALE
  5
50
102
{ACAD_REACTORS
330
47
102
}
330
47
100
AcDbScale
 70
     0
300
1:30
140
1.0
141
30.0
290
     0
  0
SCALE
  5
51
102
{ACAD_REACTORS
330
47
102
}
330
47
100
AcDbScale
 70
     0
300
1:40
140
1.0
141
40.0
290
     0
  0
SCALE
  5
52
102
{ACAD_REACTORS
330
47
102
}
330
47
100
AcDbScale
 70
     0
300
1:50
140
1.0
141
50.0
290
     0
  0
SCALE
  5
53
102
{ACAD_REACTORS
330
47
102
}
330
47
100
AcDbScale
 70
     0
300
1:100
140
1.0
141
100.0
290
     0
  0
SCALE
  5
54
102
{ACAD_REACTORS
330
47
102
}
330
47
100
AcDbScale
 70
     0
300
2:1
140
2.0
141
1.0
290
     0
  0
SCALE
  5
55
102
{ACAD_REACTORS
330
47
102
}
330
47
100
AcDbScale
 70
     0
300
4:1
140
4.0
141
1.0
290
     0
  0
SCALE
  5
56
102
{ACAD_REACTORS
330
47
102
}
330
47
100
AcDbScale
 70
     0
300
8:1
140
8.0
141
1.0
290
     0
  0
SCALE
  5
57
102
{ACAD_REACTORS
330
47
102
}
330
47
100
AcDbScale
 70
     0
300
10:1
140
10.0
141
1.0
290
     0
  0
SCALE
  5
58
102
{ACAD_REACTORS
330
47
102
}
330
47
100
AcDbScale
 70
     0
300
100:1
140
100.0
141
1.0
290
     0
  0
SCALE
  5
59
102
{ACAD_REACTORS
330
47
102
}
330
47
100
AcDbScale
 70
     0
300
1/128" = 1'-0"
140
0.0078125
141
12.0
290
     0
  0
SCALE
  5
5A
102
{ACAD_REACTORS
330
47
102
}
330
47
100
AcDbScale
 70
     0
300
1/64" = 1'-0"
140
0.015625
141
12.0
290
     0
  0
SCALE
  5
5B
102
{ACAD_REACTORS
330
47
102
}
330
47
100
AcDbScale
 70
     0
300
1/32" = 1'-0"
140
0.03125
141
12.0
290
     0
  0
SCALE
  5
5C
102
{ACAD_REACTORS
330
47
102
}
330
47
100
AcDbScale
 70
     0
300
1/16" = 1'-0"
140
0.0625
141
12.0
290
     0
  0
SCALE
  5
5D
102
{ACAD_REACTORS
330
47
102
}
330
47
100
AcDbScale
 70
     0
300
3/32" = 1'-0"
140
0.09375
141
12.0
290
     0
  0
SCALE
  5
5E
102
{ACAD_REACTORS
330
47
102
}
330
47
100
AcDbScale
 70
     0
300
1/8" = 1'-0"
140
0.125
141
12.0
290
     0
  0
SCALE
  5
5F
102
{ACAD_REACTORS
330
47
102
}
330
47
100
AcDbScale
 70
     0
300
3/16" = 1'-0"
140
0.1875
141
12.0
290
     0
  0
SCALE
  5
60
102
{ACAD_REACTORS
330
47
102
}
330
47
100
AcDbScale
 70
     0
300
1/4" = 1'-0"
140
0.25
141
12.0
290
     0
  0
SCALE
  5
61
102
{ACAD_REACTORS
330
47
102
}
330
47
100
AcDbScale
 70
     0
300
3/8" = 1'-0"
140
0.375
141
12.0
290
     0
  0
SCALE
  5
62
102
{ACAD_REACTORS
330
47
102
}
330
47
100
AcDbScale
 70
     0
300
1/2" = 1'-0"
140
0.5
141
12.0
290
     0
  0
SCALE
  5
63
102
{ACAD_REACTORS
330
47
102
}
330
47
100
AcDbScale
 70
     0
300
3/4" = 1'-0"
140
0.75
141
12.0
290
     0
  0
SCALE
  5
64
102
{ACAD_REACTORS
330
47
102
}
330
47
100
AcDbScale
 70
     0
300
1" = 1'-0"
140
1.0
141
12.0
290
     0
  0
SCALE
  5
65
102
{ACAD_REACTORS
330
47
102
}
330
47
100
AcDbScale
 70
     0
300
1-1/2" = 1'-0"
140
1.5
141
12.0
290
     0
  0
SCALE
  5
66
102
{ACAD_REACTORS
330
47
102
}
330
47
100
AcDbScale
 70
     0
300
3" = 1'-0"
140
3.0
141
12.0
290
     0
  0
SCALE
  5
67
102
{ACAD_REACTORS
330
47
102
}
330
47
100
AcDbScale
 70
     0
300
6" = 1'-0"
140
6.0
141
12.0
290
     0
  0
SCALE
  5
68
102
{ACAD_REACTORS
330
47
102
}
330
47
100
AcDbScale
 70
     0
300
1'-0" = 1'-0"
140
12.0
141
12.0
290
     0
  0
ENDSEC
  0
EOF
