  0
SECTION
  2
HEADER
  9
$ACADVER
  1
AC1015
  9
$ACADMAINTVER
 70
     6
  9
$DWGCODEPAGE
  3
DOS932
  9
$INSBASE
 10
0.0
 20
0.0
 30
0.0
  9
$EXTMIN
 10
0.0
 20
0.0
 30
0.0
  9
$EXTMAX
 10
420.0
 20
297.0
 30
0.0
  9
$LIMMIN
 10
0.0
 20
0.0
  9
$LIMMAX
 10
2100.0
 20
1485.0
  9
$ORTHOMODE
 70
     0
  9
$REGENMODE
 70
     1
  9
$FILLMODE
 70
     1
  9
$QTEXTMODE
 70
     0
  9
$MIRRTEXT
 70
     1
  9
$LTSCALE
 40
1.0
  9
$ATTMODE
 70
     1
  9
$TEXTSIZE
 40
17.5
  9
$TRACEWID
 40
1.0
  9
$TEXTSTYLE
  7
STANDARD
  9
$CLAYER
  8
0
  9
$CELTYPE
  6
ByLayer
  9
$CECOLOR
 62
   256
  9
$CELTSCALE
 40
1.0
  9
$DISPSILH
 70
     0
  9
$DIMSCALE
 40
1.0
  9
$DIMASZ
 40
17.78
  9
$DIMEXO
 40
5.0
  9
$DIMDLI
 40
3.75
  9
$DIMRND
 40
0.0
  9
$DIMDLE
 40
0.0
  9
$DIMEXE
 40
5.0
  9
$DIMTP
 40
0.0
  9
$DIMTM
 40
0.0
  9
$DIMTXT
 40
17.5
  9
$DIMCEN
 40
2.5
  9
$DIMTSZ
 40
0.0
  9
$DIMTOL
 70
     0
  9
$DIMLIM
 70
     0
  9
$DIMTIH
 70
     1
  9
$DIMTOH
 70
     1
  9
$DIMSE1
 70
     0
  9
$DIMSE2
 70
     0
  9
$DIMTAD
 70
     1
  9
$DIMZIN
 70
     1
  9
$DIMBLK
  1

  9
$DIMASO
 70
     1
  9
$DIMSHO
 70
     1
  9
$DIMPOST
  1

  9
$DIMAPOST
  1

  9
$DIMALT
 70
     0
  9
$DIMALTD
 70
     3
  9
$DIMALTF
 40
0.0393700787
  9
$DIMLFAC
 40
1.0
  9
$DIMTOFL
 70
     1
  9
$DIMTVP
 40
0.0
  9
$DIMTIX
 70
     0
  9
$DIMSOXD
 70
     0
  9
$DIMSAH
 70
     0
  9
$DIMBLK1
  1

  9
$DIMBLK2
  1

  9
$DIMSTYLE
  2
ISO-25
  9
$DIMCLRD
 70
     0
  9
$DIMCLRE
 70
     0
  9
$DIMCLRT
 70
     0
  9
$DIMTFAC
 40
1.0
  9
$DIMGAP
 40
7.62
  9
$DIMJUST
 70
     0
  9
$DIMSD1
 70
     0
  9
$DIMSD2
 70
     0
  9
$DIMTOLJ
 70
     0
  9
$DIMTZIN
 70
     1
  9
$DIMALTZ
 70
     0
  9
$DIMALTTZ
 70
     0
  9
$DIMUPT
 70
     0
  9
$DIMDEC
 70
     3
  9
$DIMTDEC
 70
     3
  9
$DIMALTU
 70
     2
  9
$DIMALTTD
 70
     3
  9
$DIMTXSTY
  7
STANDARD
  9
$DIMAUNIT
 70
     0
  9
$DIMADEC
 70
     0
  9
$DIMALTRND
 40
0.0
  9
$DIMAZIN
 70
     0
  9
$DIMDSEP
 70
    44
  9
$DIMATFIT
 70
     3
  9
$DIMFRAC
 70
     0
  9
$DIMLDRBLK
  1

  9
$DIMLUNIT
 70
     2
  9
$DIMLWD
 70
    -2
  9
$DIMLWE
 70
    -2
  9
$DIMTMOVE
 70
     0
  9
$LUNITS
 70
     2
  9
$LUPREC
 70
     3
  9
$SKETCHINC
 40
1.0
  9
$FILLETRAD
 40
10.0
  9
$AUNITS
 70
     0
  9
$AUPREC
 70
     0
  9
$MENU
  1
.
  9
$ELEVATION
 40
0.0
  9
$PELEVATION
 40
0.0
  9
$THICKNESS
 40
0.0
  9
$LIMCHECK
 70
     0
  9
$CHAMFERA
 40
0.0
  9
$CHAMFERB
 40
0.0
  9
$CHAMFERC
 40
0.0
  9
$CHAMFERD
 40
0.0
  9
$SKPOLY
 70
     0
  9
$TDCREATE
 40
2460160.706331412
  9
$TDUCREATE
 40
2460160.331331412
  9
$TDUPDATE
 40
2460160.706333287
  9
$TDUUPDATE
 40
2460160.331333287
  9
$TDINDWG
 40
0.0000000116
  9
$TDUSRTIMER
 40
0.0000000116
  9
$USRTIMER
 70
     1
  9
$ANGBASE
 50
0.0
  9
$ANGDIR
 70
     0
  9
$PDMODE
 70
     0
  9
$PDSIZE
 40
-1.0
  9
$PLINEWID
 40
0.0
  9
$SPLFRAME
 70
     0
  9
$SPLINETYPE
 70
     6
  9
$SPLINESEGS
 70
     8
  9
$HANDSEED
  5
4A9
  9
$SURFTAB1
 70
     6
  9
$SURFTAB2
 70
     6
  9
$SURFTYPE
 70
     6
  9
$SURFU
 70
     6
  9
$SURFV
 70
     6
  9
$UCSBASE
  2

  9
$UCSNAME
  2

  9
$UCSORG
 10
0.0
 20
0.0
 30
0.0
  9
$UCSXDIR
 10
1.0
 20
0.0
 30
0.0
  9
$UCSYDIR
 10
0.0
 20
1.0
 30
0.0
  9
$UCSORTHOREF
  2

  9
$UCSORTHOVIEW
 70
     0
  9
$UCSORGTOP
 10
0.0
 20
0.0
 30
0.0
  9
$UCSORGBOTTOM
 10
0.0
 20
0.0
 30
0.0
  9
$UCSORGLEFT
 10
0.0
 20
0.0
 30
0.0
  9
$UCSORGRIGHT
 10
0.0
 20
0.0
 30
0.0
  9
$UCSORGFRONT
 10
0.0
 20
0.0
 30
0.0
  9
$UCSORGBACK
 10
0.0
 20
0.0
 30
0.0
  9
$PUCSBASE
  2

  9
$PUCSNAME
  2

  9
$PUCSORG
 10
0.0
 20
0.0
 30
0.0
  9
$PUCSXDIR
 10
1.0
 20
0.0
 30
0.0
  9
$PUCSYDIR
 10
0.0
 20
1.0
 30
0.0
  9
$PUCSORTHOREF
  2

  9
$PUCSORTHOVIEW
 70
     0
  9
$PUCSORGTOP
 10
0.0
 20
0.0
 30
0.0
  9
$PUCSORGBOTTOM
 10
0.0
 20
0.0
 30
0.0
  9
$PUCSORGLEFT
 10
0.0
 20
0.0
 30
0.0
  9
$PUCSORGRIGHT
 10
0.0
 20
0.0
 30
0.0
  9
$PUCSORGFRONT
 10
0.0
 20
0.0
 30
0.0
  9
$PUCSORGBACK
 10
0.0
 20
0.0
 30
0.0
  9
$USERI1
 70
     0
  9
$USERI2
 70
     0
  9
$USERI3
 70
     0
  9
$USERI4
 70
     0
  9
$USERI5
 70
     0
  9
$USERR1
 40
0.0
  9
$USERR2
 40
0.0
  9
$USERR3
 40
0.0
  9
$USERR4
 40
0.0
  9
$USERR5
 40
0.0
  9
$WORLDVIEW
 70
     1
  9
$SHADEDGE
 70
     3
  9
$SHADEDIF
 70
    70
  9
$TILEMODE
 70
     0
  9
$MAXACTVP
 70
    64
  9
$PINSBASE
 10
0.0
 20
0.0
 30
0.0
  9
$PLIMCHECK
 70
     0
  9
$PEXTMIN
 10
0.0
 20
0.0
 30
0.0
  9
$PEXTMAX
 10
420.0
 20
297.0
 30
0.0
  9
$PLIMMIN
 10
0.0
 20
0.0
  9
$PLIMMAX
 10
420.0
 20
297.0
  9
$UNITMODE
 70
     0
  9
$VISRETAIN
 70
     1
  9
$PLINEGEN
 70
     0
  9
$PSLTSCALE
 70
     1
  9
$TREEDEPTH
 70
  3020
  9
$CMLSTYLE
  2
Standard
  9
$CMLJUST
 70
     0
  9
$CMLSCALE
 40
20.0
  9
$PROXYGRAPHICS
 70
     1
  9
$MEASUREMENT
 70
     1
  9
$CELWEIGHT
370
    -1
  9
$ENDCAPS
280
     0
  9
$JOINSTYLE
280
     0
  9
$LWDISPLAY
290
     1
  9
$INSUNITS
 70
     4
  9
$HYPERLINKBASE
  1

  9
$STYLESHEET
  1

  9
$XEDIT
290
     1
  9
$CEPSNTYPE
380
     0
  9
$PSTYLEMODE
290
     1
  9
$FINGERPRINTGUID
  2
{99fa7f0b-447a-4818-b3ba-f8a300c8ae9d}
  9
$VERSIONGUID
  2
{FAEB1C32-E019-11D5-929B-00C0DF256EC4}
  9
$EXTNAMES
290
     1
  9
$PSVPSCALE
 40
0.0
  9
$OLESTARTUP
290
     0
  0
ENDSEC
  0
SECTION
  2
CLASSES
  0
CLASS
  1
ACDBDICTIONARYWDFLT
  2
AcDbDictionaryWithDefault
  3
ObjectDBX Classes
 90
        0
280
     0
281
     0
  0
CLASS
  1
VISUALSTYLE
  2
AcDbVisualStyle
  3
ObjectDBX Classes
 90
     4095
280
     0
281
     0
  0
CLASS
  1
MATERIAL
  2
AcDbMaterial
  3
ObjectDBX Classes
 90
     1153
280
     0
281
     0
  0
CLASS
  1
SCALE
  2
AcDbScale
  3
ObjectDBX Classes
 90
     1153
280
     0
281
     0
  0
CLASS
  1
TABLESTYLE
  2
AcDbTableStyle
  3
ObjectDBX Classes
 90
     4095
280
     0
281
     0
  0
CLASS
  1
MLEADERSTYLE
  2
AcDbMLeaderStyle
  3
ACDB_MLEADERSTYLE_CLASS
 90
     4095
280
     0
281
     0
  0
CLASS
  1
SUN
  2
AcDbSun
  3
SCENEOE
 90
     1153
280
     0
281
     0
  0
CLASS
  1
ACDBPLACEHOLDER
  2
AcDbPlaceHolder
  3
ObjectDBX Classes
 90
        0
280
     0
281
     0
  0
CLASS
  1
LAYOUT
  2
AcDbLayout
  3
ObjectDBX Classes
 90
        0
280
     0
281
     0
  0
ENDSEC
  0
SECTION
  2
TABLES
  0
TABLE
  2
VPORT
  5
8
330
0
100
AcDbSymbolTable
 70
     1
  0
VPORT
  5
29
330
8
100
AcDbSymbolTableRecord
100
AcDbViewportTableRecord
  2
*Active
 70
     0
 10
0.0
 20
0.0
 11
1.0
 21
1.0
 12
210.0
 22
148.5
 13
0.0
 23
0.0
 14
10.0
 24
10.0
 15
10.0
 25
10.0
 16
0.0
 26
0.0
 36
1.0
 17
0.0
 27
0.0
 37
0.0
 40
297.0
 41
1.4141414141
 42
50.0
 43
0.0
 44
0.0
 50
0.0
 51
0.0
 71
     0
 72
  2000
 73
     1
 74
     3
 75
     0
 76
     0
 77
     0
 78
     0
281
     0
 65
     1
110
0.0
120
0.0
130
0.0
111
1.0
121
0.0
131
0.0
112
0.0
122
1.0
132
0.0
 79
     0
146
0.0
  0
ENDTAB
  0
TABLE
  2
LTYPE
  5
5
330
0
100
AcDbSymbolTable
 70
     8
  0
LTYPE
  5
14
330
5
100
AcDbSymbolTableRecord
100
AcDbLinetypeTableRecord
  2
ByBlock
 70
     0
  3

 72
    65
 73
     0
 40
0.0
  0
LTYPE
  5
15
330
5
100
AcDbSymbolTableRecord
100
AcDbLinetypeTableRecord
  2
ByLayer
 70
     0
  3

 72
    65
 73
     0
 40
0.0
  0
LTYPE
  5
16
330
5
100
AcDbSymbolTableRecord
100
AcDbLinetypeTableRecord
  2
Continuous
 70
     0
  3
Solid line
 72
    65
 73
     0
 40
0.0
  0
LTYPE
  5
6E
330
5
100
AcDbSymbolTableRecord
100
AcDbLinetypeTableRecord
  2
SLD-実線
 70
     0
  3
SolidWorks Line Style
 72
    65
 73
     0
 40
0.0
  0
LTYPE
  5
6F
330
5
100
AcDbSymbolTableRecord
100
AcDbLinetypeTableRecord
  2
SLD-破線
 70
     0
  3
SolidWorks Line Style
 72
    65
 73
     2
 40
1.905
 49
1.27
 74
     0
 49
-0.635
 74
     0
  0
LTYPE
  5
70
330
5
100
AcDbSymbolTableRecord
100
AcDbLinetypeTableRecord
  2
SLD-2点鎖線
 70
     0
  3
SolidWorks Line Style
 72
    65
 73
     6
 40
12.7
 49
6.35
 74
     0
 49
-1.27
 74
     0
 49
1.27
 74
     0
 49
-1.27
 74
     0
 49
1.27
 74
     0
 49
-1.27
 74
     0
  0
LTYPE
  5
71
330
5
100
AcDbSymbolTableRecord
100
AcDbLinetypeTableRecord
  2
SLD-鎖線
 70
     0
  3
SolidWorks Line Style
 72
    65
 73
     4
 40
10.16
 49
6.35
 74
     0
 49
-1.27
 74
     0
 49
1.27
 74
     0
 49
-1.27
 74
     0
  0
LTYPE
  5
72
330
5
100
AcDbSymbolTableRecord
100
AcDbLinetypeTableRecord
  2
SLD-1点鎖線(中心線)
 70
     0
  3
SolidWorks Line Style
 72
    65
 73
     4
 40
34.29
 49
30.48
 74
     0
 49
-1.27
 74
     0
 49
1.27
 74
     0
 49
-1.27
 74
     0
  0
LTYPE
  5
73
330
5
100
AcDbSymbolTableRecord
100
AcDbLinetypeTableRecord
  2
SLD-点線
 70
     0
  3
SolidWorks Line Style
 72
    65
 73
     2
 40
0.635
 49
0.0
 74
     0
 49
-0.635
 74
     0
  0
LTYPE
  5
74
330
5
100
AcDbSymbolTableRecord
100
AcDbLinetypeTableRecord
  2
SLD-細-太鎖線(切断面)
 70
     0
  3
SolidWorks Line Style
 72
    65
 73
     4
 40
10.16
 49
6.35
 74
     0
 49
-1.27
 74
     0
 49
1.27
 74
     0
 49
-1.27
 74
     0
  0
ENDTAB
  0
TABLE
  2
LAYER
  5
2
330
0
100
AcDbSymbolTable
 70
     3
  0
LAYER
  5
10
330
2
100
AcDbSymbolTableRecord
100
AcDbLayerTableRecord
  2
0
 70
     0
 62
     7
  6
Continuous
370
    -3
390
F
  0
LAYER
  5
75
330
2
100
AcDbSymbolTableRecord
100
AcDbLayerTableRecord
  2
SLD-0_0
 70
     0
 62
   179
  6
SLD-実線
370
    -3
390
F
  0
LAYER
  5
76
330
2
100
AcDbSymbolTableRecord
100
AcDbLayerTableRecord
  2
SLD-0
 70
     0
 62
     3
  6
SLD-実線
370
    -3
390
F
  0
ENDTAB
  0
TABLE
  2
STYLE
  5
3
330
0
100
AcDbSymbolTable
 70
     1
  0
STYLE
  5
11
330
3
100
AcDbSymbolTableRecord
100
AcDbTextStyleTableRecord
  2
STANDARD
 70
     0
 40
0.0
 41
1.0
 50
0.0
 71
     0
 42
17.5
  3
GOTHIC.TTF
  4

1001
ACAD
1000
CENTURY GOTHIC
1071
       34
  0
ENDTAB
  0
TABLE
  2
VIEW
  5
6
330
0
100
AcDbSymbolTable
 70
     0
  0
ENDTAB
  0
TABLE
  2
UCS
  5
7
330
0
100
AcDbSymbolTable
 70
     0
  0
ENDTAB
  0
TABLE
  2
APPID
  5
9
330
0
100
AcDbSymbolTable
 70
     1
  0
APPID
  5
12
330
9
100
AcDbSymbolTableRecord
100
AcDbRegAppTableRecord
  2
ACAD
 70
     0
  0
ENDTAB
  0
TABLE
  2
DIMSTYLE
  5
A
330
0
100
AcDbSymbolTable
 70
     1
100
AcDbDimStyleTable
  0
DIMSTYLE
105
27
330
A
100
AcDbSymbolTableRecord
100
AcDbDimStyleTableRecord
  2
ISO-25
 70
     0
 41
2.5
 42
0.625
 43
3.75
 44
1.25
 73
     0
 74
     0
 77
     1
 78
     8
140
2.5
141
2.5
143
0.0393700787
147
0.625
171
     3
172
     1
178
     0
271
     2
272
     2
274
     3
278
    44
283
     0
284
     8
340
11
  0
ENDTAB
  0
TABLE
  2
BLOCK_RECORD
  5
1
330
0
100
AcDbSymbolTable
 70
     0
  0
BLOCK_RECORD
  5
1F
330
1
100
AcDbSymbolTableRecord
100
AcDbBlockTableRecord
  2
*Model_Space
340
22
  0
BLOCK_RECORD
  5
1B
330
1
100
AcDbSymbolTableRecord
100
AcDbBlockTableRecord
  2
*Paper_Space
340
1E
  0
ENDTAB
  0
ENDSEC
  0
SECTION
  2
BLOCKS
  0
BLOCK
  5
20
330
1F
100
AcDbEntity
  8
0
100
AcDbBlockBegin
  2
*Model_Space
 70
     0
 10
0.0
 20
0.0
 30
0.0
  3
*Model_Space
  1

  0
ENDBLK
  5
21
330
1F
100
AcDbEntity
  8
0
100
AcDbBlockEnd
  0
BLOCK
  5
1C
330
1B
100
AcDbEntity
 67
     1
  8
0
100
AcDbBlockBegin
  2
*Paper_Space
 70
     0
 10
0.0
 20
0.0
 30
0.0
  3
*Paper_Space
  1

  0
ENDBLK
  5
1D
330
1B
100
AcDbEntity
 67
     1
  8
0
100
AcDbBlockEnd
  0
ENDSEC
  0
SECTION
  2
ENTITIES
  0
VIEWPORT
  5
77
330
1B
100
AcDbEntity
 67
     1
  8
0
100
AcDbViewport
 10
210.0
 20
148.5
 30
0.0
 40
444.36
 41
314.226
 68
     1
 69
     1
 12
210.0
 22
148.5
 13
0.0
 23
0.0
 14
10.0
 24
10.0
 15
10.0
 25
10.0
 16
0.0
 26
0.0
 36
1.0
 17
0.0
 27
0.0
 37
0.0
 42
50.0
 43
0.0
 44
0.0
 45
314.226
 50
0.0
 51
0.0
 72
   100
 90
   557152
  1

281
     0
 71
     1
 74
     0
110
0.0
120
0.0
130
0.0
111
1.0
121
0.0
131
0.0
112
0.0
122
1.0
132
0.0
 79
     0
146
0.0
  0
LINE
  5
79
330
1B
100
AcDbEntity
 67
     1
  8
SLD-0_0
  6
SLD-実線
 62
   179
370
    25
100
AcDbLine
 10
172.6743959634
 20
631.9804555878
 30
0.0
 11
172.6743959634
 21
631.4143306717
 31
0.0
  0
LINE
  5
7A
330
1B
100
AcDbEntity
 67
     1
  8
SLD-0_0
  6
SLD-実線
 62
   179
370
    25
100
AcDbLine
 10
180.6743963434
 20
631.4143306717
 30
0.0
 11
180.6743963434
 21
631.9804555878
 31
0.0
  0
LINE
  5
7B
330
1B
100
AcDbEntity
 67
     1
  8
SLD-0_0
  6
SLD-実線
 62
   179
370
    25
100
AcDbLine
 10
230.6743942945
 20
631.9804555878
 30
0.0
 11
230.6743942945
 21
631.4143306717
 31
0.0
  0
LINE
  5
7C
330
1B
100
AcDbEntity
 67
     1
  8
SLD-0_0
  6
SLD-実線
 62
   179
370
    25
100
AcDbLine
 10
238.6743956058
 20
631.4143306717
 30
0.0
 11
238.6743956058
 21
631.9804555878
 31
0.0
  0
LINE
  5
7D
330
1B
100
AcDbEntity
 67
     1
  8
SLD-0_0
  6
SLD-実線
 62
   179
370
    25
100
AcDbLine
 10
230.6743942945
 20
547.3124600157
 30
0.0
 11
230.6743942945
 21
546.7463350996
 31
0.0
  0
LINE
  5
7E
330
1B
100
AcDbEntity
 67
     1
  8
SLD-0_0
  6
SLD-実線
 62
   179
370
    25
100
AcDbLine
 10
238.6743956058
 20
546.7463350996
 30
0.0
 11
238.6743956058
 21
547.3124600157
 31
0.0
  0
LINE
  5
7F
330
1B
100
AcDbEntity
 67
     1
  8
SLD-0_0
  6
SLD-実線
 62
   179
370
    25
100
AcDbLine
 10
172.6743959634
 20
547.3124600157
 30
0.0
 11
172.6743959634
 21
546.7463350996
 31
0.0
  0
LINE
  5
80
330
1B
100
AcDbEntity
 67
     1
  8
SLD-0_0
  6
SLD-実線
 62
   179
370
    25
100
AcDbLine
 10
180.6743963434
 20
546.7463350996
 30
0.0
 11
180.6743963434
 21
547.3124600157
 31
0.0
  0
LINE
  5
81
330
1B
100
AcDbEntity
 67
     1
  8
SLD-0_0
  6
SLD-実線
 62
   179
370
    25
100
AcDbLine
 10
226.8743970244
 20
629.2893207773
 30
0.0
 11
185.4743965714
 21
629.2893207773
 31
0.0
  0
LINE
  5
82
330
1B
100
AcDbEntity
 67
     1
  8
SLD-0_0
  6
SLD-実線
 62
   179
370
    25
100
AcDbLine
 10
235.6743969767
 20
637.1433652147
 30
0.0
 11
176.6743966191
 21
637.1433652147
 31
0.0
  0
LINE
  5
83
330
1B
100
AcDbEntity
 67
     1
  8
SLD-0_0
  6
SLD-実線
 62
   179
370
    25
100
AcDbLine
 10
154.8087195306
 20
291.2261477813
 30
0.0
 11
154.8087195306
 21
292.5261474356
 31
0.0
  0
LINE
  5
84
330
1B
100
AcDbEntity
 67
     1
  8
SLD-0_0
  6
SLD-実線
 62
   179
370
    25
100
AcDbLine
 10
265.7400750368
 20
291.2261477813
 30
0.0
 11
265.7400750368
 21
292.5261474356
 31
0.0
  0
LINE
  5
85
330
1B
100
AcDbEntity
 67
     1
  8
SLD-0_0
  6
SLD-実線
 62
   179
370
    25
100
AcDbLine
 10
256.5400720387
 20
292.5261474356
 30
0.0
 11
256.5400720387
 21
291.2261477813
 31
0.0
  0
LINE
  5
86
330
1B
100
AcDbEntity
 67
     1
  8
SLD-0_0
  6
SLD-実線
 62
   179
370
    25
100
AcDbLine
 10
193.3168371952
 20
291.2261477813
 30
0.0
 11
193.3168371952
 21
292.5261474356
 31
0.0
  0
LINE
  5
87
330
1B
100
AcDbEntity
 67
     1
  8
SLD-0_0
  6
SLD-実線
 62
   179
370
    25
100
AcDbLine
 10
184.1168374567
 20
292.5261474356
 30
0.0
 11
184.1168374567
 21
291.2261477813
 31
0.0
  0
LINE
  5
88
330
1B
100
AcDbEntity
 67
     1
  8
SLD-0_0
  6
SLD-実線
 62
   179
370
    25
100
AcDbLine
 10
227.2319541125
 20
291.2261477813
 30
0.0
 11
227.2319541125
 21
292.5261474356
 31
0.0
  0
LINE
  5
89
330
1B
100
AcDbEntity
 67
     1
  8
SLD-0_0
  6
SLD-実線
 62
   179
370
    25
100
AcDbLine
 10
218.0319548397
 20
291.431016396
 30
0.0
 11
218.0319548397
 21
291.2261477813
 31
0.0
  0
LINE
  5
8A
330
1B
100
AcDbEntity
 67
     1
  8
SLD-0_0
  6
SLD-実線
 62
   179
370
    25
100
AcDbLine
 10
154.2087205498
 20
290.726146768
 30
0.0
 11
154.2087205498
 21
291.2261477813
 31
0.0
  0
LINE
  5
8B
330
1B
100
AcDbEntity
 67
     1
  8
SLD-0_0
  6
SLD-実線
 62
   179
370
    25
100
AcDbLine
 10
146.2087192385
 20
291.2261477813
 30
0.0
 11
146.2087192385
 21
290.726146768
 31
0.0
  0
LINE
  5
8C
330
1B
100
AcDbEntity
 67
     1
  8
SLD-0_0
  6
SLD-実線
 62
   179
370
    25
100
AcDbLine
 10
145.5899187176
 20
288.0834109291
 30
0.0
 11
146.2087192385
 21
287.7261481389
 31
0.0
  0
LINE
  5
8D
330
1B
100
AcDbEntity
 67
     1
  8
SLD-0_0
  6
SLD-実線
 62
   179
370
    25
100
AcDbLine
 10
154.2087205498
 20
287.7261481389
 30
0.0
 11
154.8275210707
 21
288.0834109291
 31
0.0
  0
LINE
  5
8E
330
1B
100
AcDbEntity
 67
     1
  8
SLD-0_0
  6
SLD-実線
 62
   179
370
    25
100
AcDbLine
 10
265.1400723307
 20
290.726146768
 30
0.0
 11
265.1400723307
 21
291.2261477813
 31
0.0
  0
LINE
  5
8F
330
1B
100
AcDbEntity
 67
     1
  8
SLD-0_0
  6
SLD-実線
 62
   179
370
    25
100
AcDbLine
 10
257.1400710194
 20
291.2261477813
 30
0.0
 11
257.1400710194
 21
290.726146768
 31
0.0
  0
LINE
  5
90
330
1B
100
AcDbEntity
 67
     1
  8
SLD-0_0
  6
SLD-実線
 62
   179
370
    25
100
AcDbLine
 10
263.5950752347
 20
302.8261429772
 30
0.0
 11
263.1950684636
 21
303.2261422977
 31
0.0
  0
LINE
  5
91
330
1B
100
AcDbEntity
 67
     1
  8
SLD-0_0
  6
SLD-実線
 62
   179
370
    25
100
AcDbLine
 10
192.7168372831
 20
290.726146768
 30
0.0
 11
192.7168372831
 21
291.2261477813
 31
0.0
  0
LINE
  5
92
330
1B
100
AcDbEntity
 67
     1
  8
SLD-0_0
  6
SLD-実線
 62
   179
370
    25
100
AcDbLine
 10
184.7168373688
 20
291.2261477813
 30
0.0
 11
184.7168373688
 21
290.726146768
 31
0.0
  0
LINE
  5
93
330
1B
100
AcDbEntity
 67
     1
  8
SLD-0_0
  6
SLD-実線
 62
   179
370
    25
100
AcDbLine
 10
184.0980349853
 20
288.0834109291
 30
0.0
 11
184.7168373688
 21
287.7261481389
 31
0.0
  0
LINE
  5
94
330
1B
100
AcDbEntity
 67
     1
  8
SLD-0_0
  6
SLD-実線
 62
   179
370
    25
100
AcDbLine
 10
192.7168372832
 20
287.7261481389
 30
0.0
 11
193.3356394339
 21
288.0834109291
 31
0.0
  0
LINE
  5
95
330
1B
100
AcDbEntity
 67
     1
  8
SLD-0_0
  6
SLD-実線
 62
   179
370
    25
100
AcDbLine
 10
226.6319551318
 20
290.726146768
 30
0.0
 11
226.6319551318
 21
291.2261477813
 31
0.0
  0
LINE
  5
96
330
1B
100
AcDbEntity
 67
     1
  8
SLD-0_0
  6
SLD-実線
 62
   179
370
    25
100
AcDbLine
 10
218.6319556831
 20
291.2261477813
 30
0.0
 11
218.6319556831
 21
290.726146768
 31
0.0
  0
LINE
  5
97
330
1B
100
AcDbEntity
 67
     1
  8
SLD-0_0
  6
SLD-実線
 62
   179
370
    25
100
AcDbLine
 10
226.6319551318
 20
287.7261481389
 30
0.0
 11
226.6341772674
 21
287.7274296388
 31
0.0
  0
LINE
  5
98
330
1B
100
AcDbEntity
 67
     1
  8
SLD-0_0
  6
SLD-実線
 62
   179
370
    25
100
AcDbLine
 10
218.6297335475
 20
287.7274296388
 30
0.0
 11
218.6319556831
 21
287.7261481389
 31
0.0
  0
LINE
  5
99
330
1B
100
AcDbEntity
 67
     1
  8
SLD-0_0
  6
SLD-実線
 62
   179
370
    25
100
AcDbLine
 10
221.1743955313
 20
638.7261516556
 30
0.0
 11
221.1743955313
 21
639.9261421665
 31
0.0
  0
LINE
  5
9A
330
1B
100
AcDbEntity
 67
     1
  8
SLD-0_0
  6
SLD-実線
 62
   179
370
    25
100
AcDbLine
 10
190.174396038
 20
639.9261421665
 30
0.0
 11
190.174396038
 21
638.7261516556
 31
0.0
  0
LINE
  5
9B
330
1B
100
AcDbEntity
 67
     1
  8
SLD-0_0
  6
SLD-実線
 62
   179
370
    25
100
AcDbLine
 10
191.6743962838
 20
461.2261458441
 30
0.0
 11
194.9955724458
 21
460.9355806514
 31
0.0
  0
LINE
  5
9C
330
1B
100
AcDbEntity
 67
     1
  8
SLD-0_0
  6
SLD-実線
 62
   179
370
    25
100
AcDbLine
 10
216.3532198219
 20
460.9355806514
 30
0.0
 11
219.6743962168
 21
461.2261458441
 31
0.0
  0
LINE
  5
9D
330
1B
100
AcDbEntity
 67
     1
  8
SLD-0_0
  6
SLD-実線
 62
   179
370
    25
100
AcDbLine
 10
191.6743962838
 20
462.7261451587
 30
0.0
 11
191.6743962838
 21
461.2261458441
 31
0.0
  0
LINE
  5
9E
330
1B
100
AcDbEntity
 67
     1
  8
SLD-0_0
  6
SLD-実線
 62
   179
370
    25
100
AcDbLine
 10
219.6743962168
 20
461.2261458441
 30
0.0
 11
219.6743962168
 21
462.7261451587
 31
0.0
  0
LINE
  5
9F
330
1B
100
AcDbEntity
 67
     1
  8
SLD-0_0
  6
SLD-実線
 62
   179
370
    25
100
AcDbLine
 10
196.291423995
 20
459.9048138549
 30
0.0
 11
196.6743965233
 21
458.7261449445
 31
0.0
  0
LINE
  5
A0
330
1B
100
AcDbEntity
 67
     1
  8
SLD-0_0
  6
SLD-実線
 62
   179
370
    25
100
AcDbLine
 10
214.6743957484
 20
458.7261449445
 30
0.0
 11
215.0573689995
 21
459.9048138549
 31
0.0
  0
LINE
  5
A1
330
1B
100
AcDbEntity
 67
     1
  8
SLD-0_0
  6
SLD-実線
 62
   179
370
    25
100
AcDbLine
 10
268.1743957846
 20
292.5261474356
 30
0.0
 11
268.1743957846
 21
294.8261416659
 31
0.0
  0
LINE
  5
A2
330
1B
100
AcDbEntity
 67
     1
  8
SLD-0_0
  6
SLD-実線
 62
   179
370
    25
100
AcDbLine
 10
143.1743957846
 20
294.8261416659
 30
0.0
 11
143.1743957846
 21
292.5261474356
 31
0.0
  0
LINE
  5
A3
330
1B
100
AcDbEntity
 67
     1
  8
SLD-0_0
  6
SLD-実線
 62
   179
370
    25
100
AcDbLine
 10
193.3168371952
 20
291.431016396
 30
0.0
 11
196.2217049486
 21
288.5261467799
 31
0.0
  0
LINE
  5
A4
330
1B
100
AcDbEntity
 67
     1
  8
SLD-0_0
  6
SLD-実線
 62
   179
370
    25
100
AcDbLine
 10
215.1270870863
 20
288.5261467799
 30
0.0
 11
219.127087742
 21
292.5261474356
 31
0.0
  0
LINE
  5
A5
330
1B
100
AcDbEntity
 67
     1
  8
SLD-0_0
  6
SLD-実線
 62
   179
370
    25
100
AcDbLine
 10
189.4917831569
 20
524.7261441454
 30
0.0
 11
189.4917831569
 21
515.7261482581
 31
0.0
  0
LINE
  5
A6
330
1B
100
AcDbEntity
 67
     1
  8
SLD-0_0
  6
SLD-実線
 62
   179
370
    25
100
AcDbLine
 10
178.4308970719
 20
539.2439431652
 30
0.0
 11
178.2387931644
 21
528.7261448011
 31
0.0
  0
LINE
  5
A7
330
1B
100
AcDbEntity
 67
     1
  8
SLD-0_0
  6
SLD-実線
 62
   179
370
    25
100
AcDbLine
 10
168.9424429833
 20
613.7480951056
 30
0.0
 11
167.0761172472
 21
528.7261448011
 31
0.0
  0
LINE
  5
A8
330
1B
100
AcDbEntity
 67
     1
  8
SLD-0_0
  6
SLD-実線
 62
   179
370
    25
100
AcDbLine
 10
257.2676622121
 20
635.1266420588
 30
0.0
 11
252.2607081382
 21
635.4975319609
 31
0.0
  0
LINE
  5
A9
330
1B
100
AcDbEntity
 67
     1
  8
SLD-0_0
  6
SLD-実線
 62
   179
370
    25
100
AcDbLine
 10
174.3041601776
 20
636.6246408924
 30
0.0
 11
173.2381441443
 21
636.5456796393
 31
0.0
  0
LINE
  5
AA
330
1B
100
AcDbEntity
 67
     1
  8
SLD-0_0
  6
SLD-実線
 62
   179
370
    25
100
AcDbLine
 10
159.0899636611
 20
635.4976670653
 30
0.0
 11
154.0811283156
 21
635.1266430528
 31
0.0
  0
LINE
  5
AB
330
1B
100
AcDbEntity
 67
     1
  8
SLD-0_0
  6
SLD-実線
 62
   179
370
    25
100
AcDbLine
 10
272.174397338
 20
525.7261436184
 30
0.0
 11
272.174397338
 21
528.7261422475
 31
0.0
  0
LINE
  5
AC
330
1B
100
AcDbEntity
 67
     1
  8
SLD-0_0
  6
SLD-実線
 62
   179
370
    25
100
AcDbLine
 10
254.5062311738
 20
515.7261482581
 30
0.0
 11
254.5062311738
 21
524.7261441454
 31
0.0
  0
LINE
  5
AD
330
1B
100
AcDbEntity
 67
     1
  8
SLD-0_0
  6
SLD-実線
 62
   179
370
    25
100
AcDbLine
 10
157.8055851905
 20
616.2384814724
 30
0.0
 11
155.6451626866
 21
528.7261448011
 31
0.0
  0
LINE
  5
AE
330
1B
100
AcDbEntity
 67
     1
  8
SLD-0_0
  6
SLD-実線
 62
   179
370
    25
100
AcDbLine
 10
255.7036288827
 20
528.7261448011
 30
0.0
 11
253.5432063787
 21
616.2384814724
 31
0.0
  0
LINE
  5
AF
330
1B
100
AcDbEntity
 67
     1
  8
SLD-0_0
  6
SLD-実線
 62
   179
370
    25
100
AcDbLine
 10
252.7107306569
 20
617.0421457991
 30
0.0
 11
252.2545390575
 21
635.7505387768
 31
0.0
  0
LINE
  5
B0
330
1B
100
AcDbEntity
 67
     1
  8
SLD-0_0
  6
SLD-実線
 62
   179
370
    25
100
AcDbLine
 10
159.0961300581
 20
635.750464271
 30
0.0
 11
158.6398900299
 21
617.0440978512
 31
0.0
  0
LINE
  5
B1
330
1B
100
AcDbEntity
 67
     1
  8
SLD-0_0
  6
SLD-実線
 62
   179
370
    25
100
AcDbLine
 10
266.6743927448
 20
515.7261482581
 30
0.0
 11
266.6743927448
 21
524.7261441454
 31
0.0
  0
LINE
  5
B2
330
1B
100
AcDbEntity
 67
     1
  8
SLD-0_0
  6
SLD-実線
 62
   179
370
    25
100
AcDbLine
 10
263.206585991
 20
615.2125057005
 30
0.0
 11
262.8222004982
 21
629.3066120784
 31
0.0
  0
LINE
  5
B3
330
1B
100
AcDbEntity
 67
     1
  8
SLD-0_0
  6
SLD-実線
 62
   179
370
    25
100
AcDbLine
 10
148.5265907239
 20
629.3066130998
 30
0.0
 11
148.1422045081
 21
615.2125067219
 31
0.0
  0
LINE
  5
B4
330
1B
100
AcDbEntity
 67
     1
  8
SLD-0_0
  6
SLD-実線
 62
   179
370
    25
100
AcDbLine
 10
261.2697579113
 20
528.72614627
 30
0.0
 11
259.0117477027
 21
613.7527010333
 31
0.0
  0
LINE
  5
B5
330
1B
100
AcDbEntity
 67
     1
  8
SLD-0_0
  6
SLD-実線
 62
   179
370
    25
100
AcDbLine
 10
153.1967305391
 20
542.0846409306
 30
0.0
 11
141.5524937956
 21
529.4810152754
 31
0.0
  0
LINE
  5
B6
330
1B
100
AcDbEntity
 67
     1
  8
SLD-0_0
  6
SLD-実線
 62
   179
370
    25
100
AcDbLine
 10
235.6743958853
 20
637.6548103354
 30
0.0
 11
235.6743967159
 21
637.7261490591
 31
0.0
  0
LINE
  5
B7
330
1B
100
AcDbEntity
 67
     1
  8
SLD-0_0
  6
SLD-実線
 62
   179
370
    25
100
AcDbLine
 10
175.6743964552
 20
637.726149629
 30
0.0
 11
175.6743961461
 21
637.6548109053
 31
0.0
  0
LINE
  5
B8
330
1B
100
AcDbEntity
 67
     1
  8
SLD-0_0
  6
SLD-実線
 62
   179
370
    25
100
AcDbLine
 10
267.2461809483
 20
528.7261456709
 30
0.0
 11
264.9067209926
 21
613.7536541085
 31
0.0
  0
LINE
  5
B9
330
1B
100
AcDbEntity
 67
     1
  8
SLD-0_0
  6
SLD-実線
 62
   179
370
    25
100
AcDbLine
 10
135.9703285815
 20
528.726146206
 30
0.0
 11
135.9703285815
 21
517.2261466531
 31
0.0
  0
LINE
  5
BA
330
1B
100
AcDbEntity
 67
     1
  8
SLD-0_0
  6
SLD-実線
 62
   179
370
    25
100
AcDbLine
 10
142.5073937326
 20
516.7261428341
 30
0.0
 11
142.5073937326
 21
515.7261482581
 31
0.0
  0
LINE
  5
BB
330
1B
100
AcDbEntity
 67
     1
  8
SLD-0_0
  6
SLD-実線
 62
   179
370
    25
100
AcDbLine
 10
270.894847706
 20
528.7261438518
 30
0.0
 11
268.5638739616
 21
613.7535479813
 31
0.0
  0
LINE
  5
BC
330
1B
100
AcDbEntity
 67
     1
  8
SLD-0_0
  6
SLD-実線
 62
   179
370
    25
100
AcDbLine
 10
142.5735654703
 20
613.7534891597
 30
0.0
 11
140.2477145939
 21
528.7261448011
 31
0.0
  0
LINE
  5
BD
330
1B
100
AcDbEntity
 67
     1
  8
SLD-0_0
  6
SLD-実線
 62
   179
370
    25
100
AcDbLine
 10
147.9477518051
 20
614.8302174315
 30
0.0
 11
147.9258508234
 21
614.8142582878
 31
0.0
  0
LINE
  5
BE
330
1B
100
AcDbEntity
 67
     1
  8
SLD-0_0
  6
SLD-実線
 62
   179
370
    25
100
AcDbLine
 10
268.841401562
 20
515.7261482581
 30
0.0
 11
268.841401562
 21
524.7261441454
 31
0.0
  0
LINE
  5
BF
330
1B
100
AcDbEntity
 67
     1
  8
SLD-0_0
  6
SLD-実線
 62
   179
370
    25
100
AcDbLine
 10
275.3784642689
 20
517.2261426946
 30
0.0
 11
275.3784673696
 21
528.7261422475
 31
0.0
  0
LINE
  5
C0
330
1B
100
AcDbEntity
 67
     1
  8
SLD-0_0
  6
SLD-実線
 62
   179
370
    25
100
AcDbLine
 10
197.2743962006
 20
464.7261454865
 30
0.0
 11
197.2743962006
 21
462.7261451587
 31
0.0
  0
LINE
  5
C1
330
1B
100
AcDbEntity
 67
     1
  8
SLD-0_0
  6
SLD-実線
 62
   179
370
    25
100
AcDbLine
 10
214.0743964164
 20
462.7261451587
 30
0.0
 11
214.0743964164
 21
464.7261454865
 31
0.0
  0
LINE
  5
C2
330
1B
100
AcDbEntity
 67
     1
  8
SLD-0_0
  6
SLD-実線
 62
   179
370
    25
100
AcDbLine
 10
197.6743961031
 20
453.7261455461
 30
0.0
 11
198.1743961851
 21
452.3524074957
 31
0.0
  0
LINE
  5
C3
330
1B
100
AcDbEntity
 67
     1
  8
SLD-0_0
  6
SLD-実線
 62
   179
370
    25
100
AcDbLine
 10
213.1743960827
 20
452.3524074957
 30
0.0
 11
213.6743952333
 21
453.7261455461
 31
0.0
  0
LINE
  5
C4
330
1B
100
AcDbEntity
 67
     1
  8
SLD-0_0
  6
SLD-実線
 62
   179
370
    25
100
AcDbLine
 10
197.6743961031
 20
456.7261441752
 30
0.0
 11
197.6743961031
 21
453.7261455461
 31
0.0
  0
LINE
  5
C5
330
1B
100
AcDbEntity
 67
     1
  8
SLD-0_0
  6
SLD-実線
 62
   179
370
    25
100
AcDbLine
 10
213.6743952333
 20
453.7261455461
 30
0.0
 11
213.6743952333
 21
456.7261441752
 31
0.0
  0
LINE
  5
C6
330
1B
100
AcDbEntity
 67
     1
  8
SLD-0_0
  6
SLD-実線
 62
   179
370
    25
100
AcDbLine
 10
198.1743961851
 20
458.726144503
 30
0.0
 11
198.1743961851
 21
456.7261441752
 31
0.0
  0
LINE
  5
C7
330
1B
100
AcDbEntity
 67
     1
  8
SLD-0_0
  6
SLD-実線
 62
   179
370
    25
100
AcDbLine
 10
213.1743960827
 20
456.7261441752
 30
0.0
 11
213.1743960827
 21
458.726144503
 31
0.0
  0
LINE
  5
C8
330
1B
100
AcDbEntity
 67
     1
  8
SLD-0_0
  6
SLD-実線
 62
   179
370
    25
100
AcDbLine
 10
198.1743961851
 20
452.3524074957
 30
0.0
 11
198.1743961851
 21
314.8261449441
 31
0.0
  0
LINE
  5
C9
330
1B
100
AcDbEntity
 67
     1
  8
SLD-0_0
  6
SLD-実線
 62
   179
370
    25
100
AcDbLine
 10
213.1743960827
 20
314.8261449441
 30
0.0
 11
213.1743960827
 21
452.3524074957
 31
0.0
  0
LINE
  5
CA
330
1B
100
AcDbEntity
 67
     1
  8
SLD-0_0
  6
SLD-実線
 62
   179
370
    25
100
AcDbLine
 10
141.6743964701
 20
467.7261441156
 30
0.0
 11
141.6743964701
 21
464.7261454865
 31
0.0
  0
LINE
  5
CB
330
1B
100
AcDbEntity
 67
     1
  8
SLD-0_0
  6
SLD-実線
 62
   179
370
    25
100
AcDbLine
 10
269.6743988245
 20
464.7261454865
 30
0.0
 11
269.6743988245
 21
467.7261441156
 31
0.0
  0
LINE
  5
CC
330
1B
100
AcDbEntity
 67
     1
  8
SLD-0_0
  6
SLD-実線
 62
   179
370
    25
100
AcDbLine
 10
268.1743957846
 20
294.8261416659
 30
0.0
 11
268.1743957846
 21
300.8261463746
 31
0.0
  0
LINE
  5
CD
330
1B
100
AcDbEntity
 67
     1
  8
SLD-0_0
  6
SLD-実線
 62
   179
370
    25
100
AcDbLine
 10
143.1743957846
 20
302.8261429772
 30
0.0
 11
143.1743957846
 21
294.8261416659
 31
0.0
  0
LINE
  5
CE
330
1B
100
AcDbEntity
 67
     1
  8
SLD-0_0
  6
SLD-実線
 62
   179
370
    25
100
AcDbLine
 10
266.6743961461
 20
478.7261452482
 30
0.0
 11
266.6743927448
 21
502.7261442646
 31
0.0
  0
LINE
  5
CF
330
1B
100
AcDbEntity
 67
     1
  8
SLD-0_0
  6
SLD-実線
 62
   179
370
    25
100
AcDbLine
 10
181.6743961461
 20
316.8261452482
 30
0.0
 11
181.6743961461
 21
315.8261452482
 31
0.0
  0
LINE
  5
D0
330
1B
100
AcDbEntity
 67
     1
  8
SLD-0_0
  6
SLD-実線
 62
   179
370
    25
100
AcDbLine
 10
229.6743965912
 20
315.8261448031
 30
0.0
 11
229.6743965912
 21
316.8261448031
 31
0.0
  0
LINE
  5
D1
330
1B
100
AcDbEntity
 67
     1
  8
SLD-0_0
  6
SLD-実線
 62
   179
370
    25
100
AcDbLine
 10
176.1593957244
 20
631.7141718373
 30
0.0
 11
176.1593957244
 21
630.5823988423
 31
0.0
  0
LINE
  5
D2
330
1B
100
AcDbEntity
 67
     1
  8
SLD-0_0
  6
SLD-実線
 62
   179
370
    25
100
AcDbLine
 10
177.1893956511
 20
630.5823988423
 30
0.0
 11
177.1893956511
 21
631.7141718373
 31
0.0
  0
LINE
  5
D3
330
1B
100
AcDbEntity
 67
     1
  8
SLD-0_0
  6
SLD-実線
 62
   179
370
    25
100
AcDbLine
 10
177.189395651
 20
633.329025577
 30
0.0
 11
177.189395651
 21
634.2753238186
 31
0.0
  0
LINE
  5
D4
330
1B
100
AcDbEntity
 67
     1
  8
SLD-0_0
  6
SLD-実線
 62
   179
370
    25
100
AcDbLine
 10
176.1593957244
 20
634.2753238186
 30
0.0
 11
176.1593957244
 21
633.329025577
 31
0.0
  0
LINE
  5
D5
330
1B
100
AcDbEntity
 67
     1
  8
SLD-0_0
  6
SLD-実線
 62
   179
370
    25
100
AcDbLine
 10
176.1593957244
 20
630.7779765829
 30
0.0
 11
177.1893956511
 21
630.7779765829
 31
0.0
  0
LINE
  5
D6
330
1B
100
AcDbEntity
 67
     1
  8
SLD-0_0
  6
SLD-実線
 62
   179
370
    25
100
AcDbLine
 10
180.6743963434
 20
631.9804555878
 30
0.0
 11
180.4966869577
 21
633.0774343714
 31
0.0
  0
LINE
  5
D7
330
1B
100
AcDbEntity
 67
     1
  8
SLD-0_0
  6
SLD-実線
 62
   179
370
    25
100
AcDbLine
 10
180.4966869577
 20
633.0774343714
 30
0.0
 11
179.9793512373
 21
634.0769446596
 31
0.0
  0
LINE
  5
D8
330
1B
100
AcDbEntity
 67
     1
  8
SLD-0_0
  6
SLD-実線
 62
   179
370
    25
100
AcDbLine
 10
179.9793512373
 20
634.0769446596
 30
0.0
 11
179.1683555393
 21
634.8901755318
 31
0.0
  0
LINE
  5
D9
330
1B
100
AcDbEntity
 67
     1
  8
SLD-0_0
  6
SLD-実線
 62
   179
370
    25
100
AcDbLine
 10
179.1683555393
 20
634.8901755318
 30
0.0
 11
178.135760948
 21
635.4448712572
 31
0.0
  0
LINE
  5
DA
330
1B
100
AcDbEntity
 67
     1
  8
SLD-0_0
  6
SLD-実線
 62
   179
370
    25
100
AcDbLine
 10
178.135760948
 20
635.4448712572
 30
0.0
 11
176.9733157753
 21
635.6917238936
 31
0.0
  0
LINE
  5
DB
330
1B
100
AcDbEntity
 67
     1
  8
SLD-0_0
  6
SLD-実線
 62
   179
370
    25
100
AcDbLine
 10
176.9733157753
 20
635.6917238936
 30
0.0
 11
175.7843130081
 21
635.6088138327
 31
0.0
  0
LINE
  5
DC
330
1B
100
AcDbEntity
 67
     1
  8
SLD-0_0
  6
SLD-実線
 62
   179
370
    25
100
AcDbLine
 10
175.7843130081
 20
635.6088138327
 30
0.0
 11
174.6743962913
 21
635.2035171494
 31
0.0
  0
LINE
  5
DD
330
1B
100
AcDbEntity
 67
     1
  8
SLD-0_0
  6
SLD-実線
 62
   179
370
    25
100
AcDbLine
 10
174.6743962913
 20
635.2035171494
 30
0.0
 11
173.7421889602
 21
634.5118350491
 31
0.0
  0
LINE
  5
DE
330
1B
100
AcDbEntity
 67
     1
  8
SLD-0_0
  6
SLD-実線
 62
   179
370
    25
100
AcDbLine
 10
173.7421889602
 20
634.5118350491
 30
0.0
 11
173.070520982
 21
633.5952348217
 31
0.0
  0
LINE
  5
DF
330
1B
100
AcDbEntity
 67
     1
  8
SLD-0_0
  6
SLD-実線
 62
   179
370
    25
100
AcDbLine
 10
173.070520982
 20
633.5952348217
 30
0.0
 11
172.71907337
 21
632.5351513132
 31
0.0
  0
LINE
  5
E0
330
1B
100
AcDbEntity
 67
     1
  8
SLD-0_0
  6
SLD-実線
 62
   179
370
    25
100
AcDbLine
 10
172.71907337
 20
632.5351513132
 30
0.0
 11
172.71907337
 21
631.4257747635
 31
0.0
  0
LINE
  5
E1
330
1B
100
AcDbEntity
 67
     1
  8
SLD-0_0
  6
SLD-実線
 62
   179
370
    25
100
AcDbLine
 10
172.71907337
 20
631.4257747635
 30
0.0
 11
173.070520982
 21
630.365691255
 31
0.0
  0
LINE
  5
E2
330
1B
100
AcDbEntity
 67
     1
  8
SLD-0_0
  6
SLD-実線
 62
   179
370
    25
100
AcDbLine
 10
173.070520982
 20
630.365691255
 30
0.0
 11
173.7421889602
 21
629.4490761265
 31
0.0
  0
LINE
  5
E3
330
1B
100
AcDbEntity
 67
     1
  8
SLD-0_0
  6
SLD-実線
 62
   179
370
    25
100
AcDbLine
 10
173.7421889602
 20
629.4490761265
 30
0.0
 11
174.6743962913
 21
628.7573940262
 31
0.0
  0
LINE
  5
E4
330
1B
100
AcDbEntity
 67
     1
  8
SLD-0_0
  6
SLD-実線
 62
   179
370
    25
100
AcDbLine
 10
174.6743962913
 20
628.7573940262
 30
0.0
 11
175.7843130081
 21
628.3520973429
 31
0.0
  0
LINE
  5
E5
330
1B
100
AcDbEntity
 67
     1
  8
SLD-0_0
  6
SLD-実線
 62
   179
370
    25
100
AcDbLine
 10
175.7843130081
 20
628.3520973429
 30
0.0
 11
176.9733157753
 21
628.2692021832
 31
0.0
  0
LINE
  5
E6
330
1B
100
AcDbEntity
 67
     1
  8
SLD-0_0
  6
SLD-実線
 62
   179
370
    25
100
AcDbLine
 10
176.9733157753
 20
628.2692021832
 30
0.0
 11
178.135760948
 21
628.5160548195
 31
0.0
  0
LINE
  5
E7
330
1B
100
AcDbEntity
 67
     1
  8
SLD-0_0
  6
SLD-実線
 62
   179
370
    25
100
AcDbLine
 10
178.135760948
 20
628.5160548195
 30
0.0
 11
179.1683555393
 21
629.0707356438
 31
0.0
  0
LINE
  5
E8
330
1B
100
AcDbEntity
 67
     1
  8
SLD-0_0
  6
SLD-実線
 62
   179
370
    25
100
AcDbLine
 10
179.1683555393
 20
629.0707356438
 30
0.0
 11
179.9793512373
 21
629.8839665159
 31
0.0
  0
LINE
  5
E9
330
1B
100
AcDbEntity
 67
     1
  8
SLD-0_0
  6
SLD-実線
 62
   179
370
    25
100
AcDbLine
 10
179.9793512373
 20
629.8839665159
 30
0.0
 11
180.4966869577
 21
630.8834768042
 31
0.0
  0
LINE
  5
EA
330
1B
100
AcDbEntity
 67
     1
  8
SLD-0_0
  6
SLD-実線
 62
   179
370
    25
100
AcDbLine
 10
180.4966869577
 20
630.8834768042
 30
0.0
 11
180.6743963434
 21
631.9804555878
 31
0.0
  0
LINE
  5
EB
330
1B
100
AcDbEntity
 67
     1
  8
SLD-0_0
  6
SLD-実線
 62
   179
370
    25
100
AcDbLine
 10
177.6577149331
 20
632.0363200411
 30
0.0
 11
177.6577149331
 21
632.1720398173
 31
0.0
  0
LINE
  5
EC
330
1B
100
AcDbEntity
 67
     1
  8
SLD-0_0
  6
SLD-実線
 62
   179
370
    25
100
AcDbLine
 10
178.6589518933
 20
632.9080230697
 30
0.0
 11
177.6577149331
 21
632.1720398173
 31
0.0
  0
LINE
  5
ED
330
1B
100
AcDbEntity
 67
     1
  8
SLD-0_0
  6
SLD-実線
 62
   179
370
    25
100
AcDbLine
 10
174.6898413449
 20
632.9080230698
 30
0.0
 11
175.6910764425
 21
632.1720398173
 31
0.0
  0
LINE
  5
EE
330
1B
100
AcDbEntity
 67
     1
  8
SLD-0_0
  6
SLD-実線
 62
   179
370
    25
100
AcDbLine
 10
175.6910764425
 20
632.1720398173
 30
0.0
 11
175.6910764425
 21
632.0363200411
 31
0.0
  0
LINE
  5
EF
330
1B
100
AcDbEntity
 67
     1
  8
SLD-0_0
  6
SLD-実線
 62
   179
370
    25
100
AcDbLine
 10
177.3518741874
 20
632.1720398173
 30
0.0
 11
177.6577149331
 21
632.1720398173
 31
0.0
  0
LINE
  5
F0
330
1B
100
AcDbEntity
 67
     1
  8
SLD-0_0
  6
SLD-実線
 62
   179
370
    25
100
AcDbLine
 10
175.6910764425
 20
632.1720398173
 30
0.0
 11
175.9969190507
 21
632.1720398173
 31
0.0
  0
LINE
  5
F1
330
1B
100
AcDbEntity
 67
     1
  8
SLD-0_0
  6
SLD-実線
 62
   179
370
    25
100
AcDbLine
 10
177.1893956511
 20
632.6077646717
 30
0.0
 11
176.1593957244
 21
632.6077646717
 31
0.0
  0
LINE
  5
F2
330
1B
100
AcDbEntity
 67
     1
  8
SLD-0_0
  6
SLD-実線
 62
   179
370
    25
100
AcDbLine
 10
177.4779268353
 20
631.9536185965
 30
0.0
 11
177.4262663721
 21
632.0637381777
 31
0.0
  0
LINE
  5
F3
330
1B
100
AcDbEntity
 67
     1
  8
SLD-0_0
  6
SLD-実線
 62
   179
370
    25
100
AcDbLine
 10
177.4262663721
 20
632.0637381777
 30
0.0
 11
177.3518741874
 21
632.1720398173
 31
0.0
  0
LINE
  5
F4
330
1B
100
AcDbEntity
 67
     1
  8
SLD-0_0
  6
SLD-実線
 62
   179
370
    25
100
AcDbLine
 10
175.9969190507
 20
632.1720398173
 30
0.0
 11
175.9225268661
 21
632.0637381777
 31
0.0
  0
LINE
  5
F5
330
1B
100
AcDbEntity
 67
     1
  8
SLD-0_0
  6
SLD-実線
 62
   179
370
    25
100
AcDbLine
 10
175.9225268661
 20
632.0637381777
 30
0.0
 11
175.8708664029
 21
631.9536185965
 31
0.0
  0
LINE
  5
F6
330
1B
100
AcDbEntity
 67
     1
  8
SLD-0_0
  6
SLD-実線
 62
   179
370
    25
100
AcDbLine
 10
235.1893977075
 20
633.329025577
 30
0.0
 11
235.1893977075
 21
634.2753238186
 31
0.0
  0
LINE
  5
F7
330
1B
100
AcDbEntity
 67
     1
  8
SLD-0_0
  6
SLD-実線
 62
   179
370
    25
100
AcDbLine
 10
234.1593959181
 20
634.2753238186
 30
0.0
 11
234.1593959181
 21
633.329025577
 31
0.0
  0
LINE
  5
F8
330
1B
100
AcDbEntity
 67
     1
  8
SLD-0_0
  6
SLD-実線
 62
   179
370
    25
100
AcDbLine
 10
234.159395918
 20
631.7141718372
 30
0.0
 11
234.159395918
 21
630.5823988422
 31
0.0
  0
LINE
  5
F9
330
1B
100
AcDbEntity
 67
     1
  8
SLD-0_0
  6
SLD-実線
 62
   179
370
    25
100
AcDbLine
 10
235.1893977075
 20
630.5823988422
 30
0.0
 11
235.1893977075
 21
631.7141718372
 31
0.0
  0
LINE
  5
FA
330
1B
100
AcDbEntity
 67
     1
  8
SLD-0_0
  6
SLD-実線
 62
   179
370
    25
100
AcDbLine
 10
234.1593959181
 20
630.7779765829
 30
0.0
 11
235.1893977075
 21
630.7779765829
 31
0.0
  0
LINE
  5
FB
330
1B
100
AcDbEntity
 67
     1
  8
SLD-0_0
  6
SLD-実線
 62
   179
370
    25
100
AcDbLine
 10
234.6743949502
 20
635.7021249041
 30
0.0
 11
233.4953740983
 21
635.5367816195
 31
0.0
  0
LINE
  5
FC
330
1B
100
AcDbEntity
 67
     1
  8
SLD-0_0
  6
SLD-実線
 62
   179
370
    25
100
AcDbLine
 10
233.4953740983
 20
635.5367816195
 30
0.0
 11
232.4211158602
 21
635.0554443106
 31
0.0
  0
LINE
  5
FD
330
1B
100
AcDbEntity
 67
     1
  8
SLD-0_0
  6
SLD-実線
 62
   179
370
    25
100
AcDbLine
 10
232.4211158602
 20
635.0554443106
 30
0.0
 11
231.547069624
 21
634.3008793101
 31
0.0
  0
LINE
  5
FE
330
1B
100
AcDbEntity
 67
     1
  8
SLD-0_0
  6
SLD-実線
 62
   179
370
    25
100
AcDbLine
 10
231.547069624
 20
634.3008793101
 30
0.0
 11
230.9509002416
 21
633.3401418432
 31
0.0
  0
LINE
  5
FF
330
1B
100
AcDbEntity
 67
     1
  8
SLD-0_0
  6
SLD-実線
 62
   179
370
    25
100
AcDbLine
 10
230.9509002416
 20
633.3401418432
 30
0.0
 11
230.6855813413
 21
632.2585857615
 31
0.0
  0
LINE
  5
100
330
1B
100
AcDbEntity
 67
     1
  8
SLD-0_0
  6
SLD-実線
 62
   179
370
    25
100
AcDbLine
 10
230.6855813413
 20
632.2585857615
 30
0.0
 11
230.7746828346
 21
631.1523086533
 31
0.0
  0
LINE
  5
101
330
1B
100
AcDbEntity
 67
     1
  8
SLD-0_0
  6
SLD-実線
 62
   179
370
    25
100
AcDbLine
 10
230.7746828346
 20
631.1523086533
 30
0.0
 11
231.2102959304
 21
630.1196283802
 31
0.0
  0
LINE
  5
102
330
1B
100
AcDbEntity
 67
     1
  8
SLD-0_0
  6
SLD-実線
 62
   179
370
    25
100
AcDbLine
 10
231.2102959304
 20
630.1196283802
 30
0.0
 11
231.9537036865
 21
629.2522764906
 31
0.0
  0
LINE
  5
103
330
1B
100
AcDbEntity
 67
     1
  8
SLD-0_0
  6
SLD-実線
 62
   179
370
    25
100
AcDbLine
 10
231.9537036865
 20
629.2522764906
 30
0.0
 11
232.9388604312
 21
628.6273515925
 31
0.0
  0
LINE
  5
104
330
1B
100
AcDbEntity
 67
     1
  8
SLD-0_0
  6
SLD-実線
 62
   179
370
    25
100
AcDbLine
 10
232.9388604312
 20
628.6273515925
 30
0.0
 11
234.0782255678
 21
628.3003605112
 31
0.0
  0
LINE
  5
105
330
1B
100
AcDbEntity
 67
     1
  8
SLD-0_0
  6
SLD-実線
 62
   179
370
    25
100
AcDbLine
 10
234.0782255678
 20
628.3003605112
 30
0.0
 11
235.2705643325
 21
628.3003605112
 31
0.0
  0
LINE
  5
106
330
1B
100
AcDbEntity
 67
     1
  8
SLD-0_0
  6
SLD-実線
 62
   179
370
    25
100
AcDbLine
 10
235.2705643325
 20
628.3003605112
 30
0.0
 11
236.4099294691
 21
628.6273515925
 31
0.0
  0
LINE
  5
107
330
1B
100
AcDbEntity
 67
     1
  8
SLD-0_0
  6
SLD-実線
 62
   179
370
    25
100
AcDbLine
 10
236.4099294691
 20
628.6273515925
 30
0.0
 11
237.3950862138
 21
629.2522764906
 31
0.0
  0
LINE
  5
108
330
1B
100
AcDbEntity
 67
     1
  8
SLD-0_0
  6
SLD-実線
 62
   179
370
    25
100
AcDbLine
 10
237.3950862138
 20
629.2522764906
 30
0.0
 11
238.1384976952
 21
630.1196283802
 31
0.0
  0
LINE
  5
109
330
1B
100
AcDbEntity
 67
     1
  8
SLD-0_0
  6
SLD-実線
 62
   179
370
    25
100
AcDbLine
 10
238.1384976952
 20
630.1196283802
 30
0.0
 11
238.5741070657
 21
631.1523086533
 31
0.0
  0
LINE
  5
10A
330
1B
100
AcDbEntity
 67
     1
  8
SLD-0_0
  6
SLD-実線
 62
   179
370
    25
100
AcDbLine
 10
238.5741070657
 20
631.1523086533
 30
0.0
 11
238.6632122843
 21
632.2585857615
 31
0.0
  0
LINE
  5
10B
330
1B
100
AcDbEntity
 67
     1
  8
SLD-0_0
  6
SLD-実線
 62
   179
370
    25
100
AcDbLine
 10
238.6632122843
 20
632.2585857615
 30
0.0
 11
238.3978896587
 21
633.3401418432
 31
0.0
  0
LINE
  5
10C
330
1B
100
AcDbEntity
 67
     1
  8
SLD-0_0
  6
SLD-実線
 62
   179
370
    25
100
AcDbLine
 10
238.3978896587
 20
633.3401418432
 30
0.0
 11
237.8017202764
 21
634.3008793101
 31
0.0
  0
LINE
  5
10D
330
1B
100
AcDbEntity
 67
     1
  8
SLD-0_0
  6
SLD-実線
 62
   179
370
    25
100
AcDbLine
 10
237.8017202764
 20
634.3008793101
 30
0.0
 11
236.9276777654
 21
635.0554443106
 31
0.0
  0
LINE
  5
10E
330
1B
100
AcDbEntity
 67
     1
  8
SLD-0_0
  6
SLD-実線
 62
   179
370
    25
100
AcDbLine
 10
236.9276777654
 20
635.0554443106
 30
0.0
 11
235.853415802
 21
635.5367816195
 31
0.0
  0
LINE
  5
10F
330
1B
100
AcDbEntity
 67
     1
  8
SLD-0_0
  6
SLD-実線
 62
   179
370
    25
100
AcDbLine
 10
235.853415802
 20
635.5367816195
 30
0.0
 11
234.6743949502
 21
635.7021249041
 31
0.0
  0
LINE
  5
110
330
1B
100
AcDbEntity
 67
     1
  8
SLD-0_0
  6
SLD-実線
 62
   179
370
    25
100
AcDbLine
 10
235.6577151268
 20
632.0363200411
 30
0.0
 11
235.6577151268
 21
632.1720398173
 31
0.0
  0
LINE
  5
111
330
1B
100
AcDbEntity
 67
     1
  8
SLD-0_0
  6
SLD-実線
 62
   179
370
    25
100
AcDbLine
 10
236.6589502244
 20
632.9080230697
 30
0.0
 11
235.6577151268
 21
632.1720398173
 31
0.0
  0
LINE
  5
112
330
1B
100
AcDbEntity
 67
     1
  8
SLD-0_0
  6
SLD-実線
 62
   179
370
    25
100
AcDbLine
 10
232.6898396759
 20
632.9080230697
 30
0.0
 11
233.6910784989
 21
632.1720398173
 31
0.0
  0
LINE
  5
113
330
1B
100
AcDbEntity
 67
     1
  8
SLD-0_0
  6
SLD-実線
 62
   179
370
    25
100
AcDbLine
 10
233.6910784989
 20
632.1720398173
 30
0.0
 11
233.6910784989
 21
632.0363200411
 31
0.0
  0
LINE
  5
114
330
1B
100
AcDbEntity
 67
     1
  8
SLD-0_0
  6
SLD-実線
 62
   179
370
    25
100
AcDbLine
 10
235.3518725186
 20
632.1720398173
 30
0.0
 11
235.6577151268
 21
632.1720398173
 31
0.0
  0
LINE
  5
115
330
1B
100
AcDbEntity
 67
     1
  8
SLD-0_0
  6
SLD-実線
 62
   179
370
    25
100
AcDbLine
 10
233.6910784989
 20
632.1720398173
 30
0.0
 11
233.9969173818
 21
632.1720398173
 31
0.0
  0
LINE
  5
116
330
1B
100
AcDbEntity
 67
     1
  8
SLD-0_0
  6
SLD-実線
 62
   179
370
    25
100
AcDbLine
 10
235.1893977075
 20
632.6077646717
 30
0.0
 11
234.1593959181
 21
632.6077646717
 31
0.0
  0
LINE
  5
117
330
1B
100
AcDbEntity
 67
     1
  8
SLD-0_0
  6
SLD-実線
 62
   179
370
    25
100
AcDbLine
 10
235.4779251664
 20
631.9536185965
 30
0.0
 11
235.4262665658
 21
632.0637381777
 31
0.0
  0
LINE
  5
118
330
1B
100
AcDbEntity
 67
     1
  8
SLD-0_0
  6
SLD-実線
 62
   179
370
    25
100
AcDbLine
 10
235.4262665658
 20
632.0637381777
 30
0.0
 11
235.3518725186
 21
632.1720398173
 31
0.0
  0
LINE
  5
119
330
1B
100
AcDbEntity
 67
     1
  8
SLD-0_0
  6
SLD-実線
 62
   179
370
    25
100
AcDbLine
 10
233.9969173818
 20
632.1720398173
 30
0.0
 11
233.9225270598
 21
632.0637381777
 31
0.0
  0
LINE
  5
11A
330
1B
100
AcDbEntity
 67
     1
  8
SLD-0_0
  6
SLD-実線
 62
   179
370
    25
100
AcDbLine
 10
233.9225270598
 20
632.0637381777
 30
0.0
 11
233.8708647339
 21
631.9536185965
 31
0.0
  0
LINE
  5
11B
330
1B
100
AcDbEntity
 67
     1
  8
SLD-0_0
  6
SLD-実線
 62
   179
370
    25
100
AcDbLine
 10
234.159395918
 20
547.0461762651
 30
0.0
 11
234.159395918
 21
545.9144032701
 31
0.0
  0
LINE
  5
11C
330
1B
100
AcDbEntity
 67
     1
  8
SLD-0_0
  6
SLD-実線
 62
   179
370
    25
100
AcDbLine
 10
235.1893977075
 20
545.9144032701
 30
0.0
 11
235.1893977075
 21
547.0461762651
 31
0.0
  0
LINE
  5
11D
330
1B
100
AcDbEntity
 67
     1
  8
SLD-0_0
  6
SLD-実線
 62
   179
370
    25
100
AcDbLine
 10
235.1893977075
 20
548.6610300049
 30
0.0
 11
235.1893977075
 21
549.6073282465
 31
0.0
  0
LINE
  5
11E
330
1B
100
AcDbEntity
 67
     1
  8
SLD-0_0
  6
SLD-実線
 62
   179
370
    25
100
AcDbLine
 10
234.1593959182
 20
549.6073282465
 30
0.0
 11
234.1593959182
 21
548.6610300049
 31
0.0
  0
LINE
  5
11F
330
1B
100
AcDbEntity
 67
     1
  8
SLD-0_0
  6
SLD-実線
 62
   179
370
    25
100
AcDbLine
 10
234.1593959181
 20
546.1099661097
 30
0.0
 11
235.1893977075
 21
546.1099661097
 31
0.0
  0
LINE
  5
120
330
1B
100
AcDbEntity
 67
     1
  8
SLD-0_0
  6
SLD-実線
 62
   179
370
    25
100
AcDbLine
 10
238.6743956058
 20
547.3124600157
 30
0.0
 11
238.4966880827
 21
548.4094387993
 31
0.0
  0
LINE
  5
121
330
1B
100
AcDbEntity
 67
     1
  8
SLD-0_0
  6
SLD-実線
 62
   179
370
    25
100
AcDbLine
 10
238.4966880827
 20
548.4094387993
 30
0.0
 11
237.9793495684
 21
549.4089490875
 31
0.0
  0
LINE
  5
122
330
1B
100
AcDbEntity
 67
     1
  8
SLD-0_0
  6
SLD-実線
 62
   179
370
    25
100
AcDbLine
 10
237.9793495684
 20
549.4089490875
 30
0.0
 11
237.1683538704
 21
550.2221799597
 31
0.0
  0
LINE
  5
123
330
1B
100
AcDbEntity
 67
     1
  8
SLD-0_0
  6
SLD-実線
 62
   179
370
    25
100
AcDbLine
 10
237.1683538704
 20
550.2221799597
 30
0.0
 11
236.135759279
 21
550.776860784
 31
0.0
  0
LINE
  5
124
330
1B
100
AcDbEntity
 67
     1
  8
SLD-0_0
  6
SLD-実線
 62
   179
370
    25
100
AcDbLine
 10
236.135759279
 20
550.776860784
 30
0.0
 11
234.973315969
 21
551.0237283215
 31
0.0
  0
LINE
  5
125
330
1B
100
AcDbEntity
 67
     1
  8
SLD-0_0
  6
SLD-実線
 62
   179
370
    25
100
AcDbLine
 10
234.973315969
 20
551.0237283215
 30
0.0
 11
233.7843113392
 21
550.9408182606
 31
0.0
  0
LINE
  5
126
330
1B
100
AcDbEntity
 67
     1
  8
SLD-0_0
  6
SLD-実線
 62
   179
370
    25
100
AcDbLine
 10
233.7843113392
 20
550.9408182606
 30
0.0
 11
232.6743946223
 21
550.5355215773
 31
0.0
  0
LINE
  5
127
330
1B
100
AcDbEntity
 67
     1
  8
SLD-0_0
  6
SLD-実線
 62
   179
370
    25
100
AcDbLine
 10
232.6743946223
 20
550.5355215773
 30
0.0
 11
231.7421891539
 21
549.843839477
 31
0.0
  0
LINE
  5
128
330
1B
100
AcDbEntity
 67
     1
  8
SLD-0_0
  6
SLD-実線
 62
   179
370
    25
100
AcDbLine
 10
231.7421891539
 20
549.843839477
 30
0.0
 11
231.0705193131
 21
548.9272392496
 31
0.0
  0
LINE
  5
129
330
1B
100
AcDbEntity
 67
     1
  8
SLD-0_0
  6
SLD-実線
 62
   179
370
    25
100
AcDbLine
 10
231.0705193131
 20
548.9272392496
 30
0.0
 11
230.7190717011
 21
547.86714084
 31
0.0
  0
LINE
  5
12A
330
1B
100
AcDbEntity
 67
     1
  8
SLD-0_0
  6
SLD-実線
 62
   179
370
    25
100
AcDbLine
 10
230.7190717011
 20
547.86714084
 30
0.0
 11
230.7190717011
 21
546.7577791914
 31
0.0
  0
LINE
  5
12B
330
1B
100
AcDbEntity
 67
     1
  8
SLD-0_0
  6
SLD-実線
 62
   179
370
    25
100
AcDbLine
 10
230.7190717011
 20
546.7577791914
 30
0.0
 11
231.0705193131
 21
545.6976807818
 31
0.0
  0
LINE
  5
12C
330
1B
100
AcDbEntity
 67
     1
  8
SLD-0_0
  6
SLD-実線
 62
   179
370
    25
100
AcDbLine
 10
231.0705193131
 20
545.6976807818
 30
0.0
 11
231.7421891539
 21
544.7810805544
 31
0.0
  0
LINE
  5
12D
330
1B
100
AcDbEntity
 67
     1
  8
SLD-0_0
  6
SLD-実線
 62
   179
370
    25
100
AcDbLine
 10
231.7421891539
 20
544.7810805544
 30
0.0
 11
232.6743946223
 21
544.0893984541
 31
0.0
  0
LINE
  5
12E
330
1B
100
AcDbEntity
 67
     1
  8
SLD-0_0
  6
SLD-実線
 62
   179
370
    25
100
AcDbLine
 10
232.6743946223
 20
544.0893984541
 30
0.0
 11
233.7843113392
 21
543.6841017708
 31
0.0
  0
LINE
  5
12F
330
1B
100
AcDbEntity
 67
     1
  8
SLD-0_0
  6
SLD-実線
 62
   179
370
    25
100
AcDbLine
 10
233.7843113392
 20
543.6841017708
 30
0.0
 11
234.973315969
 21
543.6011917099
 31
0.0
  0
LINE
  5
130
330
1B
100
AcDbEntity
 67
     1
  8
SLD-0_0
  6
SLD-実線
 62
   179
370
    25
100
AcDbLine
 10
234.973315969
 20
543.6011917099
 30
0.0
 11
236.135759279
 21
543.8480592474
 31
0.0
  0
LINE
  5
131
330
1B
100
AcDbEntity
 67
     1
  8
SLD-0_0
  6
SLD-実線
 62
   179
370
    25
100
AcDbLine
 10
236.135759279
 20
543.8480592474
 30
0.0
 11
237.1683538704
 21
544.4027400717
 31
0.0
  0
LINE
  5
132
330
1B
100
AcDbEntity
 67
     1
  8
SLD-0_0
  6
SLD-実線
 62
   179
370
    25
100
AcDbLine
 10
237.1683538704
 20
544.4027400717
 30
0.0
 11
237.9793495684
 21
545.2159709439
 31
0.0
  0
LINE
  5
133
330
1B
100
AcDbEntity
 67
     1
  8
SLD-0_0
  6
SLD-実線
 62
   179
370
    25
100
AcDbLine
 10
237.9793495684
 20
545.2159709439
 30
0.0
 11
238.4966880827
 21
546.2154812321
 31
0.0
  0
LINE
  5
134
330
1B
100
AcDbEntity
 67
     1
  8
SLD-0_0
  6
SLD-実線
 62
   179
370
    25
100
AcDbLine
 10
238.4966880827
 20
546.2154812321
 30
0.0
 11
238.6743956058
 21
547.3124600157
 31
0.0
  0
LINE
  5
135
330
1B
100
AcDbEntity
 67
     1
  8
SLD-0_0
  6
SLD-実線
 62
   179
370
    25
100
AcDbLine
 10
235.6577151268
 20
547.3683244689
 30
0.0
 11
235.6577151268
 21
547.5040293439
 31
0.0
  0
LINE
  5
136
330
1B
100
AcDbEntity
 67
     1
  8
SLD-0_0
  6
SLD-実線
 62
   179
370
    25
100
AcDbLine
 10
236.6589502244
 20
548.2400274976
 30
0.0
 11
235.6577151268
 21
547.5040293439
 31
0.0
  0
LINE
  5
137
330
1B
100
AcDbEntity
 67
     1
  8
SLD-0_0
  6
SLD-実線
 62
   179
370
    25
100
AcDbLine
 10
232.689839676
 20
548.2400274977
 30
0.0
 11
233.6910784989
 21
547.504029344
 31
0.0
  0
LINE
  5
138
330
1B
100
AcDbEntity
 67
     1
  8
SLD-0_0
  6
SLD-実線
 62
   179
370
    25
100
AcDbLine
 10
233.6910784989
 20
547.504029344
 30
0.0
 11
233.6910784989
 21
547.368324469
 31
0.0
  0
LINE
  5
139
330
1B
100
AcDbEntity
 67
     1
  8
SLD-0_0
  6
SLD-実線
 62
   179
370
    25
100
AcDbLine
 10
235.3518725186
 20
547.5040293439
 30
0.0
 11
235.6577151268
 21
547.5040293439
 31
0.0
  0
LINE
  5
13A
330
1B
100
AcDbEntity
 67
     1
  8
SLD-0_0
  6
SLD-実線
 62
   179
370
    25
100
AcDbLine
 10
233.6910784989
 20
547.504029344
 30
0.0
 11
233.9969173818
 21
547.504029344
 31
0.0
  0
LINE
  5
13B
330
1B
100
AcDbEntity
 67
     1
  8
SLD-0_0
  6
SLD-実線
 62
   179
370
    25
100
AcDbLine
 10
235.1893977075
 20
547.9397690996
 30
0.0
 11
234.1593959181
 21
547.9397690996
 31
0.0
  0
LINE
  5
13C
330
1B
100
AcDbEntity
 67
     1
  8
SLD-0_0
  6
SLD-実線
 62
   179
370
    25
100
AcDbLine
 10
235.4779251664
 20
547.2856230243
 30
0.0
 11
235.4262665658
 21
547.3957426055
 31
0.0
  0
LINE
  5
13D
330
1B
100
AcDbEntity
 67
     1
  8
SLD-0_0
  6
SLD-実線
 62
   179
370
    25
100
AcDbLine
 10
235.4262665658
 20
547.3957426055
 30
0.0
 11
235.3518725186
 21
547.5040293439
 31
0.0
  0
LINE
  5
13E
330
1B
100
AcDbEntity
 67
     1
  8
SLD-0_0
  6
SLD-実線
 62
   179
370
    25
100
AcDbLine
 10
233.9969173818
 20
547.504029344
 30
0.0
 11
233.9225270598
 21
547.3957426056
 31
0.0
  0
LINE
  5
13F
330
1B
100
AcDbEntity
 67
     1
  8
SLD-0_0
  6
SLD-実線
 62
   179
370
    25
100
AcDbLine
 10
233.9225270598
 20
547.3957426056
 30
0.0
 11
233.8708647339
 21
547.2856230244
 31
0.0
  0
LINE
  5
140
330
1B
100
AcDbEntity
 67
     1
  8
SLD-0_0
  6
SLD-実線
 62
   179
370
    25
100
AcDbLine
 10
176.1593957244
 20
547.0461762652
 30
0.0
 11
176.1593957244
 21
545.9144032702
 31
0.0
  0
LINE
  5
141
330
1B
100
AcDbEntity
 67
     1
  8
SLD-0_0
  6
SLD-実線
 62
   179
370
    25
100
AcDbLine
 10
177.1893956512
 20
545.9144032702
 30
0.0
 11
177.1893956512
 21
547.0461762652
 31
0.0
  0
LINE
  5
142
330
1B
100
AcDbEntity
 67
     1
  8
SLD-0_0
  6
SLD-実線
 62
   179
370
    25
100
AcDbLine
 10
177.1893956511
 20
548.6610300049
 30
0.0
 11
177.1893956511
 21
549.6073282465
 31
0.0
  0
LINE
  5
143
330
1B
100
AcDbEntity
 67
     1
  8
SLD-0_0
  6
SLD-実線
 62
   179
370
    25
100
AcDbLine
 10
176.1593957244
 20
549.6073282465
 30
0.0
 11
176.1593957244
 21
548.6610300049
 31
0.0
  0
LINE
  5
144
330
1B
100
AcDbEntity
 67
     1
  8
SLD-0_0
  6
SLD-実線
 62
   179
370
    25
100
AcDbLine
 10
176.1593957244
 20
546.1099661097
 30
0.0
 11
177.1893956511
 21
546.1099661097
 31
0.0
  0
LINE
  5
145
330
1B
100
AcDbEntity
 67
     1
  8
SLD-0_0
  6
SLD-実線
 62
   179
370
    25
100
AcDbLine
 10
180.6743963434
 20
547.3124600157
 30
0.0
 11
180.4966869577
 21
548.4094387993
 31
0.0
  0
LINE
  5
146
330
1B
100
AcDbEntity
 67
     1
  8
SLD-0_0
  6
SLD-実線
 62
   179
370
    25
100
AcDbLine
 10
180.4966869577
 20
548.4094387993
 30
0.0
 11
179.9793512373
 21
549.4089490875
 31
0.0
  0
LINE
  5
147
330
1B
100
AcDbEntity
 67
     1
  8
SLD-0_0
  6
SLD-実線
 62
   179
370
    25
100
AcDbLine
 10
179.9793512373
 20
549.4089490875
 30
0.0
 11
179.1683555393
 21
550.2221799597
 31
0.0
  0
LINE
  5
148
330
1B
100
AcDbEntity
 67
     1
  8
SLD-0_0
  6
SLD-実線
 62
   179
370
    25
100
AcDbLine
 10
179.1683555393
 20
550.2221799597
 30
0.0
 11
178.135760948
 21
550.776860784
 31
0.0
  0
LINE
  5
149
330
1B
100
AcDbEntity
 67
     1
  8
SLD-0_0
  6
SLD-実線
 62
   179
370
    25
100
AcDbLine
 10
178.135760948
 20
550.776860784
 30
0.0
 11
176.9733157753
 21
551.0237283215
 31
0.0
  0
LINE
  5
14A
330
1B
100
AcDbEntity
 67
     1
  8
SLD-0_0
  6
SLD-実線
 62
   179
370
    25
100
AcDbLine
 10
176.9733157753
 20
551.0237283215
 30
0.0
 11
175.7843130081
 21
550.9408182606
 31
0.0
  0
LINE
  5
14B
330
1B
100
AcDbEntity
 67
     1
  8
SLD-0_0
  6
SLD-実線
 62
   179
370
    25
100
AcDbLine
 10
175.7843130081
 20
550.9408182606
 30
0.0
 11
174.6743962913
 21
550.5355215773
 31
0.0
  0
LINE
  5
14C
330
1B
100
AcDbEntity
 67
     1
  8
SLD-0_0
  6
SLD-実線
 62
   179
370
    25
100
AcDbLine
 10
174.6743962913
 20
550.5355215773
 30
0.0
 11
173.7421889602
 21
549.843839477
 31
0.0
  0
LINE
  5
14D
330
1B
100
AcDbEntity
 67
     1
  8
SLD-0_0
  6
SLD-実線
 62
   179
370
    25
100
AcDbLine
 10
173.7421889602
 20
549.843839477
 30
0.0
 11
173.070520982
 21
548.9272392496
 31
0.0
  0
LINE
  5
14E
330
1B
100
AcDbEntity
 67
     1
  8
SLD-0_0
  6
SLD-実線
 62
   179
370
    25
100
AcDbLine
 10
173.070520982
 20
548.9272392496
 30
0.0
 11
172.71907337
 21
547.86714084
 31
0.0
  0
LINE
  5
14F
330
1B
100
AcDbEntity
 67
     1
  8
SLD-0_0
  6
SLD-実線
 62
   179
370
    25
100
AcDbLine
 10
172.71907337
 20
547.86714084
 30
0.0
 11
172.71907337
 21
546.7577791914
 31
0.0
  0
LINE
  5
150
330
1B
100
AcDbEntity
 67
     1
  8
SLD-0_0
  6
SLD-実線
 62
   179
370
    25
100
AcDbLine
 10
172.71907337
 20
546.7577791914
 30
0.0
 11
173.070520982
 21
545.6976807818
 31
0.0
  0
LINE
  5
151
330
1B
100
AcDbEntity
 67
     1
  8
SLD-0_0
  6
SLD-実線
 62
   179
370
    25
100
AcDbLine
 10
173.070520982
 20
545.6976807818
 30
0.0
 11
173.7421889602
 21
544.7810805544
 31
0.0
  0
LINE
  5
152
330
1B
100
AcDbEntity
 67
     1
  8
SLD-0_0
  6
SLD-実線
 62
   179
370
    25
100
AcDbLine
 10
173.7421889602
 20
544.7810805544
 30
0.0
 11
174.6743962913
 21
544.0893984541
 31
0.0
  0
LINE
  5
153
330
1B
100
AcDbEntity
 67
     1
  8
SLD-0_0
  6
SLD-実線
 62
   179
370
    25
100
AcDbLine
 10
174.6743962913
 20
544.0893984541
 30
0.0
 11
175.7843130081
 21
543.6841017708
 31
0.0
  0
LINE
  5
154
330
1B
100
AcDbEntity
 67
     1
  8
SLD-0_0
  6
SLD-実線
 62
   179
370
    25
100
AcDbLine
 10
175.7843130081
 20
543.6841017708
 30
0.0
 11
176.9733157753
 21
543.6011917099
 31
0.0
  0
LINE
  5
155
330
1B
100
AcDbEntity
 67
     1
  8
SLD-0_0
  6
SLD-実線
 62
   179
370
    25
100
AcDbLine
 10
176.9733157753
 20
543.6011917099
 30
0.0
 11
178.135760948
 21
543.8480592474
 31
0.0
  0
LINE
  5
156
330
1B
100
AcDbEntity
 67
     1
  8
SLD-0_0
  6
SLD-実線
 62
   179
370
    25
100
AcDbLine
 10
178.135760948
 20
543.8480592474
 30
0.0
 11
179.1683555393
 21
544.4027400717
 31
0.0
  0
LINE
  5
157
330
1B
100
AcDbEntity
 67
     1
  8
SLD-0_0
  6
SLD-実線
 62
   179
370
    25
100
AcDbLine
 10
179.1683555393
 20
544.4027400717
 30
0.0
 11
179.9793512373
 21
545.2159709439
 31
0.0
  0
LINE
  5
158
330
1B
100
AcDbEntity
 67
     1
  8
SLD-0_0
  6
SLD-実線
 62
   179
370
    25
100
AcDbLine
 10
179.9793512373
 20
545.2159709439
 30
0.0
 11
180.4966869577
 21
546.2154812321
 31
0.0
  0
LINE
  5
159
330
1B
100
AcDbEntity
 67
     1
  8
SLD-0_0
  6
SLD-実線
 62
   179
370
    25
100
AcDbLine
 10
180.4966869577
 20
546.2154812321
 30
0.0
 11
180.6743963434
 21
547.3124600157
 31
0.0
  0
LINE
  5
15A
330
1B
100
AcDbEntity
 67
     1
  8
SLD-0_0
  6
SLD-実線
 62
   179
370
    25
100
AcDbLine
 10
177.6577149331
 20
547.368324469
 30
0.0
 11
177.6577149331
 21
547.504029344
 31
0.0
  0
LINE
  5
15B
330
1B
100
AcDbEntity
 67
     1
  8
SLD-0_0
  6
SLD-実線
 62
   179
370
    25
100
AcDbLine
 10
178.6589518934
 20
548.2400274977
 30
0.0
 11
177.6577149331
 21
547.504029344
 31
0.0
  0
LINE
  5
15C
330
1B
100
AcDbEntity
 67
     1
  8
SLD-0_0
  6
SLD-実線
 62
   179
370
    25
100
AcDbLine
 10
174.6898413449
 20
548.2400274977
 30
0.0
 11
175.6910764425
 21
547.504029344
 31
0.0
  0
LINE
  5
15D
330
1B
100
AcDbEntity
 67
     1
  8
SLD-0_0
  6
SLD-実線
 62
   179
370
    25
100
AcDbLine
 10
175.6910764425
 20
547.504029344
 30
0.0
 11
175.6910764425
 21
547.368324469
 31
0.0
  0
LINE
  5
15E
330
1B
100
AcDbEntity
 67
     1
  8
SLD-0_0
  6
SLD-実線
 62
   179
370
    25
100
AcDbLine
 10
177.3518741875
 20
547.504029344
 30
0.0
 11
177.6577149331
 21
547.504029344
 31
0.0
  0
LINE
  5
15F
330
1B
100
AcDbEntity
 67
     1
  8
SLD-0_0
  6
SLD-実線
 62
   179
370
    25
100
AcDbLine
 10
175.6910764425
 20
547.504029344
 30
0.0
 11
175.9969190507
 21
547.504029344
 31
0.0
  0
LINE
  5
160
330
1B
100
AcDbEntity
 67
     1
  8
SLD-0_0
  6
SLD-実線
 62
   179
370
    25
100
AcDbLine
 10
177.1893956511
 20
547.9397690996
 30
0.0
 11
176.1593957244
 21
547.9397690996
 31
0.0
  0
LINE
  5
161
330
1B
100
AcDbEntity
 67
     1
  8
SLD-0_0
  6
SLD-実線
 62
   179
370
    25
100
AcDbLine
 10
177.4779268353
 20
547.2856230244
 30
0.0
 11
177.4262663721
 21
547.3957426056
 31
0.0
  0
LINE
  5
162
330
1B
100
AcDbEntity
 67
     1
  8
SLD-0_0
  6
SLD-実線
 62
   179
370
    25
100
AcDbLine
 10
177.4262663721
 20
547.3957426056
 30
0.0
 11
177.3518741875
 21
547.504029344
 31
0.0
  0
LINE
  5
163
330
1B
100
AcDbEntity
 67
     1
  8
SLD-0_0
  6
SLD-実線
 62
   179
370
    25
100
AcDbLine
 10
175.9969190507
 20
547.504029344
 30
0.0
 11
175.9225268661
 21
547.3957426056
 31
0.0
  0
LINE
  5
164
330
1B
100
AcDbEntity
 67
     1
  8
SLD-0_0
  6
SLD-実線
 62
   179
370
    25
100
AcDbLine
 10
175.9225268661
 20
547.3957426056
 30
0.0
 11
175.8708664029
 21
547.2856230244
 31
0.0
  0
LINE
  5
165
330
1B
100
AcDbEntity
 67
     1
  8
SLD-0_0
  6
SLD-実線
 62
   179
370
    25
100
AcDbLine
 10
231.8743959813
 20
624.2903388247
 30
0.0
 11
231.8743959813
 21
556.5554714903
 31
0.0
  0
LINE
  5
166
330
1B
100
AcDbEntity
 67
     1
  8
SLD-0_0
  6
SLD-実線
 62
   179
370
    25
100
AcDbLine
 10
180.4743957518
 20
556.5554714903
 30
0.0
 11
180.4743957518
 21
624.2903388247
 31
0.0
  0
LINE
  5
167
330
1B
100
AcDbEntity
 67
     1
  8
SLD-0_0
  6
SLD-実線
 62
   179
370
    25
100
AcDbLine
 10
231.8286829441
 20
554.6728736862
 30
0.0
 11
231.8743959813
 21
555.3005105957
 31
0.0
  0
LINE
  5
168
330
1B
100
AcDbEntity
 67
     1
  8
SLD-0_0
  6
SLD-実線
 62
   179
370
    25
100
AcDbLine
 10
231.8743959813
 20
556.5554714903
 30
0.0
 11
231.8743959813
 21
555.3005105957
 31
0.0
  0
LINE
  5
169
330
1B
100
AcDbEntity
 67
     1
  8
SLD-0_0
  6
SLD-実線
 62
   179
370
    25
100
AcDbLine
 10
180.4743957518
 20
555.3005105957
 30
0.0
 11
180.5704700573
 21
554.3929255709
 31
0.0
  0
LINE
  5
16A
330
1B
100
AcDbEntity
 67
     1
  8
SLD-0_0
  6
SLD-実線
 62
   179
370
    25
100
AcDbLine
 10
180.5704700573
 20
554.3929255709
 30
0.0
 11
180.6611017137
 21
554.0411091551
 31
0.0
  0
LINE
  5
16B
330
1B
100
AcDbEntity
 67
     1
  8
SLD-0_0
  6
SLD-実線
 62
   179
370
    25
100
AcDbLine
 10
180.4743957518
 20
555.3005105957
 30
0.0
 11
180.4743957518
 21
556.5554714903
 31
0.0
  0
LINE
  5
16C
330
1B
100
AcDbEntity
 67
     1
  8
SLD-0_0
  6
SLD-実線
 62
   179
370
    25
100
AcDbLine
 10
241.3743966072
 20
546.1232728466
 30
0.0
 11
241.2648730724
 21
545.0886405214
 31
0.0
  0
LINE
  5
16D
330
1B
100
AcDbEntity
 67
     1
  8
SLD-0_0
  6
SLD-実線
 62
   179
370
    25
100
AcDbLine
 10
241.2648730724
 20
545.0886405214
 30
0.0
 11
241.2233472614
 21
544.9104673371
 31
0.0
  0
LINE
  5
16E
330
1B
100
AcDbEntity
 67
     1
  8
SLD-0_0
  6
SLD-実線
 62
   179
370
    25
100
AcDbLine
 10
241.3743966072
 20
546.1232728466
 30
0.0
 11
241.3743966072
 21
544.5473260388
 31
0.0
  0
LINE
  5
16F
330
1B
100
AcDbEntity
 67
     1
  8
SLD-0_0
  6
SLD-実線
 62
   179
370
    25
100
AcDbLine
 10
235.6743969767
 20
539.2439431652
 30
0.0
 11
176.6743966191
 21
539.2439431652
 31
0.0
  0
LINE
  5
170
330
1B
100
AcDbEntity
 67
     1
  8
SLD-0_0
  6
SLD-実線
 62
   179
370
    25
100
AcDbLine
 10
170.9743969886
 20
544.5473260388
 30
0.0
 11
170.9743969886
 21
546.1232728466
 31
0.0
  0
LINE
  5
171
330
1B
100
AcDbEntity
 67
     1
  8
SLD-0_0
  6
SLD-実線
 62
   179
370
    25
100
AcDbLine
 10
241.3743966072
 20
631.7216969236
 30
0.0
 11
241.3743966072
 21
546.1232728466
 31
0.0
  0
LINE
  5
172
330
1B
100
AcDbEntity
 67
     1
  8
SLD-0_0
  6
SLD-実線
 62
   179
370
    25
100
AcDbLine
 10
170.9743969886
 20
546.1232728466
 30
0.0
 11
170.9743969886
 21
631.7216969237
 31
0.0
  0
LINE
  5
173
330
1B
100
AcDbEntity
 67
     1
  8
SLD-0_0
  6
SLD-実線
 62
   179
370
    25
100
AcDbLine
 10
170.9743969886
 20
631.7216969237
 30
0.0
 11
171.0839205234
 21
632.7563292488
 31
0.0
  0
LINE
  5
174
330
1B
100
AcDbEntity
 67
     1
  8
SLD-0_0
  6
SLD-実線
 62
   179
370
    25
100
AcDbLine
 10
171.0839205234
 20
632.7563292488
 30
0.0
 11
171.1254463344
 21
632.9345024332
 31
0.0
  0
LINE
  5
175
330
1B
100
AcDbEntity
 67
     1
  8
SLD-0_0
  6
SLD-実線
 62
   179
370
    25
100
AcDbLine
 10
145.6087202578
 20
291.2261477813
 30
0.0
 11
145.6087202578
 21
292.5261474356
 31
0.0
  0
LINE
  5
176
330
1B
100
AcDbEntity
 67
     1
  8
SLD-0_0
  6
SLD-実線
 62
   179
370
    25
100
AcDbLine
 10
154.8087195306
 20
291.2261477813
 30
0.0
 11
145.6087202578
 21
291.2261477813
 31
0.0
  0
LINE
  5
177
330
1B
100
AcDbEntity
 67
     1
  8
SLD-0_0
  6
SLD-実線
 62
   179
370
    25
100
AcDbLine
 10
257.0819415896
 20
291.2261477813
 30
0.0
 11
257.0819415896
 21
292.5261474356
 31
0.0
  0
LINE
  5
178
330
1B
100
AcDbEntity
 67
     1
  8
SLD-0_0
  6
SLD-実線
 62
   179
370
    25
100
AcDbLine
 10
265.7254569976
 20
292.5261474356
 30
0.0
 11
265.146427676
 21
292.5261474356
 31
0.0
  0
LINE
  5
179
330
1B
100
AcDbEntity
 67
     1
  8
SLD-0_0
  6
SLD-実線
 62
   179
370
    25
100
AcDbLine
 10
256.7930676787
 20
291.2261477813
 30
0.0
 11
256.7930676787
 21
292.5261474356
 31
0.0
  0
LINE
  5
17A
330
1B
100
AcDbEntity
 67
     1
  8
SLD-0_0
  6
SLD-実線
 62
   179
370
    25
100
AcDbLine
 10
256.7930676787
 20
291.2261477813
 30
0.0
 11
256.5400720387
 21
291.2261477813
 31
0.0
  0
LINE
  5
17B
330
1B
100
AcDbEntity
 67
     1
  8
SLD-0_0
  6
SLD-実線
 62
   179
370
    25
100
AcDbLine
 10
265.7400750368
 20
291.2261477813
 30
0.0
 11
257.0819415896
 21
291.2261477813
 31
0.0
  0
LINE
  5
17C
330
1B
100
AcDbEntity
 67
     1
  8
SLD-0_0
  6
SLD-実線
 62
   179
370
    25
100
AcDbLine
 10
257.0819415896
 20
291.2261477813
 30
0.0
 11
256.7930676787
 21
291.2261477813
 31
0.0
  0
LINE
  5
17D
330
1B
100
AcDbEntity
 67
     1
  8
SLD-0_0
  6
SLD-実線
 62
   179
370
    25
100
AcDbLine
 10
191.016837377
 20
291.2261477813
 30
0.0
 11
191.016837377
 21
292.5261474356
 31
0.0
  0
LINE
  5
17E
330
1B
100
AcDbEntity
 67
     1
  8
SLD-0_0
  6
SLD-実線
 62
   179
370
    25
100
AcDbLine
 10
188.3504133484
 20
292.5261474356
 30
0.0
 11
186.4565032347
 21
292.5261474356
 31
0.0
  0
LINE
  5
17F
330
1B
100
AcDbEntity
 67
     1
  8
SLD-0_0
  6
SLD-実線
 62
   179
370
    25
100
AcDbLine
 10
190.3653297386
 20
291.2261477813
 30
0.0
 11
190.3653297386
 21
292.5261474356
 31
0.0
  0
LINE
  5
180
330
1B
100
AcDbEntity
 67
     1
  8
SLD-0_0
  6
SLD-実線
 62
   179
370
    25
100
AcDbLine
 10
190.3653297386
 20
291.2261477813
 30
0.0
 11
184.1168374567
 21
291.2261477813
 31
0.0
  0
LINE
  5
181
330
1B
100
AcDbEntity
 67
     1
  8
SLD-0_0
  6
SLD-実線
 62
   179
370
    25
100
AcDbLine
 10
193.3168371952
 20
291.2261477813
 30
0.0
 11
191.016837377
 21
291.2261477813
 31
0.0
  0
LINE
  5
182
330
1B
100
AcDbEntity
 67
     1
  8
SLD-0_0
  6
SLD-実線
 62
   179
370
    25
100
AcDbLine
 10
190.716837421
 20
291.2261477813
 30
0.0
 11
191.016837377
 21
291.2261477813
 31
0.0
  0
LINE
  5
183
330
1B
100
AcDbEntity
 67
     1
  8
SLD-0_0
  6
SLD-実線
 62
   179
370
    25
100
AcDbLine
 10
222.7852036058
 20
291.2261477813
 30
0.0
 11
222.7852036058
 21
292.5261474356
 31
0.0
  0
LINE
  5
184
330
1B
100
AcDbEntity
 67
     1
  8
SLD-0_0
  6
SLD-実線
 62
   179
370
    25
100
AcDbLine
 10
222.0641177892
 20
291.2261477813
 30
0.0
 11
222.0641177892
 21
292.5261474356
 31
0.0
  0
LINE
  5
185
330
1B
100
AcDbEntity
 67
     1
  8
SLD-0_0
  6
SLD-実線
 62
   179
370
    25
100
AcDbLine
 10
222.0641177892
 20
291.2261477813
 30
0.0
 11
218.0319548397
 21
291.2261477813
 31
0.0
  0
LINE
  5
186
330
1B
100
AcDbEntity
 67
     1
  8
SLD-0_0
  6
SLD-実線
 62
   179
370
    25
100
AcDbLine
 10
227.2319541125
 20
291.2261477813
 30
0.0
 11
222.7852036058
 21
291.2261477813
 31
0.0
  0
LINE
  5
187
330
1B
100
AcDbEntity
 67
     1
  8
SLD-0_0
  6
SLD-実線
 62
   179
370
    25
100
AcDbLine
 10
222.7169078587
 20
292.5261474356
 30
0.0
 11
222.7169078587
 21
291.2938586578
 31
0.0
  0
LINE
  5
188
330
1B
100
AcDbEntity
 67
     1
  8
SLD-0_0
  6
SLD-実線
 62
   179
370
    25
100
AcDbLine
 10
222.765213698
 20
291.2261477813
 30
0.0
 11
222.7852036058
 21
291.2261477813
 31
0.0
  0
LINE
  5
189
330
1B
100
AcDbEntity
 67
     1
  8
SLD-0_0
  6
SLD-実線
 62
   179
370
    25
100
AcDbLine
 10
222.3171748965
 20
292.5261474356
 30
0.0
 11
222.3171748965
 21
291.2938586578
 31
0.0
  0
LINE
  5
18A
330
1B
100
AcDbEntity
 67
     1
  8
SLD-0_0
  6
SLD-実線
 62
   179
370
    25
100
AcDbLine
 10
222.1381840109
 20
291.2261477813
 30
0.0
 11
222.0641177892
 21
291.2261477813
 31
0.0
  0
LINE
  5
18B
330
1B
100
AcDbEntity
 67
     1
  8
SLD-0_0
  6
SLD-実線
 62
   179
370
    25
100
AcDbLine
 10
150.2087198942
 20
290.726146768
 30
0.0
 11
152.5181204825
 21
290.726146768
 31
0.0
  0
LINE
  5
18C
330
1B
100
AcDbEntity
 67
     1
  8
SLD-0_0
  6
SLD-実線
 62
   179
370
    25
100
AcDbLine
 10
152.5181204825
 20
290.726146768
 30
0.0
 11
152.5181204825
 21
288.0834109291
 31
0.0
  0
LINE
  5
18D
330
1B
100
AcDbEntity
 67
     1
  8
SLD-0_0
  6
SLD-実線
 62
   179
370
    25
100
AcDbLine
 10
152.5181204825
 20
288.0834109291
 30
0.0
 11
150.2087198942
 21
287.7261481389
 31
0.0
  0
LINE
  5
18E
330
1B
100
AcDbEntity
 67
     1
  8
SLD-0_0
  6
SLD-実線
 62
   179
370
    25
100
AcDbLine
 10
147.8993193059
 20
290.726146768
 30
0.0
 11
147.8993193059
 21
288.0834109291
 31
0.0
  0
LINE
  5
18F
330
1B
100
AcDbEntity
 67
     1
  8
SLD-0_0
  6
SLD-実線
 62
   179
370
    25
100
AcDbLine
 10
147.8993193059
 20
290.726146768
 30
0.0
 11
150.2087198942
 21
290.726146768
 31
0.0
  0
LINE
  5
190
330
1B
100
AcDbEntity
 67
     1
  8
SLD-0_0
  6
SLD-実線
 62
   179
370
    25
100
AcDbLine
 10
150.2087198942
 20
287.7261481389
 30
0.0
 11
153.6728226392
 21
287.7261481389
 31
0.0
  0
LINE
  5
191
330
1B
100
AcDbEntity
 67
     1
  8
SLD-0_0
  6
SLD-実線
 62
   179
370
    25
100
AcDbLine
 10
147.8993193059
 20
288.0834109291
 30
0.0
 11
146.7446171491
 21
287.7261481389
 31
0.0
  0
LINE
  5
192
330
1B
100
AcDbEntity
 67
     1
  8
SLD-0_0
  6
SLD-実線
 62
   179
370
    25
100
AcDbLine
 10
146.7446171491
 20
287.7261481389
 30
0.0
 11
150.2087198942
 21
287.7261481389
 31
0.0
  0
LINE
  5
193
330
1B
100
AcDbEntity
 67
     1
  8
SLD-0_0
  6
SLD-実線
 62
   179
370
    25
100
AcDbLine
 10
153.6728226392
 20
290.726146768
 30
0.0
 11
154.8275210707
 21
290.726146768
 31
0.0
  0
LINE
  5
194
330
1B
100
AcDbEntity
 67
     1
  8
SLD-0_0
  6
SLD-実線
 62
   179
370
    25
100
AcDbLine
 10
154.8275210707
 20
290.726146768
 30
0.0
 11
154.8275210707
 21
288.0834109291
 31
0.0
  0
LINE
  5
195
330
1B
100
AcDbEntity
 67
     1
  8
SLD-0_0
  6
SLD-実線
 62
   179
370
    25
100
AcDbLine
 10
152.5181204825
 20
290.726146768
 30
0.0
 11
153.6728226392
 21
290.726146768
 31
0.0
  0
LINE
  5
196
330
1B
100
AcDbEntity
 67
     1
  8
SLD-0_0
  6
SLD-実線
 62
   179
370
    25
100
AcDbLine
 10
145.5899187176
 20
290.726146768
 30
0.0
 11
145.5899187176
 21
288.0834109291
 31
0.0
  0
LINE
  5
197
330
1B
100
AcDbEntity
 67
     1
  8
SLD-0_0
  6
SLD-実線
 62
   179
370
    25
100
AcDbLine
 10
145.5899187176
 20
290.726146768
 30
0.0
 11
146.7446171491
 21
290.726146768
 31
0.0
  0
LINE
  5
198
330
1B
100
AcDbEntity
 67
     1
  8
SLD-0_0
  6
SLD-実線
 62
   179
370
    25
100
AcDbLine
 10
146.7446171491
 20
290.726146768
 30
0.0
 11
147.8993193059
 21
290.726146768
 31
0.0
  0
LINE
  5
199
330
1B
100
AcDbEntity
 67
     1
  8
SLD-0_0
  6
SLD-実線
 62
   179
370
    25
100
AcDbLine
 10
146.2087192385
 20
287.7261481389
 30
0.0
 11
146.7446171491
 21
287.7261481389
 31
0.0
  0
LINE
  5
19A
330
1B
100
AcDbEntity
 67
     1
  8
SLD-0_0
  6
SLD-実線
 62
   179
370
    25
100
AcDbLine
 10
153.6728226392
 20
287.7261481389
 30
0.0
 11
154.2087205498
 21
287.7261481389
 31
0.0
  0
LINE
  5
19B
330
1B
100
AcDbEntity
 67
     1
  8
SLD-0_0
  6
SLD-実線
 62
   179
370
    25
100
AcDbLine
 10
259.0257757156
 20
290.726146768
 30
0.0
 11
260.986194834
 21
290.726146768
 31
0.0
  0
LINE
  5
19C
330
1B
100
AcDbEntity
 67
     1
  8
SLD-0_0
  6
SLD-実線
 62
   179
370
    25
100
AcDbLine
 10
260.986194834
 20
290.726146768
 30
0.0
 11
260.986194834
 21
288.0834109291
 31
0.0
  0
LINE
  5
19D
330
1B
100
AcDbEntity
 67
     1
  8
SLD-0_0
  6
SLD-実線
 62
   179
370
    25
100
AcDbLine
 10
260.986194834
 20
288.0834109291
 30
0.0
 11
259.0257757156
 21
287.7261481389
 31
0.0
  0
LINE
  5
19E
330
1B
100
AcDbEntity
 67
     1
  8
SLD-0_0
  6
SLD-実線
 62
   179
370
    25
100
AcDbLine
 10
257.0653565972
 20
290.726146768
 30
0.0
 11
257.0653565972
 21
288.0834109291
 31
0.0
  0
LINE
  5
19F
330
1B
100
AcDbEntity
 67
     1
  8
SLD-0_0
  6
SLD-実線
 62
   179
370
    25
100
AcDbLine
 10
257.0653565972
 20
290.726146768
 30
0.0
 11
259.0257757156
 21
290.726146768
 31
0.0
  0
LINE
  5
1A0
330
1B
100
AcDbEntity
 67
     1
  8
SLD-0_0
  6
SLD-実線
 62
   179
370
    25
100
AcDbLine
 10
259.0257757156
 20
287.7261481389
 30
0.0
 11
263.0235560982
 21
287.7261481389
 31
0.0
  0
LINE
  5
1A1
330
1B
100
AcDbEntity
 67
     1
  8
SLD-0_0
  6
SLD-実線
 62
   179
370
    25
100
AcDbLine
 10
263.0235560982
 20
290.726146768
 30
0.0
 11
265.0609173625
 21
290.726146768
 31
0.0
  0
LINE
  5
1A2
330
1B
100
AcDbEntity
 67
     1
  8
SLD-0_0
  6
SLD-実線
 62
   179
370
    25
100
AcDbLine
 10
265.0609173625
 20
290.726146768
 30
0.0
 11
265.0609173625
 21
288.0834109291
 31
0.0
  0
LINE
  5
1A3
330
1B
100
AcDbEntity
 67
     1
  8
SLD-0_0
  6
SLD-実線
 62
   179
370
    25
100
AcDbLine
 10
260.986194834
 20
290.726146768
 30
0.0
 11
263.0235560982
 21
290.726146768
 31
0.0
  0
LINE
  5
1A4
330
1B
100
AcDbEntity
 67
     1
  8
SLD-0_0
  6
SLD-実線
 62
   179
370
    25
100
AcDbLine
 10
257.0653565972
 20
288.0834109291
 30
0.0
 11
257.1422912924
 21
287.7261481389
 31
0.0
  0
LINE
  5
1A5
330
1B
100
AcDbEntity
 67
     1
  8
SLD-0_0
  6
SLD-実線
 62
   179
370
    25
100
AcDbLine
 10
257.1422912924
 20
287.7261481389
 30
0.0
 11
259.0257757156
 21
287.7261481389
 31
0.0
  0
LINE
  5
1A6
330
1B
100
AcDbEntity
 67
     1
  8
SLD-0_0
  6
SLD-実線
 62
   179
370
    25
100
AcDbLine
 10
263.0235560982
 20
287.7261481389
 30
0.0
 11
265.1378520577
 21
287.7261481389
 31
0.0
  0
LINE
  5
1A7
330
1B
100
AcDbEntity
 67
     1
  8
SLD-0_0
  6
SLD-実線
 62
   179
370
    25
100
AcDbLine
 10
263.1950684636
 20
303.2261422977
 30
0.0
 11
261.2480752914
 21
303.2261422977
 31
0.0
  0
LINE
  5
1A8
330
1B
100
AcDbEntity
 67
     1
  8
SLD-0_0
  6
SLD-実線
 62
   179
370
    25
100
AcDbLine
 10
265.1378520577
 20
290.726146768
 30
0.0
 11
265.214786753
 21
290.726146768
 31
0.0
  0
LINE
  5
1A9
330
1B
100
AcDbEntity
 67
     1
  8
SLD-0_0
  6
SLD-実線
 62
   179
370
    25
100
AcDbLine
 10
265.214786753
 20
290.726146768
 30
0.0
 11
265.214786753
 21
288.0834109291
 31
0.0
  0
LINE
  5
1AA
330
1B
100
AcDbEntity
 67
     1
  8
SLD-0_0
  6
SLD-実線
 62
   179
370
    25
100
AcDbLine
 10
265.214786753
 20
288.0834109291
 30
0.0
 11
265.1378520577
 21
287.7261481389
 31
0.0
  0
LINE
  5
1AB
330
1B
100
AcDbEntity
 67
     1
  8
SLD-0_0
  6
SLD-実線
 62
   179
370
    25
100
AcDbLine
 10
265.0609173625
 20
290.726146768
 30
0.0
 11
265.1378520577
 21
290.726146768
 31
0.0
  0
LINE
  5
1AC
330
1B
100
AcDbEntity
 67
     1
  8
SLD-0_0
  6
SLD-実線
 62
   179
370
    25
100
AcDbLine
 10
188.7168370931
 20
290.726146768
 30
0.0
 11
191.0262381471
 21
290.726146768
 31
0.0
  0
LINE
  5
1AD
330
1B
100
AcDbEntity
 67
     1
  8
SLD-0_0
  6
SLD-実線
 62
   179
370
    25
100
AcDbLine
 10
191.0262381471
 20
290.726146768
 30
0.0
 11
191.0262381471
 21
288.0834109291
 31
0.0
  0
LINE
  5
1AE
330
1B
100
AcDbEntity
 67
     1
  8
SLD-0_0
  6
SLD-実線
 62
   179
370
    25
100
AcDbLine
 10
191.0262381471
 20
288.0834109291
 30
0.0
 11
188.7168370932
 21
287.7261481389
 31
0.0
  0
LINE
  5
1AF
330
1B
100
AcDbEntity
 67
     1
  8
SLD-0_0
  6
SLD-実線
 62
   179
370
    25
100
AcDbLine
 10
186.4074365049
 20
290.726146768
 30
0.0
 11
186.4074365049
 21
288.0834109291
 31
0.0
  0
LINE
  5
1B0
330
1B
100
AcDbEntity
 67
     1
  8
SLD-0_0
  6
SLD-実線
 62
   179
370
    25
100
AcDbLine
 10
186.4074365049
 20
290.726146768
 30
0.0
 11
188.7168370931
 21
290.726146768
 31
0.0
  0
LINE
  5
1B1
330
1B
100
AcDbEntity
 67
     1
  8
SLD-0_0
  6
SLD-実線
 62
   179
370
    25
100
AcDbLine
 10
190.3653297386
 20
291.2261477813
 30
0.0
 11
190.716837421
 21
291.2261477813
 31
0.0
  0
LINE
  5
1B2
330
1B
100
AcDbEntity
 67
     1
  8
SLD-0_0
  6
SLD-実線
 62
   179
370
    25
100
AcDbLine
 10
185.2527352794
 20
287.7261481389
 30
0.0
 11
188.7168370932
 21
287.7261481389
 31
0.0
  0
LINE
  5
1B3
330
1B
100
AcDbEntity
 67
     1
  8
SLD-0_0
  6
SLD-実線
 62
   179
370
    25
100
AcDbLine
 10
188.7168370932
 20
287.7261481389
 30
0.0
 11
192.1809389069
 21
287.7261481389
 31
0.0
  0
LINE
  5
1B4
330
1B
100
AcDbEntity
 67
     1
  8
SLD-0_0
  6
SLD-実線
 62
   179
370
    25
100
AcDbLine
 10
184.0980349853
 20
290.726146768
 30
0.0
 11
184.0980349853
 21
288.0834109291
 31
0.0
  0
LINE
  5
1B5
330
1B
100
AcDbEntity
 67
     1
  8
SLD-0_0
  6
SLD-実線
 62
   179
370
    25
100
AcDbLine
 10
184.0980349853
 20
290.726146768
 30
0.0
 11
185.2527352794
 21
290.726146768
 31
0.0
  0
LINE
  5
1B6
330
1B
100
AcDbEntity
 67
     1
  8
SLD-0_0
  6
SLD-実線
 62
   179
370
    25
100
AcDbLine
 10
185.2527352794
 20
290.726146768
 30
0.0
 11
186.4074365049
 21
290.726146768
 31
0.0
  0
LINE
  5
1B7
330
1B
100
AcDbEntity
 67
     1
  8
SLD-0_0
  6
SLD-実線
 62
   179
370
    25
100
AcDbLine
 10
192.1809389069
 20
290.726146768
 30
0.0
 11
193.3356394339
 21
290.726146768
 31
0.0
  0
LINE
  5
1B8
330
1B
100
AcDbEntity
 67
     1
  8
SLD-0_0
  6
SLD-実線
 62
   179
370
    25
100
AcDbLine
 10
193.3356394339
 20
290.726146768
 30
0.0
 11
193.3356394339
 21
288.0834109291
 31
0.0
  0
LINE
  5
1B9
330
1B
100
AcDbEntity
 67
     1
  8
SLD-0_0
  6
SLD-実線
 62
   179
370
    25
100
AcDbLine
 10
193.3356394339
 20
288.0834109291
 30
0.0
 11
192.1809389069
 21
287.7261481389
 31
0.0
  0
LINE
  5
1BA
330
1B
100
AcDbEntity
 67
     1
  8
SLD-0_0
  6
SLD-実線
 62
   179
370
    25
100
AcDbLine
 10
191.0262381471
 20
290.726146768
 30
0.0
 11
192.1809389069
 21
290.726146768
 31
0.0
  0
LINE
  5
1BB
330
1B
100
AcDbEntity
 67
     1
  8
SLD-0_0
  6
SLD-実線
 62
   179
370
    25
100
AcDbLine
 10
188.731304258
 20
303.2261422977
 30
0.0
 11
187.5941240041
 21
303.2261422977
 31
0.0
  0
LINE
  5
1BC
330
1B
100
AcDbEntity
 67
     1
  8
SLD-0_0
  6
SLD-実線
 62
   179
370
    25
100
AcDbLine
 10
185.2527352794
 20
287.7261481389
 30
0.0
 11
184.7168373688
 21
287.7261481389
 31
0.0
  0
LINE
  5
1BD
330
1B
100
AcDbEntity
 67
     1
  8
SLD-0_0
  6
SLD-実線
 62
   179
370
    25
100
AcDbLine
 10
192.1809389069
 20
287.7261481389
 30
0.0
 11
192.7168372832
 21
287.7261481389
 31
0.0
  0
LINE
  5
1BE
330
1B
100
AcDbEntity
 67
     1
  8
SLD-0_0
  6
SLD-実線
 62
   179
370
    25
100
AcDbLine
 10
220.7484719156
 20
290.726146768
 30
0.0
 11
222.7858294546
 21
290.726146768
 31
0.0
  0
LINE
  5
1BF
330
1B
100
AcDbEntity
 67
     1
  8
SLD-0_0
  6
SLD-実線
 62
   179
370
    25
100
AcDbLine
 10
222.7858294546
 20
290.726146768
 30
0.0
 11
222.7858294546
 21
288.0834109291
 31
0.0
  0
LINE
  5
1C0
330
1B
100
AcDbEntity
 67
     1
  8
SLD-0_0
  6
SLD-実線
 62
   179
370
    25
100
AcDbLine
 10
222.7858294546
 20
288.0834109291
 30
0.0
 11
220.7484719156
 21
287.7261481389
 31
0.0
  0
LINE
  5
1C1
330
1B
100
AcDbEntity
 67
     1
  8
SLD-0_0
  6
SLD-実線
 62
   179
370
    25
100
AcDbLine
 10
218.711112514
 20
290.726146768
 30
0.0
 11
218.711112514
 21
288.0834109291
 31
0.0
  0
LINE
  5
1C2
330
1B
100
AcDbEntity
 67
     1
  8
SLD-0_0
  6
SLD-実線
 62
   179
370
    25
100
AcDbLine
 10
218.711112514
 20
290.726146768
 30
0.0
 11
220.7484719156
 21
290.726146768
 31
0.0
  0
LINE
  5
1C3
330
1B
100
AcDbEntity
 67
     1
  8
SLD-0_0
  6
SLD-実線
 62
   179
370
    25
100
AcDbLine
 10
220.7484719156
 20
287.7261481389
 30
0.0
 11
224.7462504356
 21
287.7261481389
 31
0.0
  0
LINE
  5
1C4
330
1B
100
AcDbEntity
 67
     1
  8
SLD-0_0
  6
SLD-実線
 62
   179
370
    25
100
AcDbLine
 10
224.7462504356
 20
290.726146768
 30
0.0
 11
226.7066714167
 21
290.726146768
 31
0.0
  0
LINE
  5
1C5
330
1B
100
AcDbEntity
 67
     1
  8
SLD-0_0
  6
SLD-実線
 62
   179
370
    25
100
AcDbLine
 10
226.7066714167
 20
290.726146768
 30
0.0
 11
226.7066714167
 21
288.0834109291
 31
0.0
  0
LINE
  5
1C6
330
1B
100
AcDbEntity
 67
     1
  8
SLD-0_0
  6
SLD-実線
 62
   179
370
    25
100
AcDbLine
 10
226.7066714167
 20
288.0834109291
 30
0.0
 11
224.7462504356
 21
287.7261481389
 31
0.0
  0
LINE
  5
1C7
330
1B
100
AcDbEntity
 67
     1
  8
SLD-0_0
  6
SLD-実線
 62
   179
370
    25
100
AcDbLine
 10
222.7858294546
 20
290.726146768
 30
0.0
 11
224.7462504356
 21
290.726146768
 31
0.0
  0
LINE
  5
1C8
330
1B
100
AcDbEntity
 67
     1
  8
SLD-0_0
  6
SLD-実線
 62
   179
370
    25
100
AcDbLine
 10
222.0641177892
 20
291.2261477813
 30
0.0
 11
222.7169078587
 21
291.2261477813
 31
0.0
  0
LINE
  5
1C9
330
1B
100
AcDbEntity
 67
     1
  8
SLD-0_0
  6
SLD-実線
 62
   179
370
    25
100
AcDbLine
 10
218.6341759561
 20
287.7261481389
 30
0.0
 11
220.7484719156
 21
287.7261481389
 31
0.0
  0
LINE
  5
1CA
330
1B
100
AcDbEntity
 67
     1
  8
SLD-0_0
  6
SLD-実線
 62
   179
370
    25
100
AcDbLine
 10
224.7462504356
 20
287.7261481389
 30
0.0
 11
226.6297348588
 21
287.7261481389
 31
0.0
  0
LINE
  5
1CB
330
1B
100
AcDbEntity
 67
     1
  8
SLD-0_0
  6
SLD-実線
 62
   179
370
    25
100
AcDbLine
 10
218.5572375356
 20
290.726146768
 30
0.0
 11
218.5572375356
 21
288.0834109291
 31
0.0
  0
LINE
  5
1CC
330
1B
100
AcDbEntity
 67
     1
  8
SLD-0_0
  6
SLD-実線
 62
   179
370
    25
100
AcDbLine
 10
218.5572375356
 20
290.726146768
 30
0.0
 11
218.6341759561
 21
290.726146768
 31
0.0
  0
LINE
  5
1CD
330
1B
100
AcDbEntity
 67
     1
  8
SLD-0_0
  6
SLD-実線
 62
   179
370
    25
100
AcDbLine
 10
218.6341759561
 20
290.726146768
 30
0.0
 11
218.711112514
 21
290.726146768
 31
0.0
  0
LINE
  5
1CE
330
1B
100
AcDbEntity
 67
     1
  8
SLD-0_0
  6
SLD-実線
 62
   179
370
    25
100
AcDbLine
 10
218.5572375356
 20
288.0834109291
 30
0.0
 11
220.5176585167
 21
287.7261481389
 31
0.0
  0
LINE
  5
1CF
330
1B
100
AcDbEntity
 67
     1
  8
SLD-0_0
  6
SLD-実線
 62
   179
370
    25
100
AcDbLine
 10
205.6743957846
 20
639.9261421665
 30
0.0
 11
190.174396038
 21
639.9261421665
 31
0.0
  0
LINE
  5
1D0
330
1B
100
AcDbEntity
 67
     1
  8
SLD-0_0
  6
SLD-実線
 62
   179
370
    25
100
AcDbLine
 10
221.1743955313
 20
639.9261421665
 30
0.0
 11
205.6743957846
 21
639.9261421665
 31
0.0
  0
LINE
  5
1D1
330
1B
100
AcDbEntity
 67
     1
  8
SLD-0_0
  6
SLD-実線
 62
   179
370
    25
100
AcDbLine
 10
191.6743962838
 20
461.2261458441
 30
0.0
 11
219.6743962168
 21
461.2261458441
 31
0.0
  0
LINE
  5
1D2
330
1B
100
AcDbEntity
 67
     1
  8
SLD-0_0
  6
SLD-実線
 62
   179
370
    25
100
AcDbLine
 10
191.6743962838
 20
462.7261451587
 30
0.0
 11
219.6743962168
 21
462.7261451587
 31
0.0
  0
LINE
  5
1D3
330
1B
100
AcDbEntity
 67
     1
  8
SLD-0_0
  6
SLD-実線
 62
   179
370
    25
100
AcDbLine
 10
196.6743965233
 20
458.7261449445
 30
0.0
 11
214.6743957484
 21
458.7261449445
 31
0.0
  0
LINE
  5
1D4
330
1B
100
AcDbEntity
 67
     1
  8
SLD-0_0
  6
SLD-実線
 62
   179
370
    25
100
AcDbLine
 10
268.1743957846
 20
294.8261416659
 30
0.0
 11
143.1743957846
 21
294.8261416659
 31
0.0
  0
LINE
  5
1D5
330
1B
100
AcDbEntity
 67
     1
  8
SLD-0_0
  6
SLD-実線
 62
   179
370
    25
100
AcDbLine
 10
268.1743957846
 20
292.5261474356
 30
0.0
 11
265.7400750368
 21
292.5261474356
 31
0.0
  0
LINE
  5
1D6
330
1B
100
AcDbEntity
 67
     1
  8
SLD-0_0
  6
SLD-実線
 62
   179
370
    25
100
AcDbLine
 10
265.146427676
 20
292.5261474356
 30
0.0
 11
188.3504133484
 21
292.5261474356
 31
0.0
  0
LINE
  5
1D7
330
1B
100
AcDbEntity
 67
     1
  8
SLD-0_0
  6
SLD-実線
 62
   179
370
    25
100
AcDbLine
 10
186.4565032347
 20
292.5261474356
 30
0.0
 11
143.1743957846
 21
292.5261474356
 31
0.0
  0
LINE
  5
1D8
330
1B
100
AcDbEntity
 67
     1
  8
SLD-0_0
  6
SLD-実線
 62
   179
370
    25
100
AcDbLine
 10
215.1270870863
 20
288.5261467799
 30
0.0
 11
196.2217049486
 21
288.5261467799
 31
0.0
  0
LINE
  5
1D9
330
1B
100
AcDbEntity
 67
     1
  8
SLD-0_0
  6
SLD-実線
 62
   179
370
    25
100
AcDbLine
 10
194.9530413855
 20
524.7261414447
 30
0.0
 11
191.0305265352
 21
524.7261414447
 31
0.0
  0
LINE
  5
1DA
330
1B
100
AcDbEntity
 67
     1
  8
SLD-0_0
  6
SLD-実線
 62
   179
370
    25
100
AcDbLine
 10
223.5295921559
 20
524.7261425475
 30
0.0
 11
222.5297819838
 21
524.7261414447
 31
0.0
  0
LINE
  5
1DB
330
1B
100
AcDbEntity
 67
     1
  8
SLD-0_0
  6
SLD-実線
 62
   179
370
    25
100
AcDbLine
 10
222.5297819838
 20
524.7261414447
 30
0.0
 11
194.9530413855
 21
524.7261414447
 31
0.0
  0
LINE
  5
1DC
330
1B
100
AcDbEntity
 67
     1
  8
SLD-0_0
  6
SLD-実線
 62
   179
370
    25
100
AcDbLine
 10
191.0305265352
 20
524.7261414447
 30
0.0
 11
188.8190116748
 21
524.7261414447
 31
0.0
  0
LINE
  5
1DD
330
1B
100
AcDbEntity
 67
     1
  8
SLD-0_0
  6
SLD-実線
 62
   179
370
    25
100
AcDbLine
 10
188.8190116748
 20
524.7261414447
 30
0.0
 11
187.8192024321
 21
524.7261414447
 31
0.0
  0
LINE
  5
1DE
330
1B
100
AcDbEntity
 67
     1
  8
SLD-0_0
  6
SLD-実線
 62
   179
370
    25
100
AcDbLine
 10
224.4116626695
 20
539.2439404645
 30
0.0
 11
224.529554079
 21
525.734869083
 31
0.0
  0
LINE
  5
1DF
330
1B
100
AcDbEntity
 67
     1
  8
SLD-0_0
  6
SLD-実線
 62
   179
370
    25
100
AcDbLine
 10
186.8192397513
 20
525.7348685364
 30
0.0
 11
186.9371313692
 21
539.2439399179
 31
0.0
  0
LINE
  5
1E0
330
1B
100
AcDbEntity
 67
     1
  8
SLD-0_0
  6
SLD-実線
 62
   179
370
    25
100
AcDbLine
 10
196.4347668736
 20
515.7261482581
 30
0.0
 11
196.4347668736
 21
524.7261441454
 31
0.0
  0
LINE
  5
1E1
330
1B
100
AcDbEntity
 67
     1
  8
SLD-0_0
  6
SLD-実線
 62
   179
370
    25
100
AcDbLine
 10
196.4347668736
 20
515.7261482581
 30
0.0
 11
189.4917831569
 21
515.7261482581
 31
0.0
  0
LINE
  5
1E2
330
1B
100
AcDbEntity
 67
     1
  8
SLD-0_0
  6
SLD-実線
 62
   179
370
    25
100
AcDbLine
 10
180.6235326533
 20
528.7261423579
 30
0.0
 11
181.9207420651
 21
528.7261423579
 31
0.0
  0
LINE
  5
1E3
330
1B
100
AcDbEntity
 67
     1
  8
SLD-0_0
  6
SLD-実線
 62
   179
370
    25
100
AcDbLine
 10
181.0002358719
 20
524.7261408981
 30
0.0
 11
149.1784131243
 21
524.7261408981
 31
0.0
  0
LINE
  5
1E4
330
1B
100
AcDbEntity
 67
     1
  8
SLD-0_0
  6
SLD-実線
 62
   179
370
    25
100
AcDbLine
 10
148.245823951
 20
528.7261415538
 30
0.0
 11
148.245823951
 21
525.7261429247
 31
0.0
  0
LINE
  5
1E5
330
1B
100
AcDbEntity
 67
     1
  8
SLD-0_0
  6
SLD-実線
 62
   179
370
    25
100
AcDbLine
 10
155.795921953
 20
528.7261415538
 30
0.0
 11
148.245823951
 21
528.7261415538
 31
0.0
  0
LINE
  5
1E6
330
1B
100
AcDbEntity
 67
     1
  8
SLD-0_0
  6
SLD-実線
 62
   179
370
    25
100
AcDbLine
 10
161.3640350847
 20
528.7261449401
 30
0.0
 11
156.0876852002
 21
528.7261453872
 31
0.0
  0
LINE
  5
1E7
330
1B
100
AcDbEntity
 67
     1
  8
SLD-0_0
  6
SLD-実線
 62
   179
370
    25
100
AcDbLine
 10
180.6235326533
 20
528.7261423579
 30
0.0
 11
161.6927221496
 21
528.7261423579
 31
0.0
  0
LINE
  5
1E8
330
1B
100
AcDbEntity
 67
     1
  8
SLD-0_0
  6
SLD-実線
 62
   179
370
    25
100
AcDbLine
 10
183.6888272405
 20
525.7261429247
 30
0.0
 11
183.6888272405
 21
524.7261408981
 31
0.0
  0
LINE
  5
1E9
330
1B
100
AcDbEntity
 67
     1
  8
SLD-0_0
  6
SLD-実線
 62
   179
370
    25
100
AcDbLine
 10
183.9825198133
 20
528.7261423579
 30
0.0
 11
181.9207420651
 21
528.7261423579
 31
0.0
  0
LINE
  5
1EA
330
1B
100
AcDbEntity
 67
     1
  8
SLD-0_0
  6
SLD-実線
 62
   179
370
    25
100
AcDbLine
 10
182.7587442562
 20
524.7261408981
 30
0.0
 11
181.0002358719
 21
524.7261408981
 31
0.0
  0
LINE
  5
1EB
330
1B
100
AcDbEntity
 67
     1
  8
SLD-0_0
  6
SLD-実線
 62
   179
370
    25
100
AcDbLine
 10
245.1445180938
 20
524.7261414447
 30
0.0
 11
224.5383579299
 21
524.7261414447
 31
0.0
  0
LINE
  5
1EC
330
1B
100
AcDbEntity
 67
     1
  8
SLD-0_0
  6
SLD-実線
 62
   179
370
    25
100
AcDbLine
 10
245.1445180938
 20
524.7261414447
 30
0.0
 11
245.1445180938
 21
525.7261434713
 31
0.0
  0
LINE
  5
1ED
330
1B
100
AcDbEntity
 67
     1
  8
SLD-0_0
  6
SLD-実線
 62
   179
370
    25
100
AcDbLine
 10
248.5906191914
 20
524.7261441454
 30
0.0
 11
248.5906191914
 21
515.7261482581
 31
0.0
  0
LINE
  5
1EE
330
1B
100
AcDbEntity
 67
     1
  8
SLD-0_0
  6
SLD-実線
 62
   179
370
    25
100
AcDbLine
 10
224.529554079
 20
525.734869083
 30
0.0
 11
224.5383579299
 21
524.7261414447
 31
0.0
  0
LINE
  5
1EF
330
1B
100
AcDbEntity
 67
     1
  8
SLD-0_0
  6
SLD-実線
 62
   179
370
    25
100
AcDbLine
 10
248.5906191914
 20
515.7261482581
 30
0.0
 11
196.4347668736
 21
515.7261482581
 31
0.0
  0
LINE
  5
1F0
330
1B
100
AcDbEntity
 67
     1
  8
SLD-0_0
  6
SLD-実線
 62
   179
370
    25
100
AcDbLine
 10
186.8104370401
 20
524.7261408981
 30
0.0
 11
183.6888272405
 21
524.7261408981
 31
0.0
  0
LINE
  5
1F1
330
1B
100
AcDbEntity
 67
     1
  8
SLD-0_0
  6
SLD-実線
 62
   179
370
    25
100
AcDbLine
 10
146.8329996615
 20
515.7261482581
 30
0.0
 11
146.8329996615
 21
516.7261428341
 31
0.0
  0
LINE
  5
1F2
330
1B
100
AcDbEntity
 67
     1
  8
SLD-0_0
  6
SLD-実線
 62
   179
370
    25
100
AcDbLine
 10
186.8104370401
 20
524.7261408981
 30
0.0
 11
186.8192397513
 21
525.7348685364
 31
0.0
  0
LINE
  5
1F3
330
1B
100
AcDbEntity
 67
     1
  8
SLD-0_0
  6
SLD-実線
 62
   179
370
    25
100
AcDbLine
 10
189.5905517786
 20
515.7261482581
 30
0.0
 11
146.8329996615
 21
515.7261482581
 31
0.0
  0
LINE
  5
1F4
330
1B
100
AcDbEntity
 67
     1
  8
SLD-0_0
  6
SLD-実線
 62
   179
370
    25
100
AcDbLine
 10
241.3743966072
 20
603.7261403307
 30
0.0
 11
243.5235277562
 21
603.7261403307
 31
0.0
  0
LINE
  5
1F5
330
1B
100
AcDbEntity
 67
     1
  8
SLD-0_0
  6
SLD-実線
 62
   179
370
    25
100
AcDbLine
 10
169.9422023497
 20
614.726145548
 30
0.0
 11
170.3028162615
 21
614.7261480215
 31
0.0
  0
LINE
  5
1F6
330
1B
100
AcDbEntity
 67
     1
  8
SLD-0_0
  6
SLD-実線
 62
   179
370
    25
100
AcDbLine
 10
170.3028162615
 20
614.7261480215
 30
0.0
 11
170.9743966953
 21
614.7261480215
 31
0.0
  0
LINE
  5
1F7
330
1B
100
AcDbEntity
 67
     1
  8
SLD-0_0
  6
SLD-実線
 62
   179
370
    25
100
AcDbLine
 10
249.454041752
 20
528.7261438513
 30
0.0
 11
249.7548291412
 21
529.2219948911
 31
0.0
  0
LINE
  5
1F8
330
1B
100
AcDbEntity
 67
     1
  8
SLD-0_0
  6
SLD-実線
 62
   179
370
    25
100
AcDbLine
 10
248.3848573593
 20
528.7261438513
 30
0.0
 11
249.454041752
 21
528.7261438513
 31
0.0
  0
LINE
  5
1F9
330
1B
100
AcDbEntity
 67
     1
  8
SLD-0_0
  6
SLD-実線
 62
   179
370
    25
100
AcDbLine
 10
255.2611075498
 20
528.7261452828
 30
0.0
 11
249.9847551604
 21
528.7261457299
 31
0.0
  0
LINE
  5
1FA
330
1B
100
AcDbEntity
 67
     1
  8
SLD-0_0
  6
SLD-実線
 62
   179
370
    25
100
AcDbLine
 10
272.174397338
 20
528.7261422475
 30
0.0
 11
255.5528710072
 21
528.7261422475
 31
0.0
  0
LINE
  5
1FB
330
1B
100
AcDbEntity
 67
     1
  8
SLD-0_0
  6
SLD-実線
 62
   179
370
    25
100
AcDbLine
 10
271.1743971909
 20
524.7261425475
 30
0.0
 11
249.0919698046
 21
524.7261414447
 31
0.0
  0
LINE
  5
1FC
330
1B
100
AcDbEntity
 67
     1
  8
SLD-0_0
  6
SLD-実線
 62
   179
370
    25
100
AcDbLine
 10
249.0919698046
 20
524.7261414447
 30
0.0
 11
245.9036689267
 21
524.7261414447
 31
0.0
  0
LINE
  5
1FD
330
1B
100
AcDbEntity
 67
     1
  8
SLD-0_0
  6
SLD-実線
 62
   179
370
    25
100
AcDbLine
 10
248.3848573593
 20
528.7261438513
 30
0.0
 11
244.5955926505
 21
528.7261438513
 31
0.0
  0
LINE
  5
1FE
330
1B
100
AcDbEntity
 67
     1
  8
SLD-0_0
  6
SLD-実線
 62
   179
370
    25
100
AcDbLine
 10
247.9313173144
 20
616.7261517748
 30
0.0
 11
248.4012105315
 21
616.7261517748
 31
0.0
  0
LINE
  5
1FF
330
1B
100
AcDbEntity
 67
     1
  8
SLD-0_0
  6
SLD-実線
 62
   179
370
    25
100
AcDbLine
 10
162.9475810378
 20
616.7261517748
 30
0.0
 11
163.4174779802
 21
616.7261517748
 31
0.0
  0
LINE
  5
200
330
1B
100
AcDbEntity
 67
     1
  8
SLD-0_0
  6
SLD-実線
 62
   179
370
    25
100
AcDbLine
 10
167.825263813
 20
603.7261403307
 30
0.0
 11
168.7224515526
 21
603.7261403307
 31
0.0
  0
LINE
  5
201
330
1B
100
AcDbEntity
 67
     1
  8
SLD-0_0
  6
SLD-実線
 62
   179
370
    25
100
AcDbLine
 10
248.4012105315
 20
616.7261517748
 30
0.0
 11
252.8969616442
 21
616.7261517748
 31
0.0
  0
LINE
  5
202
330
1B
100
AcDbEntity
 67
     1
  8
SLD-0_0
  6
SLD-実線
 62
   179
370
    25
100
AcDbLine
 10
158.4518299251
 20
616.7261517748
 30
0.0
 11
162.9475810378
 21
616.7261517748
 31
0.0
  0
LINE
  5
203
330
1B
100
AcDbEntity
 67
     1
  8
SLD-0_0
  6
SLD-実線
 62
   179
370
    25
100
AcDbLine
 10
247.0002257078
 20
636.7261476025
 30
0.0
 11
251.2551523527
 21
636.7261452482
 31
0.0
  0
LINE
  5
204
330
1B
100
AcDbEntity
 67
     1
  8
SLD-0_0
  6
SLD-実線
 62
   179
370
    25
100
AcDbLine
 10
160.0936399396
 20
636.7261452482
 30
0.0
 11
164.3485695868
 21
636.7261476025
 31
0.0
  0
LINE
  5
205
330
1B
100
AcDbEntity
 67
     1
  8
SLD-0_0
  6
SLD-実線
 62
   179
370
    25
100
AcDbLine
 10
238.9210295936
 20
636.7261452482
 30
0.0
 11
247.0002257078
 21
636.7261476025
 31
0.0
  0
LINE
  5
206
330
1B
100
AcDbEntity
 67
     1
  8
SLD-0_0
  6
SLD-実線
 62
   179
370
    25
100
AcDbLine
 10
164.3485695868
 20
636.7261476025
 30
0.0
 11
172.4277626987
 21
636.7261452482
 31
0.0
  0
LINE
  5
207
330
1B
100
AcDbEntity
 67
     1
  8
SLD-0_0
  6
SLD-実線
 62
   179
370
    25
100
AcDbLine
 10
254.5062311738
 20
515.7261482581
 30
0.0
 11
248.5906191914
 21
515.7261482581
 31
0.0
  0
LINE
  5
208
330
1B
100
AcDbEntity
 67
     1
  8
SLD-0_0
  6
SLD-実線
 62
   179
370
    25
100
AcDbLine
 10
252.8969616442
 20
616.7261517748
 30
0.0
 11
253.043359434
 21
616.7261452482
 31
0.0
  0
LINE
  5
209
330
1B
100
AcDbEntity
 67
     1
  8
SLD-0_0
  6
SLD-実線
 62
   179
370
    25
100
AcDbLine
 10
158.3054328583
 20
616.7261452482
 30
0.0
 11
158.4518299251
 21
616.7261517748
 31
0.0
  0
LINE
  5
20A
330
1B
100
AcDbEntity
 67
     1
  8
SLD-0_0
  6
SLD-実線
 62
   179
370
    25
100
AcDbLine
 10
252.8840199857
 20
616.7261517748
 30
0.0
 11
252.8206527977
 21
616.7261517748
 31
0.0
  0
LINE
  5
20B
330
1B
100
AcDbEntity
 67
     1
  8
SLD-0_0
  6
SLD-実線
 62
   179
370
    25
100
AcDbLine
 10
158.5281387715
 20
616.7261517748
 30
0.0
 11
158.466291502
 21
616.7261517748
 31
0.0
  0
LINE
  5
20C
330
1B
100
AcDbEntity
 67
     1
  8
SLD-0_0
  6
SLD-実線
 62
   179
370
    25
100
AcDbLine
 10
252.7034104614
 20
617.1166814074
 30
0.0
 11
252.7079813926
 21
617.0420861944
 31
0.0
  0
LINE
  5
20D
330
1B
100
AcDbEntity
 67
     1
  8
SLD-0_0
  6
SLD-実線
 62
   179
370
    25
100
AcDbLine
 10
158.6383328586
 20
617.0441425547
 30
0.0
 11
158.6453811078
 21
617.1166814074
 31
0.0
  0
LINE
  5
20E
330
1B
100
AcDbEntity
 67
     1
  8
SLD-0_0
  6
SLD-実線
 62
   179
370
    25
100
AcDbLine
 10
148.5580586641
 20
603.7261403307
 30
0.0
 11
157.4966915696
 21
603.7261403307
 31
0.0
  0
LINE
  5
20F
330
1B
100
AcDbEntity
 67
     1
  8
SLD-0_0
  6
SLD-実線
 62
   179
370
    25
100
AcDbLine
 10
266.6446053236
 20
515.7261482581
 30
0.0
 11
254.5062311738
 21
515.7261482581
 31
0.0
  0
LINE
  5
210
330
1B
100
AcDbEntity
 67
     1
  8
SLD-0_0
  6
SLD-実線
 62
   179
370
    25
100
AcDbLine
 10
253.5805412381
 20
614.7261477217
 30
0.0
 11
257.7665679901
 21
614.7261477217
 31
0.0
  0
LINE
  5
211
330
1B
100
AcDbEntity
 67
     1
  8
SLD-0_0
  6
SLD-実線
 62
   179
370
    25
100
AcDbLine
 10
257.7665679901
 20
614.7261477217
 30
0.0
 11
258.0121017631
 21
614.7261452482
 31
0.0
  0
LINE
  5
212
330
1B
100
AcDbEntity
 67
     1
  8
SLD-0_0
  6
SLD-実線
 62
   179
370
    25
100
AcDbLine
 10
142.2180032472
 20
529.6725063292
 30
0.0
 11
142.1636276691
 21
529.6688742146
 31
0.0
  0
LINE
  5
213
330
1B
100
AcDbEntity
 67
     1
  8
SLD-0_0
  6
SLD-実線
 62
   179
370
    25
100
AcDbLine
 10
143.2846044333
 20
516.726144239
 30
0.0
 11
142.6556338699
 21
516.726144239
 31
0.0
  0
LINE
  5
214
330
1B
100
AcDbEntity
 67
     1
  8
SLD-0_0
  6
SLD-実線
 62
   179
370
    25
100
AcDbLine
 10
152.790595326
 20
516.726144239
 30
0.0
 11
143.2846044333
 21
516.726144239
 31
0.0
  0
LINE
  5
215
330
1B
100
AcDbEntity
 67
     1
  8
SLD-0_0
  6
SLD-実線
 62
   179
370
    25
100
AcDbLine
 10
142.6556338699
 20
516.726144239
 30
0.0
 11
136.4898798199
 21
516.726144239
 31
0.0
  0
LINE
  5
216
330
1B
100
AcDbEntity
 67
     1
  8
SLD-0_0
  6
SLD-実線
 62
   179
370
    25
100
AcDbLine
 10
141.271491182
 20
528.726146206
 30
0.0
 11
136.0094329538
 21
528.726146206
 31
0.0
  0
LINE
  5
217
330
1B
100
AcDbEntity
 67
     1
  8
SLD-0_0
  6
SLD-実線
 62
   179
370
    25
100
AcDbLine
 10
153.1561394366
 20
516.726144239
 30
0.0
 11
152.790595326
 21
516.726144239
 31
0.0
  0
LINE
  5
218
330
1B
100
AcDbEntity
 67
     1
  8
SLD-0_0
  6
SLD-実線
 62
   179
370
    25
100
AcDbLine
 10
176.6743963006
 20
638.7261450937
 30
0.0
 11
234.6743963006
 21
638.7261450937
 31
0.0
  0
LINE
  5
219
330
1B
100
AcDbEntity
 67
     1
  8
SLD-0_0
  6
SLD-実線
 62
   179
370
    25
100
AcDbLine
 10
259.0218343585
 20
614.7261477217
 30
0.0
 11
263.736636266
 21
614.7261477217
 31
0.0
  0
LINE
  5
21A
330
1B
100
AcDbEntity
 67
     1
  8
SLD-0_0
  6
SLD-実線
 62
   179
370
    25
100
AcDbLine
 10
263.736636266
 20
614.7261477217
 30
0.0
 11
263.9071002564
 21
614.7261452482
 31
0.0
  0
LINE
  5
21B
330
1B
100
AcDbEntity
 67
     1
  8
SLD-0_0
  6
SLD-実線
 62
   179
370
    25
100
AcDbLine
 10
259.0074994414
 20
614.7261477217
 30
0.0
 11
259.0218343585
 21
614.7261477217
 31
0.0
  0
LINE
  5
21C
330
1B
100
AcDbEntity
 67
     1
  8
SLD-0_0
  6
SLD-実線
 62
   179
370
    25
100
AcDbLine
 10
136.4898798199
 20
516.726144239
 30
0.0
 11
136.4703285815
 21
516.7261466531
 31
0.0
  0
LINE
  5
21D
330
1B
100
AcDbEntity
 67
     1
  8
SLD-0_0
  6
SLD-実線
 62
   179
370
    25
100
AcDbLine
 10
135.9703285815
 20
528.726146206
 30
0.0
 11
136.0094329538
 21
528.726146206
 31
0.0
  0
LINE
  5
21E
330
1B
100
AcDbEntity
 67
     1
  8
SLD-0_0
  6
SLD-実線
 62
   179
370
    25
100
AcDbLine
 10
146.8329996615
 20
515.7261482581
 30
0.0
 11
142.5073937326
 21
515.7261482581
 31
0.0
  0
LINE
  5
21F
330
1B
100
AcDbEntity
 67
     1
  8
SLD-0_0
  6
SLD-実線
 62
   179
370
    25
100
AcDbLine
 10
263.9071002564
 20
614.7261452482
 30
0.0
 11
267.4754046648
 21
614.7261477217
 31
0.0
  0
LINE
  5
220
330
1B
100
AcDbEntity
 67
     1
  8
SLD-0_0
  6
SLD-実線
 62
   179
370
    25
100
AcDbLine
 10
267.4754046648
 20
614.7261477217
 30
0.0
 11
267.564248588
 21
614.7261452482
 31
0.0
  0
LINE
  5
221
330
1B
100
AcDbEntity
 67
     1
  8
SLD-0_0
  6
SLD-実線
 62
   179
370
    25
100
AcDbLine
 10
143.6545670777
 20
614.7261477217
 30
0.0
 11
148.6866519599
 21
614.7261477217
 31
0.0
  0
LINE
  5
222
330
1B
100
AcDbEntity
 67
     1
  8
SLD-0_0
  6
SLD-実線
 62
   179
370
    25
100
AcDbLine
 10
143.5731915556
 20
614.7261452482
 30
0.0
 11
143.6545670777
 21
614.7261477217
 31
0.0
  0
LINE
  5
223
330
1B
100
AcDbEntity
 67
     1
  8
SLD-0_0
  6
SLD-実線
 62
   179
370
    25
100
AcDbLine
 10
148.6866519599
 20
614.7261477217
 30
0.0
 11
148.701936826
 21
614.7261477217
 31
0.0
  0
LINE
  5
224
330
1B
100
AcDbEntity
 67
     1
  8
SLD-0_0
  6
SLD-実線
 62
   179
370
    25
100
AcDbLine
 10
267.564248588
 20
614.7261452482
 30
0.0
 11
268.8391961901
 21
614.7261477217
 31
0.0
  0
LINE
  5
225
330
1B
100
AcDbEntity
 67
     1
  8
SLD-0_0
  6
SLD-実線
 62
   179
370
    25
100
AcDbLine
 10
272.075504884
 20
528.7261448011
 30
0.0
 11
269.8426254838
 21
613.7523270353
 31
0.0
  0
LINE
  5
226
330
1B
100
AcDbEntity
 67
     1
  8
SLD-0_0
  6
SLD-実線
 62
   179
370
    25
100
AcDbLine
 10
139.2732904105
 20
528.7261448011
 30
0.0
 11
141.5061698108
 21
613.7523270353
 31
0.0
  0
LINE
  5
227
330
1B
100
AcDbEntity
 67
     1
  8
SLD-0_0
  6
SLD-実線
 62
   179
370
    25
100
AcDbLine
 10
268.8391961901
 20
614.7261477217
 30
0.0
 11
268.8430034368
 21
614.7261477217
 31
0.0
  0
LINE
  5
228
330
1B
100
AcDbEntity
 67
     1
  8
SLD-0_0
  6
SLD-実線
 62
   179
370
    25
100
AcDbLine
 10
142.5057881324
 20
614.7261477217
 30
0.0
 11
143.5731915556
 21
614.7261452482
 31
0.0
  0
LINE
  5
229
330
1B
100
AcDbEntity
 67
     1
  8
SLD-0_0
  6
SLD-実線
 62
   179
370
    25
100
AcDbLine
 10
268.841401562
 20
515.7261482581
 30
0.0
 11
266.6743927448
 21
515.7261482581
 31
0.0
  0
LINE
  5
22A
330
1B
100
AcDbEntity
 67
     1
  8
SLD-0_0
  6
SLD-実線
 62
   179
370
    25
100
AcDbLine
 10
274.5698037034
 20
516.7261402805
 30
0.0
 11
268.8414024597
 21
516.7261402805
 31
0.0
  0
LINE
  5
22B
330
1B
100
AcDbEntity
 67
     1
  8
SLD-0_0
  6
SLD-実線
 62
   179
370
    25
100
AcDbLine
 10
274.7611495143
 20
528.7261422475
 30
0.0
 11
272.174397338
 21
528.7261422475
 31
0.0
  0
LINE
  5
22C
330
1B
100
AcDbEntity
 67
     1
  8
SLD-0_0
  6
SLD-実線
 62
   179
370
    25
100
AcDbLine
 10
274.8784642689
 20
516.7261426946
 30
0.0
 11
274.5698037034
 21
516.7261402805
 31
0.0
  0
LINE
  5
22D
330
1B
100
AcDbEntity
 67
     1
  8
SLD-0_0
  6
SLD-実線
 62
   179
370
    25
100
AcDbLine
 10
274.7611495143
 20
528.7261422475
 30
0.0
 11
275.3784673696
 21
528.7261422475
 31
0.0
  0
LINE
  5
22E
330
1B
100
AcDbEntity
 67
     1
  8
SLD-0_0
  6
SLD-実線
 62
   179
370
    25
100
AcDbLine
 10
198.1743961851
 20
452.3524074957
 30
0.0
 11
213.1743960827
 21
452.3524074957
 31
0.0
  0
LINE
  5
22F
330
1B
100
AcDbEntity
 67
     1
  8
SLD-0_0
  6
SLD-実線
 62
   179
370
    25
100
AcDbLine
 10
197.6743961031
 20
453.7261455461
 30
0.0
 11
213.6743952333
 21
453.7261455461
 31
0.0
  0
LINE
  5
230
330
1B
100
AcDbEntity
 67
     1
  8
SLD-0_0
  6
SLD-実線
 62
   179
370
    25
100
AcDbLine
 10
197.6743961031
 20
456.7261441752
 30
0.0
 11
213.6743952333
 21
456.7261441752
 31
0.0
  0
LINE
  5
231
330
1B
100
AcDbEntity
 67
     1
  8
SLD-0_0
  6
SLD-実線
 62
   179
370
    25
100
AcDbLine
 10
135.6743954866
 20
475.7261417016
 30
0.0
 11
135.6743954866
 21
467.7261441156
 31
0.0
  0
LINE
  5
232
330
1B
100
AcDbEntity
 67
     1
  8
SLD-0_0
  6
SLD-実線
 62
   179
370
    25
100
AcDbLine
 10
135.6743954866
 20
475.7261417016
 30
0.0
 11
141.4482340961
 21
475.7261417016
 31
0.0
  0
LINE
  5
233
330
1B
100
AcDbEntity
 67
     1
  8
SLD-0_0
  6
SLD-実線
 62
   179
370
    25
100
AcDbLine
 10
141.4482340961
 20
475.7261417016
 30
0.0
 11
141.4482340961
 21
467.7261441156
 31
0.0
  0
LINE
  5
234
330
1B
100
AcDbEntity
 67
     1
  8
SLD-0_0
  6
SLD-実線
 62
   179
370
    25
100
AcDbLine
 10
135.6743954866
 20
467.7261441156
 30
0.0
 11
141.4482340961
 21
467.7261441156
 31
0.0
  0
LINE
  5
235
330
1B
100
AcDbEntity
 67
     1
  8
SLD-0_0
  6
SLD-実線
 62
   179
370
    25
100
AcDbLine
 10
269.9005611985
 20
475.7261417016
 30
0.0
 11
269.9005611985
 21
467.7261441156
 31
0.0
  0
LINE
  5
236
330
1B
100
AcDbEntity
 67
     1
  8
SLD-0_0
  6
SLD-実線
 62
   179
370
    25
100
AcDbLine
 10
141.4482340961
 20
475.7261417016
 30
0.0
 11
269.9005611985
 21
475.7261417016
 31
0.0
  0
LINE
  5
237
330
1B
100
AcDbEntity
 67
     1
  8
SLD-0_0
  6
SLD-実線
 62
   179
370
    25
100
AcDbLine
 10
141.4482340961
 20
467.7261441156
 30
0.0
 11
269.9005611985
 21
467.7261441156
 31
0.0
  0
LINE
  5
238
330
1B
100
AcDbEntity
 67
     1
  8
SLD-0_0
  6
SLD-実線
 62
   179
370
    25
100
AcDbLine
 10
275.6743960827
 20
475.7261417016
 30
0.0
 11
275.6743960827
 21
467.7261441156
 31
0.0
  0
LINE
  5
239
330
1B
100
AcDbEntity
 67
     1
  8
SLD-0_0
  6
SLD-実線
 62
   179
370
    25
100
AcDbLine
 10
269.9005611985
 20
475.7261417016
 30
0.0
 11
275.6743960827
 21
475.7261417016
 31
0.0
  0
LINE
  5
23A
330
1B
100
AcDbEntity
 67
     1
  8
SLD-0_0
  6
SLD-実線
 62
   179
370
    25
100
AcDbLine
 10
269.9005611985
 20
467.7261441156
 30
0.0
 11
275.6743960827
 21
467.7261441156
 31
0.0
  0
LINE
  5
23B
330
1B
100
AcDbEntity
 67
     1
  8
SLD-0_0
  6
SLD-実線
 62
   179
370
    25
100
AcDbLine
 10
190.6747192888
 20
304.8261470303
 30
0.0
 11
186.2599699571
 21
304.8261470303
 31
0.0
  0
LINE
  5
23C
330
1B
100
AcDbEntity
 67
     1
  8
SLD-0_0
  6
SLD-実線
 62
   179
370
    25
100
AcDbLine
 10
261.2477325647
 20
304.8261470303
 30
0.0
 11
259.9037819355
 21
304.8261470303
 31
0.0
  0
LINE
  5
23D
330
1B
100
AcDbEntity
 67
     1
  8
SLD-0_0
  6
SLD-実線
 62
   179
370
    25
100
AcDbLine
 10
141.8161474912
 20
464.7261454865
 30
0.0
 11
141.6743964701
 21
464.7261454865
 31
0.0
  0
LINE
  5
23E
330
1B
100
AcDbEntity
 67
     1
  8
SLD-0_0
  6
SLD-実線
 62
   179
370
    25
100
AcDbLine
 10
269.6743988245
 20
464.7261454865
 30
0.0
 11
144.3440475314
 21
464.7261454865
 31
0.0
  0
LINE
  5
23F
330
1B
100
AcDbEntity
 67
     1
  8
SLD-0_0
  6
SLD-実線
 62
   179
370
    25
100
AcDbLine
 10
144.3440475314
 20
464.7261454865
 30
0.0
 11
141.8161474912
 21
464.7261454865
 31
0.0
  0
LINE
  5
240
330
1B
100
AcDbEntity
 67
     1
  8
SLD-0_0
  6
SLD-実線
 62
   179
370
    25
100
AcDbLine
 10
205.6743957846
 20
294.8261416659
 30
0.0
 11
143.1743957846
 21
294.8261416659
 31
0.0
  0
LINE
  5
241
330
1B
100
AcDbEntity
 67
     1
  8
SLD-0_0
  6
SLD-実線
 62
   179
370
    25
100
AcDbLine
 10
268.1743957846
 20
294.8261416659
 30
0.0
 11
205.6743957846
 21
294.8261416659
 31
0.0
  0
LINE
  5
242
330
1B
100
AcDbEntity
 67
     1
  8
SLD-0_0
  6
SLD-実線
 62
   179
370
    25
100
AcDbLine
 10
154.1685991733
 20
515.7261482581
 30
0.0
 11
189.4917831569
 21
515.7261482581
 31
0.0
  0
LINE
  5
243
330
1B
100
AcDbEntity
 67
     1
  8
SLD-0_0
  6
SLD-実線
 62
   179
370
    25
100
AcDbLine
 10
164.5585232227
 20
314.8261449441
 30
0.0
 11
205.4712706058
 21
314.8261449441
 31
0.0
  0
LINE
  5
244
330
1B
100
AcDbEntity
 67
     1
  8
SLD-0_0
  6
SLD-実線
 62
   179
370
    25
100
AcDbLine
 10
156.6196688264
 20
314.8261449441
 30
0.0
 11
160.0771219282
 21
314.8261449441
 31
0.0
  0
LINE
  5
245
330
1B
100
AcDbEntity
 67
     1
  8
SLD-0_0
  6
SLD-実線
 62
   179
370
    25
100
AcDbLine
 10
205.4712706058
 20
314.8261449441
 30
0.0
 11
241.4614454656
 21
314.8261449441
 31
0.0
  0
LINE
  5
246
330
1B
100
AcDbEntity
 67
     1
  8
SLD-0_0
  6
SLD-実線
 62
   179
370
    25
100
AcDbLine
 10
253.8426042347
 20
314.8261449441
 30
0.0
 11
254.4274003058
 21
314.8261449441
 31
0.0
  0
LINE
  5
247
330
1B
100
AcDbEntity
 67
     1
  8
SLD-0_0
  6
SLD-実線
 62
   179
370
    25
100
AcDbLine
 10
205.6743957846
 20
306.8261436328
 30
0.0
 11
205.6743957846
 21
305.8261416062
 31
0.0
  0
LINE
  5
248
330
1B
100
AcDbEntity
 67
     1
  8
SLD-0_0
  6
SLD-実線
 62
   179
370
    25
100
AcDbLine
 10
144.3068989365
 20
502.7261442646
 30
0.0
 11
141.7788983135
 21
502.7261442646
 31
0.0
  0
LINE
  5
249
330
1B
100
AcDbEntity
 67
     1
  8
SLD-0_0
  6
SLD-実線
 62
   179
370
    25
100
AcDbLine
 10
150.5778179317
 20
502.7261442646
 30
0.0
 11
151.0389194636
 21
502.6851735219
 31
0.0
  0
LINE
  5
24A
330
1B
100
AcDbEntity
 67
     1
  8
SLD-0_0
  6
SLD-実線
 62
   179
370
    25
100
AcDbLine
 10
144.3068989365
 20
502.7261442646
 30
0.0
 11
150.5778179317
 21
502.7261442646
 31
0.0
  0
LINE
  5
24B
330
1B
100
AcDbEntity
 67
     1
  8
SLD-0_0
  6
SLD-実線
 62
   179
370
    25
100
AcDbLine
 10
143.5415343194
 20
514.7261462316
 30
0.0
 11
150.2897188811
 21
514.7261462316
 31
0.0
  0
LINE
  5
24C
330
1B
100
AcDbEntity
 67
     1
  8
SLD-0_0
  6
SLD-実線
 62
   179
370
    25
100
AcDbLine
 10
135.9875955432
 20
505.7261428937
 30
0.0
 11
135.9875955432
 21
499.7261456355
 31
0.0
  0
LINE
  5
24D
330
1B
100
AcDbEntity
 67
     1
  8
SLD-0_0
  6
SLD-実線
 62
   179
370
    25
100
AcDbLine
 10
135.6743954866
 20
508.8864556655
 30
0.0
 11
135.6743954866
 21
512.7261421785
 31
0.0
  0
LINE
  5
24E
330
1B
100
AcDbEntity
 67
     1
  8
SLD-0_0
  6
SLD-実線
 62
   179
370
    25
100
AcDbLine
 10
136.9193949549
 20
502.7261442646
 30
0.0
 11
141.7788983135
 21
502.7261442646
 31
0.0
  0
LINE
  5
24F
330
1B
100
AcDbEntity
 67
     1
  8
SLD-0_0
  6
SLD-実線
 62
   179
370
    25
100
AcDbLine
 10
137.6743958144
 20
514.7261462316
 30
0.0
 11
143.5415343194
 21
514.7261462316
 31
0.0
  0
LINE
  5
250
330
1B
100
AcDbEntity
 67
     1
  8
SLD-0_0
  6
SLD-実線
 62
   179
370
    25
100
AcDbLine
 10
152.2481561451
 20
515.7261482581
 30
0.0
 11
154.1685991733
 21
515.7261482581
 31
0.0
  0
LINE
  5
251
330
1B
100
AcDbEntity
 67
     1
  8
SLD-0_0
  6
SLD-実線
 62
   179
370
    25
100
AcDbLine
 10
258.1179446409
 20
302.8261427965
 30
0.0
 11
263.5308361481
 21
302.8261427965
 31
0.0
  0
LINE
  5
252
330
1B
100
AcDbEntity
 67
     1
  8
SLD-0_0
  6
SLD-実線
 62
   179
370
    25
100
AcDbLine
 10
263.5308361481
 20
302.8261427965
 30
0.0
 11
266.1743959654
 21
302.8261450675
 31
0.0
  0
LINE
  5
253
330
1B
100
AcDbEntity
 67
     1
  8
SLD-0_0
  6
SLD-実線
 62
   179
370
    25
100
AcDbLine
 10
146.8329996615
 20
515.7261482581
 30
0.0
 11
152.2481561451
 21
515.7261482581
 31
0.0
  0
LINE
  5
254
330
1B
100
AcDbEntity
 67
     1
  8
SLD-0_0
  6
SLD-実線
 62
   179
370
    25
100
AcDbLine
 10
163.1099504682
 20
317.812486659
 30
0.0
 11
163.1099504682
 21
459.7261452482
 31
0.0
  0
LINE
  5
255
330
1B
100
AcDbEntity
 67
     1
  8
SLD-0_0
  6
SLD-実線
 62
   179
370
    25
100
AcDbLine
 10
248.2388418241
 20
459.7261452482
 30
0.0
 11
248.2388400285
 21
318.4610969528
 31
0.0
  0
LINE
  5
256
330
1B
100
AcDbEntity
 67
     1
  8
SLD-0_0
  6
SLD-実線
 62
   179
370
    25
100
AcDbLine
 10
170.1743961461
 20
346.826146464
 30
0.0
 11
170.1743961461
 21
459.7261452482
 31
0.0
  0
LINE
  5
257
330
1B
100
AcDbEntity
 67
     1
  8
SLD-0_0
  6
SLD-実線
 62
   179
370
    25
100
AcDbLine
 10
241.1743961461
 20
346.826146464
 30
0.0
 11
241.1743961461
 21
459.7261452482
 31
0.0
  0
LINE
  5
258
330
1B
100
AcDbEntity
 67
     1
  8
SLD-0_0
  6
SLD-実線
 62
   179
370
    25
100
AcDbLine
 10
135.6743954866
 20
475.7261417016
 30
0.0
 11
135.6743954866
 21
478.7261477813
 31
0.0
  0
LINE
  5
259
330
1B
100
AcDbEntity
 67
     1
  8
SLD-0_0
  6
SLD-実線
 62
   179
370
    25
100
AcDbLine
 10
120.6743948906
 20
475.7261417016
 30
0.0
 11
120.6743948906
 21
505.7261428937
 31
0.0
  0
LINE
  5
25A
330
1B
100
AcDbEntity
 67
     1
  8
SLD-0_0
  6
SLD-実線
 62
   179
370
    25
100
AcDbLine
 10
120.6743948906
 20
475.7261417016
 30
0.0
 11
120.6743961461
 21
472.7261452482
 31
0.0
  0
LINE
  5
25B
330
1B
100
AcDbEntity
 67
     1
  8
SLD-0_0
  6
SLD-実線
 62
   179
370
    25
100
AcDbLine
 10
120.6743948906
 20
508.7261489734
 30
0.0
 11
120.6743948906
 21
505.7261428937
 31
0.0
  0
LINE
  5
25C
330
1B
100
AcDbEntity
 67
     1
  8
SLD-0_0
  6
SLD-実線
 62
   179
370
    25
100
AcDbLine
 10
135.6743954866
 20
470.72614647
 30
0.0
 11
122.6743961461
 21
470.7261452482
 31
0.0
  0
LINE
  5
25D
330
1B
100
AcDbEntity
 67
     1
  8
SLD-0_0
  6
SLD-実線
 62
   179
370
    25
100
AcDbLine
 10
122.6743955183
 20
510.726145876
 30
0.0
 11
135.6743948588
 21
510.7261462037
 31
0.0
  0
LINE
  5
25E
330
1B
100
AcDbEntity
 67
     1
  8
SLD-0_0
  6
SLD-実線
 62
   179
370
    25
100
AcDbLine
 10
143.1743957846
 20
302.8261429772
 30
0.0
 11
143.1743957846
 21
461.3087318048
 31
0.0
  0
LINE
  5
25F
330
1B
100
AcDbEntity
 67
     1
  8
SLD-0_0
  6
SLD-実線
 62
   179
370
    25
100
AcDbLine
 10
143.6793812363
 20
302.8261429772
 30
0.0
 11
143.1743957846
 21
302.8261429772
 31
0.0
  0
LINE
  5
260
330
1B
100
AcDbEntity
 67
     1
  8
SLD-0_0
  6
SLD-実線
 62
   179
370
    25
100
AcDbLine
 10
184.5083859562
 20
317.8261435732
 30
0.0
 11
185.6743962317
 21
317.8261435732
 31
0.0
  0
LINE
  5
261
330
1B
100
AcDbEntity
 67
     1
  8
SLD-0_0
  6
SLD-実線
 62
   179
370
    25
100
AcDbLine
 10
186.6743954333
 20
316.8261405844
 30
0.0
 11
186.6743951838
 21
315.826144286
 31
0.0
  0
LINE
  5
262
330
1B
100
AcDbEntity
 67
     1
  8
SLD-0_0
  6
SLD-実線
 62
   179
370
    25
100
AcDbLine
 10
224.6743961461
 20
315.8261452482
 30
0.0
 11
224.6743970363
 21
316.8261415466
 31
0.0
  0
LINE
  5
263
330
1B
100
AcDbEntity
 67
     1
  8
SLD-0_0
  6
SLD-実線
 62
   179
370
    25
100
AcDbLine
 10
225.6743965912
 20
317.8261448031
 30
0.0
 11
226.8404079208
 21
317.8261431281
 31
0.0
  0
LINE
  5
264
330
1B
100
AcDbEntity
 67
     1
  8
SLD-0_0
  6
SLD-実線
 62
   179
370
    25
100
AcDbLine
 10
182.6743961461
 20
317.8261452482
 30
0.0
 11
184.5083859562
 21
317.8261435732
 31
0.0
  0
LINE
  5
265
330
1B
100
AcDbEntity
 67
     1
  8
SLD-0_0
  6
SLD-実線
 62
   179
370
    25
100
AcDbLine
 10
226.8404079208
 20
317.8261431281
 30
0.0
 11
228.6743965912
 21
317.8261448031
 31
0.0
  0
LINE
  5
266
330
1B
100
AcDbEntity
 67
     1
  8
SLD-0_0
  6
SLD-実線
 62
   179
370
    25
100
AcDbLine
 10
143.7633306532
 20
302.8261429772
 30
0.0
 11
143.6793812363
 21
302.8261429772
 31
0.0
  0
LINE
  5
267
330
1B
100
AcDbEntity
 67
     1
  8
SLD-0_0
  6
SLD-実線
 62
   179
370
    25
100
AcDbLine
 10
180.674397988
 20
343.8261455108
 30
0.0
 11
180.6762056851
 21
343.8243387451
 31
0.0
  0
LINE
  5
268
330
1B
100
AcDbEntity
 67
     1
  8
SLD-0_0
  6
SLD-実線
 62
   179
370
    25
100
AcDbLine
 10
180.6762056851
 20
343.8243387451
 30
0.0
 11
180.6816278452
 21
343.8189147224
 31
0.0
  0
LINE
  5
269
330
1B
100
AcDbEntity
 67
     1
  8
SLD-0_0
  6
SLD-実線
 62
   179
370
    25
100
AcDbLine
 10
180.6816278452
 20
343.8189147224
 30
0.0
 11
180.6906532922
 21
343.8098920693
 31
0.0
  0
LINE
  5
26A
330
1B
100
AcDbEntity
 67
     1
  8
SLD-0_0
  6
SLD-実線
 62
   179
370
    25
100
AcDbLine
 10
173.0960017496
 20
343.8261455108
 30
0.0
 11
180.674397988
 21
343.8261455108
 31
0.0
  0
LINE
  5
26B
330
1B
100
AcDbEntity
 67
     1
  8
SLD-0_0
  6
SLD-実線
 62
   179
370
    25
100
AcDbLine
 10
183.6743963885
 20
337.9977181234
 30
0.0
 11
183.6743961462
 21
333.8261461958
 31
0.0
  0
LINE
  5
26C
330
1B
100
AcDbEntity
 67
     1
  8
SLD-0_0
  6
SLD-実線
 62
   179
370
    25
100
AcDbLine
 10
227.6743961462
 20
337.9977181234
 30
0.0
 11
227.6743956654
 21
333.8261461958
 31
0.0
  0
LINE
  5
26D
330
1B
100
AcDbEntity
 67
     1
  8
SLD-0_0
  6
SLD-実線
 62
   179
370
    25
100
AcDbLine
 10
230.6581408529
 20
343.8098906681
 30
0.0
 11
230.6671672313
 21
343.8189133212
 31
0.0
  0
LINE
  5
26E
330
1B
100
AcDbEntity
 67
     1
  8
SLD-0_0
  6
SLD-実線
 62
   179
370
    25
100
AcDbLine
 10
230.6671672313
 20
343.8189133212
 30
0.0
 11
230.6725875287
 21
343.8243373439
 31
0.0
  0
LINE
  5
26F
330
1B
100
AcDbEntity
 67
     1
  8
SLD-0_0
  6
SLD-実線
 62
   179
370
    25
100
AcDbLine
 10
230.6725875287
 20
343.8243373439
 30
0.0
 11
230.6743942945
 21
343.8261441096
 31
0.0
  0
LINE
  5
270
330
1B
100
AcDbEntity
 67
     1
  8
SLD-0_0
  6
SLD-実線
 62
   179
370
    25
100
AcDbLine
 10
230.6743942945
 20
343.8261441096
 30
0.0
 11
238.2527933269
 21
343.8261441096
 31
0.0
  0
LINE
  5
271
330
1B
100
AcDbEntity
 67
     1
  8
SLD-0_0
  6
SLD-実線
 62
   179
370
    25
100
AcDbLine
 10
143.1743957846
 20
461.3087318048
 30
0.0
 11
143.1743957846
 21
461.2730435237
 31
0.0
  0
LINE
  5
272
330
1B
100
AcDbEntity
 67
     1
  8
SLD-0_0
  6
SLD-実線
 62
   179
370
    25
100
AcDbLine
 10
175.6743963007
 20
317.8261468333
 30
0.0
 11
175.6743963007
 21
316.8261448067
 31
0.0
  0
LINE
  5
273
330
1B
100
AcDbEntity
 67
     1
  8
SLD-0_0
  6
SLD-実線
 62
   179
370
    25
100
AcDbLine
 10
175.6743963007
 20
326.8261501712
 30
0.0
 11
175.6743963007
 21
317.8261468333
 31
0.0
  0
LINE
  5
274
330
1B
100
AcDbEntity
 67
     1
  8
SLD-0_0
  6
SLD-実線
 62
   179
370
    25
100
AcDbLine
 10
235.6743964961
 20
317.8592570589
 30
0.0
 11
235.6743956655
 21
326.8261483537
 31
0.0
  0
LINE
  5
275
330
1B
100
AcDbEntity
 67
     1
  8
SLD-0_0
  6
SLD-実線
 62
   179
370
    25
100
AcDbLine
 10
263.1743931024
 20
306.8261436328
 30
0.0
 11
263.1743931024
 21
304.1547528609
 31
0.0
  0
LINE
  5
276
330
1B
100
AcDbEntity
 67
     1
  8
SLD-0_0
  6
SLD-実線
 62
   179
370
    25
100
AcDbLine
 10
180.6906532922
 20
343.8098920693
 30
0.0
 11
184.9071901718
 21
339.5933514644
 31
0.0
  0
LINE
  5
277
330
1B
100
AcDbEntity
 67
     1
  8
SLD-0_0
  6
SLD-実線
 62
   179
370
    25
100
AcDbLine
 10
226.4416042085
 20
339.5933533105
 30
0.0
 11
230.6581408529
 21
343.8098906681
 31
0.0
  0
LINE
  5
278
330
1B
100
AcDbEntity
 67
     1
  8
SLD-0_0
  6
SLD-実線
 62
   179
370
    25
100
AcDbLine
 10
263.1743961461
 20
459.7261452482
 30
0.0
 11
263.1743931024
 21
315.5379138097
 31
0.0
  0
LINE
  5
279
330
1B
100
AcDbEntity
 67
     1
  8
SLD-0_0
  6
SLD-実線
 62
   179
370
    25
100
AcDbLine
 10
183.4929742663
 20
331.8261452482
 30
0.0
 11
180.6743961461
 21
331.8261483537
 31
0.0
  0
LINE
  5
27A
330
1B
100
AcDbEntity
 67
     1
  8
SLD-0_0
  6
SLD-実線
 62
   179
370
    25
100
AcDbLine
 10
230.6743956655
 20
331.8261483537
 30
0.0
 11
227.8558168224
 21
331.8261452482
 31
0.0
  0
LINE
  5
27B
330
1B
100
AcDbEntity
 67
     1
  8
SLD-0_0
  6
SLD-実線
 62
   179
370
    25
100
AcDbLine
 10
269.6040435153
 20
502.7261447879
 30
0.0
 11
266.6073454934
 21
502.7261447879
 31
0.0
  0
LINE
  5
27C
330
1B
100
AcDbEntity
 67
     1
  8
SLD-0_0
  6
SLD-実線
 62
   179
370
    25
100
AcDbLine
 10
187.6743965595
 20
331.8261452482
 30
0.0
 11
183.4929742663
 21
331.8261452482
 31
0.0
  0
LINE
  5
27D
330
1B
100
AcDbEntity
 67
     1
  8
SLD-0_0
  6
SLD-実線
 62
   179
370
    25
100
AcDbLine
 10
184.9071901718
 20
339.5933514644
 30
0.0
 11
188.6743979023
 21
335.8261441995
 31
0.0
  0
LINE
  5
27E
330
1B
100
AcDbEntity
 67
     1
  8
SLD-0_0
  6
SLD-実線
 62
   179
370
    25
100
AcDbLine
 10
188.6743979023
 20
335.8261441995
 30
0.0
 11
188.6359682733
 21
335.8102297594
 31
0.0
  0
LINE
  5
27F
330
1B
100
AcDbEntity
 67
     1
  8
SLD-0_0
  6
SLD-実線
 62
   179
370
    25
100
AcDbLine
 10
188.6359682733
 20
335.8102297594
 30
0.0
 11
188.5221569294
 21
335.763089936
 31
0.0
  0
LINE
  5
280
330
1B
100
AcDbEntity
 67
     1
  8
SLD-0_0
  6
SLD-実線
 62
   179
370
    25
100
AcDbLine
 10
188.5221569294
 20
335.763089936
 30
0.0
 11
188.3373368958
 21
335.6865352203
 31
0.0
  0
LINE
  5
281
330
1B
100
AcDbEntity
 67
     1
  8
SLD-0_0
  6
SLD-実線
 62
   179
370
    25
100
AcDbLine
 10
188.3373368958
 20
335.6865352203
 30
0.0
 11
188.0886113697
 21
335.5835085918
 31
0.0
  0
LINE
  5
282
330
1B
100
AcDbEntity
 67
     1
  8
SLD-0_0
  6
SLD-実線
 62
   179
370
    25
100
AcDbLine
 10
188.0886113697
 20
335.5835085918
 30
0.0
 11
187.7855385149
 21
335.4579663088
 31
0.0
  0
LINE
  5
283
330
1B
100
AcDbEntity
 67
     1
  8
SLD-0_0
  6
SLD-実線
 62
   179
370
    25
100
AcDbLine
 10
187.7855385149
 20
335.4579663088
 30
0.0
 11
187.4397645199
 21
335.314743798
 31
0.0
  0
LINE
  5
284
330
1B
100
AcDbEntity
 67
     1
  8
SLD-0_0
  6
SLD-実線
 62
   179
370
    25
100
AcDbLine
 10
187.4397645199
 20
335.314743798
 30
0.0
 11
187.0645784268
 21
335.1593395879
 31
0.0
  0
LINE
  5
285
330
1B
100
AcDbEntity
 67
     1
  8
SLD-0_0
  6
SLD-実線
 62
   179
370
    25
100
AcDbLine
 10
187.0645784268
 20
335.1593395879
 30
0.0
 11
186.6743980402
 21
334.9977215936
 31
0.0
  0
LINE
  5
286
330
1B
100
AcDbEntity
 67
     1
  8
SLD-0_0
  6
SLD-実線
 62
   179
370
    25
100
AcDbLine
 10
188.6743979023
 20
335.8261441995
 30
0.0
 11
188.6743979023
 21
332.8261455705
 31
0.0
  0
LINE
  5
287
330
1B
100
AcDbEntity
 67
     1
  8
SLD-0_0
  6
SLD-実線
 62
   179
370
    25
100
AcDbLine
 10
224.6743970363
 20
334.9977201924
 30
0.0
 11
224.3270993977
 21
335.1415760025
 31
0.0
  0
LINE
  5
288
330
1B
100
AcDbEntity
 67
     1
  8
SLD-0_0
  6
SLD-実線
 62
   179
370
    25
100
AcDbLine
 10
224.3270993977
 20
335.1415760025
 30
0.0
 11
223.9903555064
 21
335.2810583219
 31
0.0
  0
LINE
  5
289
330
1B
100
AcDbEntity
 67
     1
  8
SLD-0_0
  6
SLD-実線
 62
   179
370
    25
100
AcDbLine
 10
223.9903555064
 20
335.2810583219
 30
0.0
 11
223.6743968724
 21
335.4119352206
 31
0.0
  0
LINE
  5
28A
330
1B
100
AcDbEntity
 67
     1
  8
SLD-0_0
  6
SLD-実線
 62
   179
370
    25
100
AcDbLine
 10
223.6743968724
 20
335.4119352206
 30
0.0
 11
223.3888217061
 21
335.5302206382
 31
0.0
  0
LINE
  5
28B
330
1B
100
AcDbEntity
 67
     1
  8
SLD-0_0
  6
SLD-実線
 62
   179
370
    25
100
AcDbLine
 10
223.3888217061
 20
335.5302206382
 30
0.0
 11
223.1423080712
 21
335.6323308453
 31
0.0
  0
LINE
  5
28C
330
1B
100
AcDbEntity
 67
     1
  8
SLD-0_0
  6
SLD-実線
 62
   179
370
    25
100
AcDbLine
 10
223.1423080712
 20
335.6323308453
 30
0.0
 11
222.9423456638
 21
335.7151589498
 31
0.0
  0
LINE
  5
28D
330
1B
100
AcDbEntity
 67
     1
  8
SLD-0_0
  6
SLD-実線
 62
   179
370
    25
100
AcDbLine
 10
222.9423456638
 20
335.7151589498
 30
0.0
 11
222.7950104325
 21
335.7761866554
 31
0.0
  0
LINE
  5
28E
330
1B
100
AcDbEntity
 67
     1
  8
SLD-0_0
  6
SLD-実線
 62
   179
370
    25
100
AcDbLine
 10
222.7950104325
 20
335.7761866554
 30
0.0
 11
222.7047801762
 21
335.8135587677
 31
0.0
  0
LINE
  5
28F
330
1B
100
AcDbEntity
 67
     1
  8
SLD-0_0
  6
SLD-実線
 62
   179
370
    25
100
AcDbLine
 10
222.7047801762
 20
335.8135587677
 30
0.0
 11
222.6743967085
 21
335.8261427983
 31
0.0
  0
LINE
  5
290
330
1B
100
AcDbEntity
 67
     1
  8
SLD-0_0
  6
SLD-実線
 62
   179
370
    25
100
AcDbLine
 10
222.6743967085
 20
335.8261427983
 30
0.0
 11
226.4416042085
 21
339.5933533105
 31
0.0
  0
LINE
  5
291
330
1B
100
AcDbEntity
 67
     1
  8
SLD-0_0
  6
SLD-実線
 62
   179
370
    25
100
AcDbLine
 10
222.6743967085
 20
332.8261441693
 30
0.0
 11
222.6743967085
 21
335.8261427983
 31
0.0
  0
LINE
  5
292
330
1B
100
AcDbEntity
 67
     1
  8
SLD-0_0
  6
SLD-実線
 62
   179
370
    25
100
AcDbLine
 10
227.8558168224
 20
331.8261452482
 30
0.0
 11
223.6743956655
 21
331.8261483537
 31
0.0
  0
LINE
  5
293
330
1B
100
AcDbEntity
 67
     1
  8
SLD-0_0
  6
SLD-実線
 62
   179
370
    25
100
AcDbLine
 10
266.6446053236
 20
515.7261482581
 30
0.0
 11
266.6735135763
 21
515.7261482581
 31
0.0
  0
LINE
  5
294
330
1B
100
AcDbEntity
 67
     1
  8
SLD-0_0
  6
SLD-実線
 62
   179
370
    25
100
AcDbLine
 10
268.8788258283
 20
514.7261462316
 30
0.0
 11
273.6743994801
 21
514.7261462316
 31
0.0
  0
LINE
  5
295
330
1B
100
AcDbEntity
 67
     1
  8
SLD-0_0
  6
SLD-実線
 62
   179
370
    25
100
AcDbLine
 10
269.6040435153
 20
502.7261447879
 30
0.0
 11
273.6744000035
 21
502.7261447879
 31
0.0
  0
LINE
  5
296
330
1B
100
AcDbEntity
 67
     1
  8
SLD-0_0
  6
SLD-実線
 62
   179
370
    25
100
AcDbLine
 10
275.6743966061
 20
512.7261427018
 30
0.0
 11
275.6743966061
 21
502.7261447879
 31
0.0
  0
LINE
  5
297
330
1B
100
AcDbEntity
 67
     1
  8
SLD-0_0
  6
SLD-実線
 62
   179
370
    25
100
AcDbLine
 10
275.6743966061
 20
502.7261447879
 30
0.0
 11
273.6744000035
 21
502.7261447879
 31
0.0
  0
LINE
  5
298
330
1B
100
AcDbEntity
 67
     1
  8
SLD-0_0
  6
SLD-実線
 62
   179
370
    25
100
AcDbLine
 10
232.6743946223
 20
227.0522552681
 30
0.0
 11
232.6743946223
 21
225.4029947471
 31
0.0
  0
LINE
  5
299
330
1B
100
AcDbEntity
 67
     1
  8
SLD-0_0
  6
SLD-実線
 62
   179
370
    25
100
AcDbLine
 10
236.674395278
 20
225.4029947471
 30
0.0
 11
236.674395278
 21
227.0110163045
 31
0.0
  0
LINE
  5
29A
330
1B
100
AcDbEntity
 67
     1
  8
SLD-0_0
  6
SLD-実線
 62
   179
370
    25
100
AcDbLine
 10
238.6743956058
 20
232.1598219823
 30
0.0
 11
238.6743956058
 21
232.4227157187
 31
0.0
  0
LINE
  5
29B
330
1B
100
AcDbEntity
 67
     1
  8
SLD-0_0
  6
SLD-実線
 62
   179
370
    25
100
AcDbLine
 10
238.6743956058
 20
232.4227157187
 30
0.0
 11
238.625236675
 21
232.6609107804
 31
0.0
  0
LINE
  5
29C
330
1B
100
AcDbEntity
 67
     1
  8
SLD-0_0
  6
SLD-実線
 62
   179
370
    25
100
AcDbLine
 10
174.6743962913
 20
226.8804076266
 30
0.0
 11
174.6743962913
 21
225.4029947471
 31
0.0
  0
LINE
  5
29D
330
1B
100
AcDbEntity
 67
     1
  8
SLD-0_0
  6
SLD-実線
 62
   179
370
    25
100
AcDbLine
 10
178.6743969469
 20
225.4029947471
 30
0.0
 11
178.6743969469
 21
227.0522552681
 31
0.0
  0
LINE
  5
29E
330
1B
100
AcDbEntity
 67
     1
  8
SLD-0_0
  6
SLD-実線
 62
   179
370
    25
100
AcDbLine
 10
172.6743959634
 20
232.4227157187
 30
0.0
 11
172.6743959634
 21
231.7658203792
 31
0.0
  0
LINE
  5
29F
330
1B
100
AcDbEntity
 67
     1
  8
SLD-0_0
  6
SLD-実線
 62
   179
370
    25
100
AcDbLine
 10
172.724963054
 20
232.5792747688
 30
0.0
 11
172.7020022272
 21
232.4505510878
 31
0.0
  0
LINE
  5
2A0
330
1B
100
AcDbEntity
 67
     1
  8
SLD-0_0
  6
SLD-実線
 62
   179
370
    25
100
AcDbLine
 10
195.174396159
 20
208.8681670975
 30
0.0
 11
195.174396159
 21
209.1978478384
 31
0.0
  0
LINE
  5
2A1
330
1B
100
AcDbEntity
 67
     1
  8
SLD-0_0
  6
SLD-実線
 62
   179
370
    25
100
AcDbLine
 10
209.1743963583
 20
208.8681670975
 30
0.0
 11
209.1743963583
 21
209.1978478384
 31
0.0
  0
LINE
  5
2A2
330
1B
100
AcDbEntity
 67
     1
  8
SLD-0_0
  6
SLD-実線
 62
   179
370
    25
100
AcDbLine
 10
202.1743961423
 20
209.1978478384
 30
0.0
 11
202.1743961423
 21
208.8681670975
 31
0.0
  0
LINE
  5
2A3
330
1B
100
AcDbEntity
 67
     1
  8
SLD-0_0
  6
SLD-実線
 62
   179
370
    25
100
AcDbLine
 10
216.1743965744
 20
209.1978478384
 30
0.0
 11
216.1743965744
 21
208.8681670975
 31
0.0
  0
LINE
  5
2A4
330
1B
100
AcDbEntity
 67
     1
  8
SLD-0_0
  6
SLD-実線
 62
   179
370
    25
100
AcDbLine
 10
208.6743962764
 20
209.2450398159
 30
0.0
 11
208.6743962764
 21
210.1974996876
 31
0.0
  0
LINE
  5
2A5
330
1B
100
AcDbEntity
 67
     1
  8
SLD-0_0
  6
SLD-実線
 62
   179
370
    25
100
AcDbLine
 10
202.6743962242
 20
210.1974996876
 30
0.0
 11
202.6743962242
 21
209.2450398159
 31
0.0
  0
LINE
  5
2A6
330
1B
100
AcDbEntity
 67
     1
  8
SLD-0_0
  6
SLD-実線
 62
   179
370
    25
100
AcDbLine
 10
235.6743969767
 20
232.5697976303
 30
0.0
 11
176.6743966191
 21
232.5697976303
 31
0.0
  0
LINE
  5
2A7
330
1B
100
AcDbEntity
 67
     1
  8
SLD-0_0
  6
SLD-実線
 62
   179
370
    25
100
AcDbLine
 10
226.8743970244
 20
233.9601877284
 30
0.0
 11
185.4743965714
 21
233.9601877284
 31
0.0
  0
LINE
  5
2A8
330
1B
100
AcDbEntity
 67
     1
  8
SLD-0_0
  6
SLD-実線
 62
   179
370
    25
100
AcDbLine
 10
236.674395278
 20
225.4029947471
 30
0.0
 11
236.5221538394
 21
225.1224878382
 31
0.0
  0
LINE
  5
2A9
330
1B
100
AcDbEntity
 67
     1
  8
SLD-0_0
  6
SLD-実線
 62
   179
370
    25
100
AcDbLine
 10
236.5221538394
 20
225.1224878382
 30
0.0
 11
236.0886082797
 21
224.8846876573
 31
0.0
  0
LINE
  5
2AA
330
1B
100
AcDbEntity
 67
     1
  8
SLD-0_0
  6
SLD-実線
 62
   179
370
    25
100
AcDbLine
 10
236.0886082797
 20
224.8846876573
 30
0.0
 11
235.4397632926
 21
224.7257891249
 31
0.0
  0
LINE
  5
2AB
330
1B
100
AcDbEntity
 67
     1
  8
SLD-0_0
  6
SLD-実線
 62
   179
370
    25
100
AcDbLine
 10
235.4397632926
 20
224.7257891249
 30
0.0
 11
234.6743949502
 21
224.6699917268
 31
0.0
  0
LINE
  5
2AC
330
1B
100
AcDbEntity
 67
     1
  8
SLD-0_0
  6
SLD-実線
 62
   179
370
    25
100
AcDbLine
 10
234.6743949502
 20
224.6699917268
 30
0.0
 11
233.9090303331
 21
224.7257891249
 31
0.0
  0
LINE
  5
2AD
330
1B
100
AcDbEntity
 67
     1
  8
SLD-0_0
  6
SLD-実線
 62
   179
370
    25
100
AcDbLine
 10
233.9090303331
 20
224.7257891249
 30
0.0
 11
233.2601816206
 21
224.8846876573
 31
0.0
  0
LINE
  5
2AE
330
1B
100
AcDbEntity
 67
     1
  8
SLD-0_0
  6
SLD-実線
 62
   179
370
    25
100
AcDbLine
 10
233.2601816206
 20
224.8846876573
 30
0.0
 11
232.826636061
 21
225.1224878382
 31
0.0
  0
LINE
  5
2AF
330
1B
100
AcDbEntity
 67
     1
  8
SLD-0_0
  6
SLD-実線
 62
   179
370
    25
100
AcDbLine
 10
232.826636061
 20
225.1224878382
 30
0.0
 11
232.6743946223
 21
225.4029947471
 31
0.0
  0
LINE
  5
2B0
330
1B
100
AcDbEntity
 67
     1
  8
SLD-0_0
  6
SLD-実線
 62
   179
370
    25
100
AcDbLine
 10
232.6743946223
 20
225.4029947471
 30
0.0
 11
232.826636061
 21
225.683501656
 31
0.0
  0
LINE
  5
2B1
330
1B
100
AcDbEntity
 67
     1
  8
SLD-0_0
  6
SLD-実線
 62
   179
370
    25
100
AcDbLine
 10
232.826636061
 20
225.683501656
 30
0.0
 11
233.2601816206
 21
225.9213092875
 31
0.0
  0
LINE
  5
2B2
330
1B
100
AcDbEntity
 67
     1
  8
SLD-0_0
  6
SLD-実線
 62
   179
370
    25
100
AcDbLine
 10
233.2601816206
 20
225.9213092875
 30
0.0
 11
233.9090303331
 21
226.0802003693
 31
0.0
  0
LINE
  5
2B3
330
1B
100
AcDbEntity
 67
     1
  8
SLD-0_0
  6
SLD-実線
 62
   179
370
    25
100
AcDbLine
 10
233.9090303331
 20
226.0802003693
 30
0.0
 11
234.6743949502
 21
226.1359977674
 31
0.0
  0
LINE
  5
2B4
330
1B
100
AcDbEntity
 67
     1
  8
SLD-0_0
  6
SLD-実線
 62
   179
370
    25
100
AcDbLine
 10
234.6743949502
 20
226.1359977674
 30
0.0
 11
235.4397632926
 21
226.0802003693
 31
0.0
  0
LINE
  5
2B5
330
1B
100
AcDbEntity
 67
     1
  8
SLD-0_0
  6
SLD-実線
 62
   179
370
    25
100
AcDbLine
 10
235.4397632926
 20
226.0802003693
 30
0.0
 11
236.0886082797
 21
225.9213092875
 31
0.0
  0
LINE
  5
2B6
330
1B
100
AcDbEntity
 67
     1
  8
SLD-0_0
  6
SLD-実線
 62
   179
370
    25
100
AcDbLine
 10
236.0886082797
 20
225.9213092875
 30
0.0
 11
236.5221538394
 21
225.683501656
 31
0.0
  0
LINE
  5
2B7
330
1B
100
AcDbEntity
 67
     1
  8
SLD-0_0
  6
SLD-実線
 62
   179
370
    25
100
AcDbLine
 10
236.5221538394
 20
225.683501656
 30
0.0
 11
236.674395278
 21
225.4029947471
 31
0.0
  0
LINE
  5
2B8
330
1B
100
AcDbEntity
 67
     1
  8
SLD-0_0
  6
SLD-実線
 62
   179
370
    25
100
AcDbLine
 10
230.8288075774
 20
232.7824521017
 30
0.0
 11
231.0095772891
 21
233.1288742971
 31
0.0
  0
LINE
  5
2B9
330
1B
100
AcDbEntity
 67
     1
  8
SLD-0_0
  6
SLD-実線
 62
   179
370
    25
100
AcDbLine
 10
231.0095772891
 20
233.1288742971
 30
0.0
 11
231.5569155662
 21
233.522577877
 31
0.0
  0
LINE
  5
2BA
330
1B
100
AcDbEntity
 67
     1
  8
SLD-0_0
  6
SLD-実線
 62
   179
370
    25
100
AcDbLine
 10
231.5569155662
 20
233.522577877
 30
0.0
 11
232.4094109981
 21
233.8350179743
 31
0.0
  0
LINE
  5
2BB
330
1B
100
AcDbEntity
 67
     1
  8
SLD-0_0
  6
SLD-実線
 62
   179
370
    25
100
AcDbLine
 10
232.4094109981
 20
233.8350179743
 30
0.0
 11
233.4836245327
 21
234.0356174063
 31
0.0
  0
LINE
  5
2BC
330
1B
100
AcDbEntity
 67
     1
  8
SLD-0_0
  6
SLD-実線
 62
   179
370
    25
100
AcDbLine
 10
233.4836245327
 20
234.0356174063
 30
0.0
 11
234.6743949502
 21
234.1047438931
 31
0.0
  0
LINE
  5
2BD
330
1B
100
AcDbEntity
 67
     1
  8
SLD-0_0
  6
SLD-実線
 62
   179
370
    25
100
AcDbLine
 10
234.6743949502
 20
234.1047438931
 30
0.0
 11
235.8651690929
 21
234.0356174063
 31
0.0
  0
LINE
  5
2BE
330
1B
100
AcDbEntity
 67
     1
  8
SLD-0_0
  6
SLD-実線
 62
   179
370
    25
100
AcDbLine
 10
235.8651690929
 20
234.0356174063
 30
0.0
 11
236.9393789022
 21
233.8350179743
 31
0.0
  0
LINE
  5
2BF
330
1B
100
AcDbEntity
 67
     1
  8
SLD-0_0
  6
SLD-実線
 62
   179
370
    25
100
AcDbLine
 10
236.9393789022
 20
233.8350179743
 30
0.0
 11
237.7918780594
 21
233.522577877
 31
0.0
  0
LINE
  5
2C0
330
1B
100
AcDbEntity
 67
     1
  8
SLD-0_0
  6
SLD-実線
 62
   179
370
    25
100
AcDbLine
 10
237.7918780594
 20
233.522577877
 30
0.0
 11
238.3392163365
 21
233.1288742971
 31
0.0
  0
LINE
  5
2C1
330
1B
100
AcDbEntity
 67
     1
  8
SLD-0_0
  6
SLD-実線
 62
   179
370
    25
100
AcDbLine
 10
238.3392163365
 20
233.1288742971
 30
0.0
 11
238.5065563767
 21
232.8406038832
 31
0.0
  0
LINE
  5
2C2
330
1B
100
AcDbEntity
 67
     1
  8
SLD-0_0
  6
SLD-実線
 62
   179
370
    25
100
AcDbLine
 10
178.6743969469
 20
225.4029947471
 30
0.0
 11
178.5221555083
 21
225.1224878382
 31
0.0
  0
LINE
  5
2C3
330
1B
100
AcDbEntity
 67
     1
  8
SLD-0_0
  6
SLD-実線
 62
   179
370
    25
100
AcDbLine
 10
178.5221555083
 20
225.1224878382
 30
0.0
 11
178.0886099487
 21
224.8846876573
 31
0.0
  0
LINE
  5
2C4
330
1B
100
AcDbEntity
 67
     1
  8
SLD-0_0
  6
SLD-実線
 62
   179
370
    25
100
AcDbLine
 10
178.0886099487
 20
224.8846876573
 30
0.0
 11
177.4397630989
 21
224.7257891249
 31
0.0
  0
LINE
  5
2C5
330
1B
100
AcDbEntity
 67
     1
  8
SLD-0_0
  6
SLD-実線
 62
   179
370
    25
100
AcDbLine
 10
177.4397630989
 20
224.7257891249
 30
0.0
 11
176.6743966191
 21
224.6699917268
 31
0.0
  0
LINE
  5
2C6
330
1B
100
AcDbEntity
 67
     1
  8
SLD-0_0
  6
SLD-実線
 62
   179
370
    25
100
AcDbLine
 10
176.6743966191
 20
224.6699917268
 30
0.0
 11
175.9090301393
 21
224.7257891249
 31
0.0
  0
LINE
  5
2C7
330
1B
100
AcDbEntity
 67
     1
  8
SLD-0_0
  6
SLD-実線
 62
   179
370
    25
100
AcDbLine
 10
175.9090301393
 20
224.7257891249
 30
0.0
 11
175.2601832895
 21
224.8846876573
 31
0.0
  0
LINE
  5
2C8
330
1B
100
AcDbEntity
 67
     1
  8
SLD-0_0
  6
SLD-実線
 62
   179
370
    25
100
AcDbLine
 10
175.2601832895
 20
224.8846876573
 30
0.0
 11
174.8266377299
 21
225.1224878382
 31
0.0
  0
LINE
  5
2C9
330
1B
100
AcDbEntity
 67
     1
  8
SLD-0_0
  6
SLD-実線
 62
   179
370
    25
100
AcDbLine
 10
174.8266377299
 20
225.1224878382
 30
0.0
 11
174.6743962913
 21
225.4029947471
 31
0.0
  0
LINE
  5
2CA
330
1B
100
AcDbEntity
 67
     1
  8
SLD-0_0
  6
SLD-実線
 62
   179
370
    25
100
AcDbLine
 10
174.6743962913
 20
225.4029947471
 30
0.0
 11
174.8266377299
 21
225.683501656
 31
0.0
  0
LINE
  5
2CB
330
1B
100
AcDbEntity
 67
     1
  8
SLD-0_0
  6
SLD-実線
 62
   179
370
    25
100
AcDbLine
 10
174.8266377299
 20
225.683501656
 30
0.0
 11
175.2601832895
 21
225.9213092875
 31
0.0
  0
LINE
  5
2CC
330
1B
100
AcDbEntity
 67
     1
  8
SLD-0_0
  6
SLD-実線
 62
   179
370
    25
100
AcDbLine
 10
175.2601832895
 20
225.9213092875
 30
0.0
 11
175.9090301393
 21
226.0802003693
 31
0.0
  0
LINE
  5
2CD
330
1B
100
AcDbEntity
 67
     1
  8
SLD-0_0
  6
SLD-実線
 62
   179
370
    25
100
AcDbLine
 10
175.9090301393
 20
226.0802003693
 30
0.0
 11
176.6743966191
 21
226.1359977674
 31
0.0
  0
LINE
  5
2CE
330
1B
100
AcDbEntity
 67
     1
  8
SLD-0_0
  6
SLD-実線
 62
   179
370
    25
100
AcDbLine
 10
176.6743966191
 20
226.1359977674
 30
0.0
 11
177.4397630989
 21
226.0802003693
 31
0.0
  0
LINE
  5
2CF
330
1B
100
AcDbEntity
 67
     1
  8
SLD-0_0
  6
SLD-実線
 62
   179
370
    25
100
AcDbLine
 10
177.4397630989
 20
226.0802003693
 30
0.0
 11
178.0886099487
 21
225.9213092875
 31
0.0
  0
LINE
  5
2D0
330
1B
100
AcDbEntity
 67
     1
  8
SLD-0_0
  6
SLD-実線
 62
   179
370
    25
100
AcDbLine
 10
178.0886099487
 20
225.9213092875
 30
0.0
 11
178.5221555083
 21
225.683501656
 31
0.0
  0
LINE
  5
2D1
330
1B
100
AcDbEntity
 67
     1
  8
SLD-0_0
  6
SLD-実線
 62
   179
370
    25
100
AcDbLine
 10
178.5221555083
 20
225.683501656
 30
0.0
 11
178.6743969469
 21
225.4029947471
 31
0.0
  0
LINE
  5
2D2
330
1B
100
AcDbEntity
 67
     1
  8
SLD-0_0
  6
SLD-実線
 62
   179
370
    25
100
AcDbLine
 10
172.8288073837
 20
232.7824521017
 30
0.0
 11
173.0095752328
 21
233.1288742971
 31
0.0
  0
LINE
  5
2D3
330
1B
100
AcDbEntity
 67
     1
  8
SLD-0_0
  6
SLD-実線
 62
   179
370
    25
100
AcDbLine
 10
173.0095752328
 20
233.1288742971
 30
0.0
 11
173.5569135099
 21
233.522577877
 31
0.0
  0
LINE
  5
2D4
330
1B
100
AcDbEntity
 67
     1
  8
SLD-0_0
  6
SLD-実線
 62
   179
370
    25
100
AcDbLine
 10
173.5569135099
 20
233.522577877
 30
0.0
 11
174.4094126671
 21
233.8350179743
 31
0.0
  0
LINE
  5
2D5
330
1B
100
AcDbEntity
 67
     1
  8
SLD-0_0
  6
SLD-実線
 62
   179
370
    25
100
AcDbLine
 10
174.4094126671
 20
233.8350179743
 30
0.0
 11
175.483624339
 21
234.0356174063
 31
0.0
  0
LINE
  5
2D6
330
1B
100
AcDbEntity
 67
     1
  8
SLD-0_0
  6
SLD-実線
 62
   179
370
    25
100
AcDbLine
 10
175.483624339
 20
234.0356174063
 30
0.0
 11
176.6743966191
 21
234.1047438931
 31
0.0
  0
LINE
  5
2D7
330
1B
100
AcDbEntity
 67
     1
  8
SLD-0_0
  6
SLD-実線
 62
   179
370
    25
100
AcDbLine
 10
176.6743966191
 20
234.1047438931
 30
0.0
 11
177.8651688992
 21
234.0356174063
 31
0.0
  0
LINE
  5
2D8
330
1B
100
AcDbEntity
 67
     1
  8
SLD-0_0
  6
SLD-実線
 62
   179
370
    25
100
AcDbLine
 10
177.8651688992
 20
234.0356174063
 30
0.0
 11
178.9393805711
 21
233.8350179743
 31
0.0
  0
LINE
  5
2D9
330
1B
100
AcDbEntity
 67
     1
  8
SLD-0_0
  6
SLD-実線
 62
   179
370
    25
100
AcDbLine
 10
178.9393805711
 20
233.8350179743
 30
0.0
 11
179.7918778657
 21
233.522577877
 31
0.0
  0
LINE
  5
2DA
330
1B
100
AcDbEntity
 67
     1
  8
SLD-0_0
  6
SLD-実線
 62
   179
370
    25
100
AcDbLine
 10
179.7918778657
 20
233.522577877
 30
0.0
 11
180.3392161428
 21
233.1288742971
 31
0.0
  0
LINE
  5
2DB
330
1B
100
AcDbEntity
 67
     1
  8
SLD-0_0
  6
SLD-実線
 62
   179
370
    25
100
AcDbLine
 10
180.3392161428
 20
233.1288742971
 30
0.0
 11
180.5065571143
 21
232.8406038832
 31
0.0
  0
LINE
  5
2DC
330
1B
100
AcDbEntity
 67
     1
  8
SLD-0_0
  6
SLD-実線
 62
   179
370
    25
100
AcDbLine
 10
194.7165867359
 20
208.8681670975
 30
0.0
 11
197.1743961376
 21
208.8681670975
 31
0.0
  0
LINE
  5
2DD
330
1B
100
AcDbEntity
 67
     1
  8
SLD-0_0
  6
SLD-実線
 62
   179
370
    25
100
AcDbLine
 10
197.1743961376
 20
208.8681670975
 30
0.0
 11
197.1743961376
 21
213.3666264963
 31
0.0
  0
LINE
  5
2DE
330
1B
100
AcDbEntity
 67
     1
  8
SLD-0_0
  6
SLD-実線
 62
   179
370
    25
100
AcDbLine
 10
200.1743962801
 20
213.3666264963
 30
0.0
 11
197.1743961376
 21
213.3666264963
 31
0.0
  0
LINE
  5
2DF
330
1B
100
AcDbEntity
 67
     1
  8
SLD-0_0
  6
SLD-実線
 62
   179
370
    25
100
AcDbLine
 10
200.1743962801
 20
208.8681670975
 30
0.0
 11
200.1743962801
 21
213.3666264963
 31
0.0
  0
LINE
  5
2E0
330
1B
100
AcDbEntity
 67
     1
  8
SLD-0_0
  6
SLD-実線
 62
   179
370
    25
100
AcDbLine
 10
200.1743962801
 20
208.8681670975
 30
0.0
 11
211.1743957548
 21
208.8681670975
 31
0.0
  0
LINE
  5
2E1
330
1B
100
AcDbEntity
 67
     1
  8
SLD-0_0
  6
SLD-実線
 62
   179
370
    25
100
AcDbLine
 10
211.1743957548
 20
208.8681670975
 30
0.0
 11
211.1743957548
 21
213.3666264963
 31
0.0
  0
LINE
  5
2E2
330
1B
100
AcDbEntity
 67
     1
  8
SLD-0_0
  6
SLD-実線
 62
   179
370
    25
100
AcDbLine
 10
214.1743962466
 20
213.3666264963
 30
0.0
 11
211.1743957548
 21
213.3666264963
 31
0.0
  0
LINE
  5
2E3
330
1B
100
AcDbEntity
 67
     1
  8
SLD-0_0
  6
SLD-実線
 62
   179
370
    25
100
AcDbLine
 10
214.1743962466
 20
208.8681670975
 30
0.0
 11
214.1743962466
 21
213.3666264963
 31
0.0
  0
LINE
  5
2E4
330
1B
100
AcDbEntity
 67
     1
  8
SLD-0_0
  6
SLD-実線
 62
   179
370
    25
100
AcDbLine
 10
214.1743962466
 20
208.8681670975
 30
0.0
 11
216.6322049498
 21
208.8681670975
 31
0.0
  0
LINE
  5
2E5
330
1B
100
AcDbEntity
 67
     1
  8
SLD-0_0
  6
SLD-実線
 62
   179
370
    25
100
AcDbLine
 10
208.6743962764
 20
202.3703965497
 30
0.0
 11
208.6743962764
 21
206.8688484978
 31
0.0
  0
LINE
  5
2E6
330
1B
100
AcDbEntity
 67
     1
  8
SLD-0_0
  6
SLD-実線
 62
   179
370
    25
100
AcDbLine
 10
208.6743962764
 20
206.8688484978
 30
0.0
 11
202.6743962242
 21
206.8688484978
 31
0.0
  0
LINE
  5
2E7
330
1B
100
AcDbEntity
 67
     1
  8
SLD-0_0
  6
SLD-実線
 62
   179
370
    25
100
AcDbLine
 10
202.6743962242
 20
206.8688484978
 30
0.0
 11
202.6743962242
 21
202.3703965497
 31
0.0
  0
LINE
  5
2E8
330
1B
100
AcDbEntity
 67
     1
  8
SLD-0_0
  6
SLD-実線
 62
   179
370
    25
100
AcDbLine
 10
204.1743964701
 20
200.8709075999
 30
0.0
 11
207.1743960305
 21
200.8709075999
 31
0.0
  0
LINE
  5
2E9
330
1B
100
AcDbEntity
 67
     1
  8
SLD-0_0
  6
SLD-実線
 62
   179
370
    25
100
AcDbLine
 10
202.6743962242
 20
206.1620715212
 30
0.0
 11
208.6743962764
 21
206.1620715212
 31
0.0
  0
LINE
  5
2EA
330
1B
100
AcDbEntity
 67
     1
  8
SLD-0_0
  6
SLD-実線
 62
   179
370
    25
100
AcDbLine
 10
194.6900264638
 20
209.2443469119
 30
0.0
 11
194.9847565311
 21
209.2275905561
 31
0.0
  0
LINE
  5
2EB
330
1B
100
AcDbEntity
 67
     1
  8
SLD-0_0
  6
SLD-実線
 62
   179
370
    25
100
AcDbLine
 10
194.9847565311
 20
209.2275905561
 30
0.0
 11
195.174396159
 21
209.1978478384
 31
0.0
  0
LINE
  5
2EC
330
1B
100
AcDbEntity
 67
     1
  8
SLD-0_0
  6
SLD-実線
 62
   179
370
    25
100
AcDbLine
 10
203.6743959225
 20
211.9244846654
 30
0.0
 11
203.6743959225
 21
211.9050311994
 31
0.0
  0
LINE
  5
2ED
330
1B
100
AcDbEntity
 67
     1
  8
SLD-0_0
  6
SLD-実線
 62
   179
370
    25
100
AcDbLine
 10
207.6743961125
 20
211.9050311994
 30
0.0
 11
207.6743961125
 21
211.9245517206
 31
0.0
  0
LINE
  5
2EE
330
1B
100
AcDbEntity
 67
     1
  8
SLD-0_0
  6
SLD-実線
 62
   179
370
    25
100
AcDbLine
 10
170.9743969886
 20
225.4029947471
 30
0.0
 11
170.9743969886
 21
197.8487360429
 31
0.0
  0
LINE
  5
2EF
330
1B
100
AcDbEntity
 67
     1
  8
SLD-0_0
  6
SLD-実線
 62
   179
370
    25
100
AcDbLine
 10
176.6743966191
 20
227.4920555901
 30
0.0
 11
175.5623807012
 21
227.4519118619
 31
0.0
  0
LINE
  5
2F0
330
1B
100
AcDbEntity
 67
     1
  8
SLD-0_0
  6
SLD-実線
 62
   179
370
    25
100
AcDbLine
 10
175.5623807012
 20
227.4519118619
 30
0.0
 11
174.4931013136
 21
227.3330378484
 31
0.0
  0
LINE
  5
2F1
330
1B
100
AcDbEntity
 67
     1
  8
SLD-0_0
  6
SLD-実線
 62
   179
370
    25
100
AcDbLine
 10
174.4931013136
 20
227.3330378484
 30
0.0
 11
173.5076465457
 21
227.1399858546
 31
0.0
  0
LINE
  5
2F2
330
1B
100
AcDbEntity
 67
     1
  8
SLD-0_0
  6
SLD-実線
 62
   179
370
    25
100
AcDbLine
 10
173.5076465457
 20
227.1399858546
 30
0.0
 11
172.6438876985
 21
226.8801841092
 31
0.0
  0
LINE
  5
2F3
330
1B
100
AcDbEntity
 67
     1
  8
SLD-0_0
  6
SLD-実線
 62
   179
370
    25
100
AcDbLine
 10
172.6438876985
 20
226.8801841092
 30
0.0
 11
171.9350189715
 21
226.5636163902
 31
0.0
  0
LINE
  5
2F4
330
1B
100
AcDbEntity
 67
     1
  8
SLD-0_0
  6
SLD-実線
 62
   179
370
    25
100
AcDbLine
 10
171.9350189715
 20
226.5636163902
 30
0.0
 11
171.4082834124
 21
226.2024420452
 31
0.0
  0
LINE
  5
2F5
330
1B
100
AcDbEntity
 67
     1
  8
SLD-0_0
  6
SLD-実線
 62
   179
370
    25
100
AcDbLine
 10
171.4082834124
 20
226.2024420452
 30
0.0
 11
171.0839205234
 21
225.8105489564
 31
0.0
  0
LINE
  5
2F6
330
1B
100
AcDbEntity
 67
     1
  8
SLD-0_0
  6
SLD-実線
 62
   179
370
    25
100
AcDbLine
 10
171.0839205234
 20
225.8105489564
 30
0.0
 11
170.9743969886
 21
225.4029947471
 31
0.0
  0
LINE
  5
2F7
330
1B
100
AcDbEntity
 67
     1
  8
SLD-0_0
  6
SLD-実線
 62
   179
370
    25
100
AcDbLine
 10
235.6743969767
 20
227.4920555901
 30
0.0
 11
176.6743966191
 21
227.4920555901
 31
0.0
  0
LINE
  5
2F8
330
1B
100
AcDbEntity
 67
     1
  8
SLD-0_0
  6
SLD-実線
 62
   179
370
    25
100
AcDbLine
 10
241.3743966072
 20
225.4029947471
 30
0.0
 11
241.2648730724
 21
225.8105489564
 31
0.0
  0
LINE
  5
2F9
330
1B
100
AcDbEntity
 67
     1
  8
SLD-0_0
  6
SLD-実線
 62
   179
370
    25
100
AcDbLine
 10
241.2648730724
 20
225.8105489564
 30
0.0
 11
240.9405083208
 21
226.2024420452
 31
0.0
  0
LINE
  5
2FA
330
1B
100
AcDbEntity
 67
     1
  8
SLD-0_0
  6
SLD-実線
 62
   179
370
    25
100
AcDbLine
 10
240.9405083208
 20
226.2024420452
 30
0.0
 11
240.4137746244
 21
226.5636163902
 31
0.0
  0
LINE
  5
2FB
330
1B
100
AcDbEntity
 67
     1
  8
SLD-0_0
  6
SLD-実線
 62
   179
370
    25
100
AcDbLine
 10
240.4137746244
 20
226.5636163902
 30
0.0
 11
239.7049040346
 21
226.8801841092
 31
0.0
  0
LINE
  5
2FC
330
1B
100
AcDbEntity
 67
     1
  8
SLD-0_0
  6
SLD-実線
 62
   179
370
    25
100
AcDbLine
 10
239.7049040346
 20
226.8801841092
 30
0.0
 11
238.8411470502
 21
227.1399858546
 31
0.0
  0
LINE
  5
2FD
330
1B
100
AcDbEntity
 67
     1
  8
SLD-0_0
  6
SLD-実線
 62
   179
370
    25
100
AcDbLine
 10
238.8411470502
 20
227.1399858546
 30
0.0
 11
237.8556922822
 21
227.3330378484
 31
0.0
  0
LINE
  5
2FE
330
1B
100
AcDbEntity
 67
     1
  8
SLD-0_0
  6
SLD-実線
 62
   179
370
    25
100
AcDbLine
 10
237.8556922822
 20
227.3330378484
 30
0.0
 11
236.786411032
 21
227.4519118619
 31
0.0
  0
LINE
  5
2FF
330
1B
100
AcDbEntity
 67
     1
  8
SLD-0_0
  6
SLD-実線
 62
   179
370
    25
100
AcDbLine
 10
236.786411032
 20
227.4519118619
 30
0.0
 11
235.6743969767
 21
227.4920555901
 31
0.0
  0
LINE
  5
300
330
1B
100
AcDbEntity
 67
     1
  8
SLD-0_0
  6
SLD-実線
 62
   179
370
    25
100
AcDbLine
 10
241.3743966072
 20
197.8487360429
 30
0.0
 11
241.3743966072
 21
225.4029947471
 31
0.0
  0
LINE
  5
301
330
1B
100
AcDbEntity
 67
     1
  8
SLD-0_0
  6
SLD-実線
 62
   179
370
    25
100
AcDbLine
 10
240.1743949204
 20
197.8487360429
 30
0.0
 11
240.1743949204
 21
225.4029947471
 31
0.0
  0
LINE
  5
302
330
1B
100
AcDbEntity
 67
     1
  8
SLD-0_0
  6
SLD-実線
 62
   179
370
    25
100
AcDbLine
 10
235.6743969767
 20
227.0522552681
 30
0.0
 11
236.5523026138
 21
227.0205604982
 31
0.0
  0
LINE
  5
303
330
1B
100
AcDbEntity
 67
     1
  8
SLD-0_0
  6
SLD-実線
 62
   179
370
    25
100
AcDbLine
 10
236.5523026138
 20
227.0205604982
 30
0.0
 11
237.3964720218
 21
226.926712985
 31
0.0
  0
LINE
  5
304
330
1B
100
AcDbEntity
 67
     1
  8
SLD-0_0
  6
SLD-実線
 62
   179
370
    25
100
AcDbLine
 10
237.3964720218
 20
226.926712985
 30
0.0
 11
238.1744616478
 21
226.7743039083
 31
0.0
  0
LINE
  5
305
330
1B
100
AcDbEntity
 67
     1
  8
SLD-0_0
  6
SLD-実線
 62
   179
370
    25
100
AcDbLine
 10
238.1744616478
 20
226.7743039083
 30
0.0
 11
238.8563760369
 21
226.5691968751
 31
0.0
  0
LINE
  5
306
330
1B
100
AcDbEntity
 67
     1
  8
SLD-0_0
  6
SLD-実線
 62
   179
370
    25
100
AcDbLine
 10
238.8563760369
 20
226.5691968751
 30
0.0
 11
239.416007772
 21
226.3192745995
 31
0.0
  0
LINE
  5
307
330
1B
100
AcDbEntity
 67
     1
  8
SLD-0_0
  6
SLD-実線
 62
   179
370
    25
100
AcDbLine
 10
239.416007772
 20
226.3192745995
 30
0.0
 11
239.8318544774
 21
226.0341408801
 31
0.0
  0
LINE
  5
308
330
1B
100
AcDbEntity
 67
     1
  8
SLD-0_0
  6
SLD-実線
 62
   179
370
    25
100
AcDbLine
 10
239.8318544774
 20
226.0341408801
 30
0.0
 11
240.0879309325
 21
225.7247480702
 31
0.0
  0
LINE
  5
309
330
1B
100
AcDbEntity
 67
     1
  8
SLD-0_0
  6
SLD-実線
 62
   179
370
    25
100
AcDbLine
 10
240.0879309325
 20
225.7247480702
 30
0.0
 11
240.1743949204
 21
225.4029947471
 31
0.0
  0
LINE
  5
30A
330
1B
100
AcDbEntity
 67
     1
  8
SLD-0_0
  6
SLD-実線
 62
   179
370
    25
100
AcDbLine
 10
235.6743969767
 20
227.0522552681
 30
0.0
 11
176.6743966191
 21
227.0522552681
 31
0.0
  0
LINE
  5
30B
330
1B
100
AcDbEntity
 67
     1
  8
SLD-0_0
  6
SLD-実線
 62
   179
370
    25
100
AcDbLine
 10
172.1743968128
 20
225.4029947471
 30
0.0
 11
172.2608626633
 21
225.7247480702
 31
0.0
  0
LINE
  5
30C
330
1B
100
AcDbEntity
 67
     1
  8
SLD-0_0
  6
SLD-実線
 62
   179
370
    25
100
AcDbLine
 10
172.2608626633
 20
225.7247480702
 30
0.0
 11
172.5169391184
 21
226.0341408801
 31
0.0
  0
LINE
  5
30D
330
1B
100
AcDbEntity
 67
     1
  8
SLD-0_0
  6
SLD-実線
 62
   179
370
    25
100
AcDbLine
 10
172.5169391184
 20
226.0341408801
 30
0.0
 11
172.9327820985
 21
226.3192745995
 31
0.0
  0
LINE
  5
30E
330
1B
100
AcDbEntity
 67
     1
  8
SLD-0_0
  6
SLD-実線
 62
   179
370
    25
100
AcDbLine
 10
172.9327820985
 20
226.3192745995
 30
0.0
 11
173.4924156963
 21
226.5691968751
 31
0.0
  0
LINE
  5
30F
330
1B
100
AcDbEntity
 67
     1
  8
SLD-0_0
  6
SLD-実線
 62
   179
370
    25
100
AcDbLine
 10
173.4924156963
 20
226.5691968751
 30
0.0
 11
174.1743300854
 21
226.7743039083
 31
0.0
  0
LINE
  5
310
330
1B
100
AcDbEntity
 67
     1
  8
SLD-0_0
  6
SLD-実線
 62
   179
370
    25
100
AcDbLine
 10
174.1743300854
 20
226.7743039083
 30
0.0
 11
174.952321574
 21
226.926712985
 31
0.0
  0
LINE
  5
311
330
1B
100
AcDbEntity
 67
     1
  8
SLD-0_0
  6
SLD-実線
 62
   179
370
    25
100
AcDbLine
 10
174.952321574
 20
226.926712985
 30
0.0
 11
175.7964891194
 21
227.0205604982
 31
0.0
  0
LINE
  5
312
330
1B
100
AcDbEntity
 67
     1
  8
SLD-0_0
  6
SLD-実線
 62
   179
370
    25
100
AcDbLine
 10
175.7964891194
 20
227.0205604982
 30
0.0
 11
176.6743966191
 21
227.0522552681
 31
0.0
  0
LINE
  5
313
330
1B
100
AcDbEntity
 67
     1
  8
SLD-0_0
  6
SLD-実線
 62
   179
370
    25
100
AcDbLine
 10
172.1743968128
 20
225.4029947471
 30
0.0
 11
172.1743968128
 21
197.8487360429
 31
0.0
  0
LINE
  5
314
330
1B
100
AcDbEntity
 67
     1
  8
SLD-0_0
  6
SLD-実線
 62
   179
370
    25
100
AcDbLine
 10
170.9743969886
 20
225.4029947471
 30
0.0
 11
170.9743969886
 21
229.4037926149
 31
0.0
  0
LINE
  5
315
330
1B
100
AcDbEntity
 67
     1
  8
SLD-0_0
  6
SLD-実線
 62
   179
370
    25
100
AcDbLine
 10
241.3743966071
 20
229.4037926149
 30
0.0
 11
241.3743966072
 21
225.4029947471
 31
0.0
  0
LINE
  5
316
330
1B
100
AcDbEntity
 67
     1
  8
SLD-0_0
  6
SLD-実線
 62
   179
370
    25
100
AcDbLine
 10
234.1743976622
 20
224.6932673406
 30
0.0
 11
234.1743976622
 21
197.8487360429
 31
0.0
  0
LINE
  5
317
330
1B
100
AcDbEntity
 67
     1
  8
SLD-0_0
  6
SLD-実線
 62
   179
370
    25
100
AcDbLine
 10
177.1743957697
 20
197.8487360429
 30
0.0
 11
177.1743957697
 21
224.6932673406
 31
0.0
  0
LINE
  5
318
330
1B
100
AcDbEntity
 67
     1
  8
SLD-0_0
  6
SLD-実線
 62
   179
370
    25
100
AcDbLine
 10
173.1743969767
 20
197.8487360429
 30
0.0
 11
173.1743969767
 21
226.4396163773
 31
0.0
  0
LINE
  5
319
330
1B
100
AcDbEntity
 67
     1
  8
SLD-0_0
  6
SLD-実線
 62
   179
370
    25
100
AcDbLine
 10
238.1743945925
 20
226.7743188095
 30
0.0
 11
238.1743945925
 21
197.8487360429
 31
0.0
  0
LINE
  5
31A
330
1B
100
AcDbEntity
 67
     1
  8
SLD-0_0
  6
SLD-実線
 62
   179
370
    25
100
AcDbLine
 10
178.6743969469
 20
225.8519443822
 30
0.0
 11
178.8175430893
 21
225.8986371708
 31
0.0
  0
LINE
  5
31B
330
1B
100
AcDbEntity
 67
     1
  8
SLD-0_0
  6
SLD-実線
 62
   179
370
    25
100
AcDbLine
 10
178.8175430893
 20
225.8986371708
 30
0.0
 11
178.9969772844
 21
225.9442719769
 31
0.0
  0
LINE
  5
31C
330
1B
100
AcDbEntity
 67
     1
  8
SLD-0_0
  6
SLD-実線
 62
   179
370
    25
100
AcDbLine
 10
182.2556144371
 20
226.9903707456
 30
0.0
 11
229.0931762009
 21
226.9903707456
 31
0.0
  0
LINE
  5
31D
330
1B
100
AcDbEntity
 67
     1
  8
SLD-0_0
  6
SLD-実線
 62
   179
370
    25
100
AcDbLine
 10
232.3518142848
 20
225.9442719769
 30
0.0
 11
232.5312503426
 21
225.8986371708
 31
0.0
  0
LINE
  5
31E
330
1B
100
AcDbEntity
 67
     1
  8
SLD-0_0
  6
SLD-実線
 62
   179
370
    25
100
AcDbLine
 10
232.5312503426
 20
225.8986371708
 30
0.0
 11
232.6743946223
 21
225.8519443822
 31
0.0
  0
LINE
  5
31F
330
1B
100
AcDbEntity
 67
     1
  8
SLD-0_0
  6
SLD-実線
 62
   179
370
    25
100
AcDbLine
 10
233.1743956356
 20
224.9181631159
 30
0.0
 11
233.1743956356
 21
197.8487360429
 31
0.0
  0
LINE
  5
320
330
1B
100
AcDbEntity
 67
     1
  8
SLD-0_0
  6
SLD-実線
 62
   179
370
    25
100
AcDbLine
 10
178.1743959336
 20
197.8487360429
 30
0.0
 11
178.1743959336
 21
224.9181631159
 31
0.0
  0
LINE
  5
321
330
1B
100
AcDbEntity
 67
     1
  8
SLD-0_0
  6
SLD-実線
 62
   179
370
    25
100
AcDbLine
 10
179.9743966012
 20
197.8487360429
 30
0.0
 11
179.9743966012
 21
223.0007561993
 31
0.0
  0
LINE
  5
322
330
1B
100
AcDbEntity
 67
     1
  8
SLD-0_0
  6
SLD-実線
 62
   179
370
    25
100
AcDbLine
 10
231.374394968
 20
223.0007561993
 30
0.0
 11
231.374394968
 21
197.8487360429
 31
0.0
  0
LINE
  5
323
330
1B
100
AcDbEntity
 67
     1
  8
SLD-0_0
  6
SLD-実線
 62
   179
370
    25
100
AcDbLine
 10
145.9768915635
 20
110.22092296
 30
0.0
 11
145.6653529864
 21
110.17158149
 31
0.0
  0
LINE
  5
324
330
1B
100
AcDbEntity
 67
     1
  8
SLD-0_0
  6
SLD-実線
 62
   179
370
    25
100
AcDbLine
 10
257.0911393314
 20
146.2076424759
 30
0.0
 11
256.7930666104
 21
146.310805362
 31
0.0
  0
LINE
  5
325
330
1B
100
AcDbEntity
 67
     1
  8
SLD-0_0
  6
SLD-実線
 62
   179
370
    25
100
AcDbLine
 10
147.8993188998
 20
106.8911801231
 30
0.0
 11
150.2087198942
 21
106.8911796507
 31
0.0
  0
LINE
  5
326
330
1B
100
AcDbEntity
 67
     1
  8
SLD-0_0
  6
SLD-実線
 62
   179
370
    25
100
AcDbLine
 10
152.5181204825
 20
106.8911801231
 30
0.0
 11
153.6728219154
 21
108.8911796507
 31
0.0
  0
LINE
  5
327
330
1B
100
AcDbEntity
 67
     1
  8
SLD-0_0
  6
SLD-実線
 62
   179
370
    25
100
AcDbLine
 10
147.8993191993
 20
114.891179387
 30
0.0
 11
146.7446185785
 21
112.891179466
 31
0.0
  0
LINE
  5
328
330
1B
100
AcDbEntity
 67
     1
  8
SLD-0_0
  6
SLD-実線
 62
   179
370
    25
100
AcDbLine
 10
152.5181202813
 20
114.8911790733
 30
0.0
 11
150.2087197875
 21
114.8911796507
 31
0.0
  0
LINE
  5
329
330
1B
100
AcDbEntity
 67
     1
  8
SLD-0_0
  6
SLD-実線
 62
   179
370
    25
100
AcDbLine
 10
261.2939485161
 20
140.1900590536
 30
0.0
 11
263.2543677632
 21
141.4107483425
 31
0.0
  0
LINE
  5
32A
330
1B
100
AcDbEntity
 67
     1
  8
SLD-0_0
  6
SLD-実線
 62
   179
370
    25
100
AcDbLine
 10
257.0653576261
 20
146.9811584495
 30
0.0
 11
257.1422923213
 21
144.6730393611
 31
0.0
  0
LINE
  5
32B
330
1B
100
AcDbEntity
 67
     1
  8
SLD-0_0
  6
SLD-実線
 62
   179
370
    25
100
AcDbLine
 10
265.2147868816
 20
142.6314374976
 30
0.0
 11
265.1378516045
 21
144.9395571818
 31
0.0
  0
LINE
  5
32C
330
1B
100
AcDbEntity
 67
     1
  8
SLD-0_0
  6
SLD-実線
 62
   179
370
    25
100
AcDbLine
 10
260.9861958147
 20
149.4225368371
 30
0.0
 11
259.0257766963
 21
148.2018467506
 31
0.0
  0
LINE
  5
32D
330
1B
100
AcDbEntity
 67
     1
  8
SLD-0_0
  6
SLD-実線
 62
   179
370
    25
100
AcDbLine
 10
186.4074365049
 20
179.314414705
 30
0.0
 11
188.7168372722
 21
179.3144143704
 31
0.0
  0
LINE
  5
32E
330
1B
100
AcDbEntity
 67
     1
  8
SLD-0_0
  6
SLD-実線
 62
   179
370
    25
100
AcDbLine
 10
184.098034604
 20
183.314416021
 30
0.0
 11
185.2527352758
 21
181.3144150307
 31
0.0
  0
LINE
  5
32F
330
1B
100
AcDbEntity
 67
     1
  8
SLD-0_0
  6
SLD-実線
 62
   179
370
    25
100
AcDbLine
 10
193.3356396059
 20
183.3144150301
 30
0.0
 11
192.1809385379
 21
185.3144149757
 31
0.0
  0
LINE
  5
330
330
1B
100
AcDbEntity
 67
     1
  8
SLD-0_0
  6
SLD-実線
 62
   179
370
    25
100
AcDbLine
 10
191.0262390126
 20
187.3144160163
 30
0.0
 11
188.7168381377
 21
187.3144143704
 31
0.0
  0
LINE
  5
331
330
1B
100
AcDbEntity
 67
     1
  8
SLD-0_0
  6
SLD-実線
 62
   179
370
    25
100
AcDbLine
 10
218.5572370062
 20
70.2082021803
 30
0.0
 11
220.5176587194
 21
68.9875139523
 31
0.0
  0
LINE
  5
332
330
1B
100
AcDbEntity
 67
     1
  8
SLD-0_0
  6
SLD-実線
 62
   179
370
    25
100
AcDbLine
 10
222.4780794977
 20
67.7668254029
 30
0.0
 11
224.5154388767
 21
68.8542543017
 31
0.0
  0
LINE
  5
333
330
1B
100
AcDbEntity
 67
     1
  8
SLD-0_0
  6
SLD-実線
 62
   179
370
    25
100
AcDbLine
 10
222.785829652
 20
76.9993018619
 30
0.0
 11
220.7484713607
 21
75.911871161
 31
0.0
  0
LINE
  5
334
330
1B
100
AcDbEntity
 67
     1
  8
SLD-0_0
  6
SLD-実線
 62
   179
370
    25
100
AcDbLine
 10
226.7066712359
 20
74.5579233484
 30
0.0
 11
224.7462498232
 21
75.7786123375
 31
0.0
  0
LINE
  5
335
330
1B
100
AcDbEntity
 67
     1
  8
SLD-0_0
  6
SLD-実線
 62
   179
370
    25
100
AcDbLine
 10
143.1743957846
 20
127.8487385243
 30
0.0
 11
143.1743957846
 21
123.3487387326
 31
0.0
  0
LINE
  5
336
330
1B
100
AcDbEntity
 67
     1
  8
SLD-0_0
  6
SLD-実線
 62
   179
370
    25
100
AcDbLine
 10
143.1743961461
 20
132.3487385246
 30
0.0
 11
143.1743957846
 21
127.8487385243
 31
0.0
  0
LINE
  5
337
330
1B
100
AcDbEntity
 67
     1
  8
SLD-0_0
  6
SLD-実線
 62
   179
370
    25
100
AcDbLine
 10
275.6743967009
 20
192.074901532
 30
0.0
 11
275.6743976558
 21
63.6225769433
 31
0.0
  0
LINE
  5
338
330
1B
100
AcDbEntity
 67
     1
  8
SLD-0_0
  6
SLD-実線
 62
   179
370
    25
100
AcDbLine
 10
269.9005604127
 20
57.8487395323
 30
0.0
 11
141.4482354693
 21
57.8487364546
 31
0.0
  0
LINE
  5
339
330
1B
100
AcDbEntity
 67
     1
  8
SLD-0_0
  6
SLD-実線
 62
   179
370
    25
100
AcDbLine
 10
135.6743961461
 20
63.6225756313
 30
0.0
 11
135.6743961461
 21
192.0749011588
 31
0.0
  0
LINE
  5
33A
330
1B
100
AcDbEntity
 67
     1
  8
SLD-0_0
  6
SLD-実線
 62
   179
370
    25
100
AcDbLine
 10
141.4482336927
 20
197.8487387441
 30
0.0
 11
269.9005594794
 21
197.8487387441
 31
0.0
  0
LINE
  5
33B
330
1B
100
AcDbEntity
 67
     1
  8
SLD-0_0
  6
SLD-実線
 62
   179
370
    25
100
AcDbLine
 10
120.6743948906
 20
112.8487388742
 30
0.0
 11
120.6743948906
 21
109.8487383824
 31
0.0
  0
LINE
  5
33C
330
1B
100
AcDbEntity
 67
     1
  8
SLD-0_0
  6
SLD-実線
 62
   179
370
    25
100
AcDbLine
 10
120.6743948906
 20
112.8487388742
 30
0.0
 11
120.6743948906
 21
142.8487382036
 31
0.0
  0
LINE
  5
33D
330
1B
100
AcDbEntity
 67
     1
  8
SLD-0_0
  6
SLD-実線
 62
   179
370
    25
100
AcDbLine
 10
135.6743948589
 20
107.8487374268
 30
0.0
 11
122.6743955183
 21
107.8487378968
 31
0.0
  0
LINE
  5
33E
330
1B
100
AcDbEntity
 67
     1
  8
SLD-0_0
  6
SLD-実線
 62
   179
370
    25
100
AcDbLine
 10
120.6743948906
 20
145.8487386953
 30
0.0
 11
120.6743948906
 21
142.8487382036
 31
0.0
  0
LINE
  5
33F
330
1B
100
AcDbEntity
 67
     1
  8
SLD-0_0
  6
SLD-実線
 62
   179
370
    25
100
AcDbLine
 10
122.6743955183
 20
147.8487391524
 30
0.0
 11
135.6743948589
 21
147.848739651
 31
0.0
  0
ARC
  5
340
330
1B
100
AcDbEntity
 67
     1
  8
SLD-0_0
  6
SLD-実線
 62
   179
370
    25
100
AcDbCircle
 10
194.8648388989
 20
459.4412882589
 30
0.0
 40
1.500000338239109
100
AcDbArc
 50
18.0
 51
85.000003707
  0
ARC
  5
341
330
1B
100
AcDbEntity
 67
     1
  8
SLD-0_0
  6
SLD-実線
 62
   179
370
    25
100
AcDbCircle
 10
216.4839541177
 20
459.4412883233
 30
0.0
 40
1.500000339306743
100
AcDbArc
 50
95.0000250042
 51
162.0000026017
  0
ARC
  5
342
330
1B
100
AcDbEntity
 67
     1
  8
SLD-0_0
  6
SLD-実線
 62
   179
370
    25
100
AcDbCircle
 10
169.9422023497
 20
613.7261452546
 30
0.0
 40
1.000000293350809
100
AcDbArc
 50
90.0
 51
178.742265539
  0
ARC
  5
343
330
1B
100
AcDbEntity
 67
     1
  8
SLD-0_0
  6
SLD-実線
 62
   179
370
    25
100
AcDbCircle
 10
271.1743971909
 20
525.7261426946
 30
0.0
 40
1.000000147100195
100
AcDbArc
 50
270.0
 51
0.0000529298
  0
ARC
  5
344
330
1B
100
AcDbEntity
 67
     1
  8
SLD-0_0
  6
SLD-実線
 62
   179
370
    25
100
AcDbCircle
 10
253.043359434
 20
616.2261452482
 30
0.0
 40
0.5000000000001137
100
AcDbArc
 50
1.9985287228
 51
90.0
  0
ARC
  5
345
330
1B
100
AcDbEntity
 67
     1
  8
SLD-0_0
  6
SLD-実線
 62
   179
370
    25
100
AcDbCircle
 10
158.3054328583
 20
616.2261452482
 30
0.0
 40
0.5000000000001227
100
AcDbArc
 50
90.0
 51
179.287378315
  0
ARC
  5
346
330
1B
100
AcDbEntity
 67
     1
  8
SLD-0_0
  6
SLD-実線
 62
   179
370
    25
100
AcDbCircle
 10
251.2551523527
 20
635.7261452482
 30
0.0
 40
1.0
100
AcDbArc
 50
1.398147763
 51
90.0
  0
ARC
  5
347
330
1B
100
AcDbEntity
 67
     1
  8
SLD-0_0
  6
SLD-実線
 62
   179
370
    25
100
AcDbCircle
 10
160.0936399396
 20
635.7261452482
 30
0.0
 40
1.0
100
AcDbArc
 50
90.0
 51
178.601852237
  0
ARC
  5
348
330
1B
100
AcDbEntity
 67
     1
  8
SLD-0_0
  6
SLD-実線
 62
   179
370
    25
100
AcDbCircle
 10
256.8244316557
 20
629.1430365645
 30
0.0
 40
5.999999003104077
100
AcDbArc
 50
1.5622249168
 51
85.7636002505
  0
ARC
  5
349
330
1B
100
AcDbEntity
 67
     1
  8
SLD-0_0
  6
SLD-実線
 62
   179
370
    25
100
AcDbCircle
 10
154.5243595932
 20
629.1430375851
 30
0.0
 40
5.999999029812482
100
AcDbArc
 50
94.2364066357
 51
178.4377750832
  0
ARC
  5
34A
330
1B
100
AcDbEntity
 67
     1
  8
SLD-0_0
  6
SLD-実線
 62
   179
370
    25
100
AcDbCircle
 10
258.0121017631
 20
613.7261466791
 30
0.0
 40
0.9999985691186063
100
AcDbArc
 50
1.5216334623
 51
90.0
  0
ARC
  5
34B
330
1B
100
AcDbEntity
 67
     1
  8
SLD-0_0
  6
SLD-実線
 62
   179
370
    25
100
AcDbCircle
 10
236.6743958853
 20
637.6548103354
 30
0.0
 40
0.9999999999999716
100
AcDbArc
 50
180.0
 51
212.9080947778
  0
ARC
  5
34C
330
1B
100
AcDbEntity
 67
     1
  8
SLD-0_0
  6
SLD-実線
 62
   179
370
    25
100
AcDbCircle
 10
174.6743961461
 20
637.6548109053
 30
0.0
 40
1.000000000000015
100
AcDbArc
 50
315.9742084044
 51
0.0
  0
ARC
  5
34D
330
1B
100
AcDbEntity
 67
     1
  8
SLD-0_0
  6
SLD-実線
 62
   179
370
    25
100
AcDbCircle
 10
234.6743963006
 20
637.7261446783
 30
0.0
 40
1.000000415304772
100
AcDbArc
 50
0.0002510011
 51
90.0
  0
ARC
  5
34E
330
1B
100
AcDbEntity
 67
     1
  8
SLD-0_0
  6
SLD-実線
 62
   179
370
    25
100
AcDbCircle
 10
176.6743963006
 20
637.7261452482
 30
0.0
 40
0.9999998454548125
100
AcDbArc
 50
90.0
 51
179.9997489986
  0
ARC
  5
34F
330
1B
100
AcDbEntity
 67
     1
  8
SLD-0_0
  6
SLD-実線
 62
   179
370
    25
100
AcDbCircle
 10
263.9071002564
 20
613.7261460947
 30
0.0
 40
0.9999991535055415
100
AcDbArc
 50
1.5762932643
 51
90.0
  0
ARC
  5
350
330
1B
100
AcDbEntity
 67
     1
  8
SLD-0_0
  6
SLD-実線
 62
   179
370
    25
100
AcDbCircle
 10
136.4703285815
 20
517.2261466531
 30
0.0
 40
0.5000000000000284
100
AcDbArc
 50
180.0
 51
270.0
  0
ARC
  5
351
330
1B
100
AcDbEntity
 67
     1
  8
SLD-0_0
  6
SLD-実線
 62
   179
370
    25
100
AcDbCircle
 10
267.564248588
 20
613.7261443242
 30
0.0
 40
1.000000924014898
100
AcDbArc
 50
1.5703090245
 51
90.0
  0
ARC
  5
352
330
1B
100
AcDbEntity
 67
     1
  8
SLD-0_0
  6
SLD-実線
 62
   179
370
    25
100
AcDbCircle
 10
143.5731915556
 20
613.7261452482
 30
0.0
 40
1.000000000000007
100
AcDbArc
 50
90.0
 51
178.4331139741
  0
ARC
  5
353
330
1B
100
AcDbEntity
 67
     1
  8
SLD-0_0
  6
SLD-実線
 62
   179
370
    25
100
AcDbCircle
 10
263.70639956
 20
615.2261442374
 30
0.0
 40
0.4999996134499504
100
AcDbArc
 50
181.5630562783
 51
235.4544397604
  0
ARC
  5
354
330
1B
100
AcDbEntity
 67
     1
  8
SLD-0_0
  6
SLD-実線
 62
   179
370
    25
100
AcDbCircle
 10
147.6423913009
 20
615.2261452686
 30
0.0
 40
0.499999252084431
100
AcDbArc
 50
337.2820162845
 51
358.4369414618
  0
ARC
  5
355
330
1B
100
AcDbEntity
 67
     1
  8
SLD-0_0
  6
SLD-実線
 62
   179
370
    25
100
AcDbCircle
 10
274.8784642689
 20
517.2261426946
 30
0.0
 40
0.5000000000001137
100
AcDbArc
 50
270.0
 51
0.0
  0
ARC
  5
356
330
1B
100
AcDbEntity
 67
     1
  8
SLD-0_0
  6
SLD-実線
 62
   179
370
    25
100
AcDbCircle
 10
265.6831687629
 20
305.8261452482
 30
0.0
 40
3.000000000000057
100
AcDbArc
 50
213.5604951183
 51
270.0
  0
ARC
  5
357
330
1B
100
AcDbEntity
 67
     1
  8
SLD-0_0
  6
SLD-実線
 62
   179
370
    25
100
AcDbCircle
 10
269.6743961461
 20
478.7261452482
 30
0.0
 40
3.0
100
AcDbArc
 50
180.0
 51
270.0
  0
ARC
  5
358
330
1B
100
AcDbEntity
 67
     1
  8
SLD-0_0
  6
SLD-実線
 62
   179
370
    25
100
AcDbCircle
 10
266.1743959654
 20
300.8261452482
 30
0.0
 40
1.999999819250206
100
AcDbArc
 50
0.000032269
 51
90.0
  0
ARC
  5
359
330
1B
100
AcDbEntity
 67
     1
  8
SLD-0_0
  6
SLD-実線
 62
   179
370
    25
100
AcDbCircle
 10
180.6743961461
 20
315.8261452482
 30
0.0
 40
1.0
100
AcDbArc
 50
270.0
 51
0.0
  0
ARC
  5
35A
330
1B
100
AcDbEntity
 67
     1
  8
SLD-0_0
  6
SLD-実線
 62
   179
370
    25
100
AcDbCircle
 10
230.6743965912
 20
315.8261448031
 30
0.0
 40
1.0
100
AcDbArc
 50
180.0
 51
270.0
  0
ARC
  5
35B
330
1B
100
AcDbEntity
 67
     1
  8
SLD-0_0
  6
SLD-実線
 62
   179
370
    25
100
AcDbCircle
 10
182.6743961461
 20
316.8261452482
 30
0.0
 40
1.000000000000028
100
AcDbArc
 50
90.0
 51
180.0
  0
ARC
  5
35C
330
1B
100
AcDbEntity
 67
     1
  8
SLD-0_0
  6
SLD-実線
 62
   179
370
    25
100
AcDbCircle
 10
228.6743965912
 20
316.8261448031
 30
0.0
 40
1.0
100
AcDbArc
 50
0.0
 51
90.0
  0
ARC
  5
35D
330
1B
100
AcDbEntity
 67
     1
  8
SLD-0_0
  6
SLD-実線
 62
   179
370
    25
100
AcDbCircle
 10
138.1743961461
 20
461.1554310339
 30
0.0
 40
5.0
100
AcDbArc
 50
0.0
 51
44.6526739853
  0
ARC
  5
35E
330
1B
100
AcDbEntity
 67
     1
  8
SLD-0_0
  6
SLD-実線
 62
   179
370
    25
100
AcDbCircle
 10
176.6743956878
 20
703.9700598926
 30
0.0
 40
73.38946804138655
100
AcDbArc
 50
269.5979318652
 51
270.4020681348
  0
ARC
  5
35F
330
1B
100
AcDbEntity
 67
     1
  8
SLD-0_0
  6
SLD-実線
 62
   179
370
    25
100
AcDbCircle
 10
176.7208269177
 20
632.5715184578
 30
0.0
 40
0.9770362765346656
100
AcDbArc
 50
298.6580867468
 51
327.2125312159
  0
ARC
  5
360
330
1B
100
AcDbEntity
 67
     1
  8
SLD-0_0
  6
SLD-実線
 62
   179
370
    25
100
AcDbCircle
 10
176.7328322743
 20
615.5243066082
 30
0.0
 40
16.53794036234662
100
AcDbArc
 50
83.3117697325
 51
87.1947974856
  0
ARC
  5
361
330
1B
100
AcDbEntity
 67
     1
  8
SLD-0_0
  6
SLD-実線
 62
   179
370
    25
100
AcDbCircle
 10
166.2204526207
 20
632.4288613304
 30
0.0
 40
12.44772509850153
100
AcDbArc
 50
357.7939157717
 51
2.2060842285
  0
ARC
  5
362
330
1B
100
AcDbEntity
 67
     1
  8
SLD-0_0
  6
SLD-実線
 62
   179
370
    25
100
AcDbCircle
 10
176.7329621732
 20
616.4868481607
 30
0.0
 40
16.5337358692659
100
AcDbArc
 50
83.3105143952
 51
87.1945342481
  0
ARC
  5
363
330
1B
100
AcDbEntity
 67
     1
  8
SLD-0_0
  6
SLD-実線
 62
   179
370
    25
100
AcDbCircle
 10
176.7207341425
 20
632.4715792417
 30
0.0
 40
0.9771682698046431
100
AcDbArc
 50
32.7894382392
 51
61.3399438069
  0
ARC
  5
364
330
1B
100
AcDbEntity
 67
     1
  8
SLD-0_0
  6
SLD-実線
 62
   179
370
    25
100
AcDbCircle
 10
176.6743956877
 20
625.6510677269
 30
0.0
 40
8.639619094458999
100
AcDbArc
 50
86.5826240156
 51
93.4173759847
  0
ARC
  5
365
330
1B
100
AcDbEntity
 67
     1
  8
SLD-0_0
  6
SLD-実線
 62
   179
370
    25
100
AcDbCircle
 10
176.6280630893
 20
632.4715776088
 30
0.0
 40
0.977172511419165
100
AcDbArc
 50
118.6603115862
 51
147.2106080834
  0
ARC
  5
366
330
1B
100
AcDbEntity
 67
     1
  8
SLD-0_0
  6
SLD-実線
 62
   179
370
    25
100
AcDbCircle
 10
176.6158038317
 20
616.4871760672
 30
0.0
 40
16.53340702284579
100
AcDbArc
 50
92.8054271076
 51
96.6895242425
  0
ARC
  5
367
330
1B
100
AcDbEntity
 67
     1
  8
SLD-0_0
  6
SLD-実線
 62
   179
370
    25
100
AcDbCircle
 10
187.1275025418
 20
632.4288613301
 30
0.0
 40
12.44688764399318
100
AcDbArc
 50
177.793767266
 51
182.2062327306
  0
ARC
  5
368
330
1B
100
AcDbEntity
 67
     1
  8
SLD-0_0
  6
SLD-実線
 62
   179
370
    25
100
AcDbCircle
 10
176.6159337225
 20
615.524634675
 30
0.0
 40
16.53761135547908
100
AcDbArc
 50
92.8051638742
 51
96.6882689077
  0
ARC
  5
369
330
1B
100
AcDbEntity
 67
     1
  8
SLD-0_0
  6
SLD-実線
 62
   179
370
    25
100
AcDbCircle
 10
176.6279703117
 20
632.5715200887
 30
0.0
 40
0.9770405150431106
100
AcDbArc
 50
212.7874224394
 51
241.3416578881
  0
ARC
  5
36A
330
1B
100
AcDbEntity
 67
     1
  8
SLD-0_0
  6
SLD-実線
 62
   179
370
    25
100
AcDbCircle
 10
176.6743961534
 20
631.6299876407
 30
0.0
 40
4.005809462303296
100
AcDbArc
 50
183.0860705638
 51
356.9139294362
  0
ARC
  5
36B
330
1B
100
AcDbEntity
 67
     1
  8
SLD-0_0
  6
SLD-実線
 62
   179
370
    25
100
AcDbCircle
 10
176.7146332465
 20
631.64997426
 30
0.0
 40
0.823789088869721
100
AcDbArc
 50
39.3263667748
 51
54.8081917551
  0
ARC
  5
36C
330
1B
100
AcDbEntity
 67
     1
  8
SLD-0_0
  6
SLD-実線
 62
   179
370
    25
100
AcDbCircle
 10
176.6342118575
 20
631.6499243607
 30
0.0
 40
0.8238608327050816
100
AcDbArc
 50
125.192861903
 51
140.6732347071
  0
ARC
  5
36D
330
1B
100
AcDbEntity
 67
     1
  8
SLD-0_0
  6
SLD-実線
 62
   179
370
    25
100
AcDbCircle
 10
176.6743956878
 20
631.8010548253
 30
0.0
 40
0.9003583313479953
100
AcDbArc
 50
235.1105781585
 51
304.8894218415
  0
ARC
  5
36E
330
1B
100
AcDbEntity
 67
     1
  8
SLD-0_0
  6
SLD-実線
 62
   179
370
    25
100
AcDbCircle
 10
176.6743956877
 20
631.5847425055
 30
0.0
 40
0.9003001126098004
100
AcDbArc
 50
55.1079944333
 51
124.8920055694
  0
ARC
  5
36F
330
1B
100
AcDbEntity
 67
     1
  8
SLD-0_0
  6
SLD-実線
 62
   179
370
    25
100
AcDbCircle
 10
234.7328614102
 20
615.5246775909
 30
0.0
 40
16.53756831662981
100
AcDbArc
 50
83.3117260375
 51
87.1948411806
  0
ARC
  5
370
330
1B
100
AcDbEntity
 67
     1
  8
SLD-0_0
  6
SLD-実線
 62
   179
370
    25
100
AcDbCircle
 10
224.2235227468
 20
632.4288613304
 30
0.0
 40
12.44465558067534
100
AcDbArc
 50
357.7933713642
 51
2.206628636
  0
ARC
  5
371
330
1B
100
AcDbEntity
 67
     1
  8
SLD-0_0
  6
SLD-実線
 62
   179
370
    25
100
AcDbCircle
 10
234.732991352
 20
616.4872196021
 30
0.0
 40
16.53336336323271
100
AcDbArc
 50
83.3104706232
 51
87.1945780187
  0
ARC
  5
372
330
1B
100
AcDbEntity
 67
     1
  8
SLD-0_0
  6
SLD-実線
 62
   179
370
    25
100
AcDbCircle
 10
234.7207492535
 20
632.4716025953
 30
0.0
 40
0.9771415163737677
100
AcDbArc
 50
32.7888198988
 51
61.3399587266
  0
ARC
  5
373
330
1B
100
AcDbEntity
 67
     1
  8
SLD-0_0
  6
SLD-実線
 62
   179
370
    25
100
AcDbCircle
 10
234.6743968128
 20
625.6510156695
 30
0.0
 40
8.639671114821134
100
AcDbArc
 50
86.5826384287
 51
93.4173615711
  0
ARC
  5
374
330
1B
100
AcDbEntity
 67
     1
  8
SLD-0_0
  6
SLD-実線
 62
   179
370
    25
100
AcDbCircle
 10
234.628082195
 20
632.4715526209
 30
0.0
 40
0.9772035083344237
100
AcDbArc
 50
118.6605818954
 51
147.2100360673
  0
ARC
  5
375
330
1B
100
AcDbEntity
 67
     1
  8
SLD-0_0
  6
SLD-実線
 62
   179
370
    25
100
AcDbCircle
 10
234.6158293961
 20
616.4868481607
 30
0.0
 40
16.53373586926235
100
AcDbArc
 50
92.8054657521
 51
96.6894856051
  0
ARC
  5
376
330
1B
100
AcDbEntity
 67
     1
  8
SLD-0_0
  6
SLD-実線
 62
   179
370
    25
100
AcDbCircle
 10
245.1314122854
 20
632.4288613307
 30
0.0
 40
12.45079615806766
100
AcDbArc
 50
177.794460185
 51
182.2055398176
  0
ARC
  5
377
330
1B
100
AcDbEntity
 67
     1
  8
SLD-0_0
  6
SLD-実線
 62
   179
370
    25
100
AcDbCircle
 10
234.6159592948
 20
615.5243066082
 30
0.0
 40
16.53794036234523
100
AcDbArc
 50
92.8052025144
 51
96.6882302673
  0
ARC
  5
378
330
1B
100
AcDbEntity
 67
     1
  8
SLD-0_0
  6
SLD-実線
 62
   179
370
    25
100
AcDbCircle
 10
234.6279894077
 20
632.5715450659
 30
0.0
 40
0.9770714977723367
100
AcDbArc
 50
212.7879943689
 51
241.3413876715
  0
ARC
  5
379
330
1B
100
AcDbEntity
 67
     1
  8
SLD-0_0
  6
SLD-実線
 62
   179
370
    25
100
AcDbCircle
 10
234.6743968127
 20
703.9705023668
 30
0.0
 40
73.38991051131683
100
AcDbArc
 50
269.5979335622
 51
270.4020664378
  0
ARC
  5
37A
330
1B
100
AcDbEntity
 67
     1
  8
SLD-0_0
  6
SLD-実線
 62
   179
370
    25
100
AcDbCircle
 10
234.7208420214
 20
632.5714951131
 30
0.0
 40
0.9770095343182685
100
AcDbArc
 50
298.6580718884
 51
327.2131494866
  0
ARC
  5
37B
330
1B
100
AcDbEntity
 67
     1
  8
SLD-0_0
  6
SLD-実線
 62
   179
370
    25
100
AcDbCircle
 10
234.6743949502
 20
631.6281718241
 30
0.0
 40
4.005712581259449
100
AcDbArc
 50
183.0601353057
 51
356.9398646943
  0
ARC
  5
37C
330
1B
100
AcDbEntity
 67
     1
  8
SLD-0_0
  6
SLD-実線
 62
   179
370
    25
100
AcDbCircle
 10
234.7145986993
 20
631.6499506207
 30
0.0
 40
0.8238295029587914
100
AcDbArc
 50
39.3261894257
 51
54.8070588348
  0
ARC
  5
37D
330
1B
100
AcDbEntity
 67
     1
  8
SLD-0_0
  6
SLD-実線
 62
   179
370
    25
100
AcDbCircle
 10
234.6342291811
 20
631.6498980947
 30
0.0
 40
0.8238921701880279
100
AcDbArc
 50
125.1927826885
 51
140.6726587876
  0
ARC
  5
37E
330
1B
100
AcDbEntity
 67
     1
  8
SLD-0_0
  6
SLD-実線
 62
   179
370
    25
100
AcDbCircle
 10
234.6743968128
 20
631.8010570742
 30
0.0
 40
0.9003607087820055
100
AcDbArc
 50
235.1106114064
 51
304.8893885936
  0
ARC
  5
37F
330
1B
100
AcDbEntity
 67
     1
  8
SLD-0_0
  6
SLD-実線
 62
   179
370
    25
100
AcDbCircle
 10
234.6743968128
 20
631.5847402567
 30
0.0
 40
0.9003024899087602
100
AcDbArc
 50
55.1080276824
 51
124.8919723162
  0
ARC
  5
380
330
1B
100
AcDbEntity
 67
     1
  8
SLD-0_0
  6
SLD-実線
 62
   179
370
    25
100
AcDbCircle
 10
234.6743968127
 20
619.3025067947
 30
0.0
 40
73.38991051131683
100
AcDbArc
 50
269.5979335622
 51
270.4020664378
  0
ARC
  5
381
330
1B
100
AcDbEntity
 67
     1
  8
SLD-0_0
  6
SLD-実線
 62
   179
370
    25
100
AcDbCircle
 10
234.7209220518
 20
547.9034135253
 30
0.0
 40
0.9768956752117528
100
AcDbArc
 50
298.6563724862
 51
327.2148488888
  0
ARC
  5
382
330
1B
100
AcDbEntity
 67
     1
  8
SLD-0_0
  6
SLD-実線
 62
   179
370
    25
100
AcDbCircle
 10
234.7328614103
 20
530.8566820187
 30
0.0
 40
16.5375683166361
100
AcDbArc
 50
83.3117260375
 51
87.1948411808
  0
ARC
  5
383
330
1B
100
AcDbEntity
 67
     1
  8
SLD-0_0
  6
SLD-実線
 62
   179
370
    25
100
AcDbCircle
 10
224.2235227469
 20
547.7608657582
 30
0.0
 40
12.44465558067534
100
AcDbArc
 50
357.7933713642
 51
2.206628636
  0
ARC
  5
384
330
1B
100
AcDbEntity
 67
     1
  8
SLD-0_0
  6
SLD-実線
 62
   179
370
    25
100
AcDbCircle
 10
234.7335750938
 20
531.8236003868
 30
0.0
 40
16.52894880134802
100
AcDbArc
 50
83.3107131637
 51
87.1958540494
  0
ARC
  5
385
330
1B
100
AcDbEntity
 67
     1
  8
SLD-0_0
  6
SLD-実線
 62
   179
370
    25
100
AcDbCircle
 10
234.7207270449
 20
547.8036071746
 30
0.0
 40
0.9771520351735375
100
AcDbArc
 50
32.7873727001
 51
61.338811801
  0
ARC
  5
386
330
1B
100
AcDbEntity
 67
     1
  8
SLD-0_0
  6
SLD-実線
 62
   179
370
    25
100
AcDbCircle
 10
234.6743968128
 20
540.9830200974
 30
0.0
 40
8.639671114821134
100
AcDbArc
 50
86.5826384287
 51
93.4173615711
  0
ARC
  5
387
330
1B
100
AcDbEntity
 67
     1
  8
SLD-0_0
  6
SLD-実線
 62
   179
370
    25
100
AcDbCircle
 10
234.6281043938
 20
547.8035572128
 30
0.0
 40
0.9772140115144557
100
AcDbArc
 50
118.6617285884
 51
147.2114834923
  0
ARC
  5
388
330
1B
100
AcDbEntity
 67
     1
  8
SLD-0_0
  6
SLD-実線
 62
   179
370
    25
100
AcDbCircle
 10
234.6152455636
 20
531.8232299633
 30
0.0
 40
16.52932028602144
100
AcDbArc
 50
92.8041896203
 51
96.6892431568
  0
ARC
  5
389
330
1B
100
AcDbEntity
 67
     1
  8
SLD-0_0
  6
SLD-実線
 62
   179
370
    25
100
AcDbCircle
 10
245.1314122854
 20
547.7608657576
 30
0.0
 40
12.45079615801276
100
AcDbArc
 50
177.7944601801
 51
182.2055398131
  0
ARC
  5
38A
330
1B
100
AcDbEntity
 67
     1
  8
SLD-0_0
  6
SLD-実線
 62
   179
370
    25
100
AcDbCircle
 10
234.6159592949
 20
530.8563110361
 30
0.0
 40
16.53794036234534
100
AcDbArc
 50
92.8052025144
 51
96.6882302673
  0
ARC
  5
38B
330
1B
100
AcDbEntity
 67
     1
  8
SLD-0_0
  6
SLD-実線
 62
   179
370
    25
100
AcDbCircle
 10
234.6279093699
 20
547.9034634691
 30
0.0
 40
0.9769576267873185
100
AcDbArc
 50
212.7862949995
 51
241.3430870369
  0
ARC
  5
38C
330
1B
100
AcDbEntity
 67
     1
  8
SLD-0_0
  6
SLD-実線
 62
   179
370
    25
100
AcDbCircle
 10
234.6743949502
 20
546.9619881715
 30
0.0
 40
4.005809717475699
100
AcDbArc
 50
183.0860145452
 51
356.9139854548
  0
ARC
  5
38D
330
1B
100
AcDbEntity
 67
     1
  8
SLD-0_0
  6
SLD-実線
 62
   179
370
    25
100
AcDbCircle
 10
234.7150050694
 20
546.9824432633
 30
0.0
 40
0.8231963237314919
100
AcDbArc
 50
39.3170260376
 51
54.8105889262
  0
ARC
  5
38E
330
1B
100
AcDbEntity
 67
     1
  8
SLD-0_0
  6
SLD-実線
 62
   179
370
    25
100
AcDbCircle
 10
234.6338227996
 20
546.9823907647
 30
0.0
 40
0.8232589620650874
100
AcDbArc
 50
125.1892531961
 51
140.681821565
  0
ARC
  5
38F
330
1B
100
AcDbEntity
 67
     1
  8
SLD-0_0
  6
SLD-実線
 62
   179
370
    25
100
AcDbCircle
 10
234.6743968128
 20
547.1330615021
 30
0.0
 40
0.9003607087820055
100
AcDbArc
 50
235.1106114064
 51
304.8893885936
  0
ARC
  5
390
330
1B
100
AcDbEntity
 67
     1
  8
SLD-0_0
  6
SLD-実線
 62
   179
370
    25
100
AcDbCircle
 10
234.6743968128
 20
546.9166737072
 30
0.0
 40
0.9003607087533108
100
AcDbArc
 50
55.1106114045
 51
124.8893885943
  0
ARC
  5
391
330
1B
100
AcDbEntity
 67
     1
  8
SLD-0_0
  6
SLD-実線
 62
   179
370
    25
100
AcDbCircle
 10
176.6743956878
 20
619.3020643205
 30
0.0
 40
73.38946804138655
100
AcDbArc
 50
269.5979318652
 51
270.4020681348
  0
ARC
  5
392
330
1B
100
AcDbEntity
 67
     1
  8
SLD-0_0
  6
SLD-実線
 62
   179
370
    25
100
AcDbCircle
 10
176.7209069558
 20
547.903436861
 30
0.0
 40
0.9769224057876298
100
AcDbArc
 50
298.6563872525
 51
327.2142307067
  0
ARC
  5
393
330
1B
100
AcDbEntity
 67
     1
  8
SLD-0_0
  6
SLD-実線
 62
   179
370
    25
100
AcDbCircle
 10
176.7328322743
 20
530.8563110361
 30
0.0
 40
16.53794036234582
100
AcDbArc
 50
83.3117697325
 51
87.1947974854
  0
ARC
  5
394
330
1B
100
AcDbEntity
 67
     1
  8
SLD-0_0
  6
SLD-実線
 62
   179
370
    25
100
AcDbCircle
 10
166.2204526207
 20
547.7608657583
 30
0.0
 40
12.44772509850151
100
AcDbArc
 50
357.7939157717
 51
2.2060842285
  0
ARC
  5
395
330
1B
100
AcDbEntity
 67
     1
  8
SLD-0_0
  6
SLD-実線
 62
   179
370
    25
100
AcDbCircle
 10
176.7335460045
 20
531.8232299634
 30
0.0
 40
16.52932028598934
100
AcDbArc
 50
83.310756839
 51
87.1958103756
  0
ARC
  5
396
330
1B
100
AcDbEntity
 67
     1
  8
SLD-0_0
  6
SLD-実線
 62
   179
370
    25
100
AcDbCircle
 10
176.7207119459
 20
547.8035838347
 30
0.0
 40
0.9771787709014367
100
AcDbArc
 50
32.7879907825
 51
61.3387971452
  0
ARC
  5
397
330
1B
100
AcDbEntity
 67
     1
  8
SLD-0_0
  6
SLD-実線
 62
   179
370
    25
100
AcDbCircle
 10
176.6743956878
 20
540.9830721548
 30
0.0
 40
8.639619094458883
100
AcDbArc
 50
86.5826240156
 51
93.4173759847
  0
ARC
  5
398
330
1B
100
AcDbEntity
 67
     1
  8
SLD-0_0
  6
SLD-実線
 62
   179
370
    25
100
AcDbCircle
 10
176.6280852929
 20
547.8035821944
 30
0.0
 40
0.9771830224246026
100
AcDbArc
 50
118.6614583906
 51
147.2120553942
  0
ARC
  5
399
330
1B
100
AcDbEntity
 67
     1
  8
SLD-0_0
  6
SLD-実線
 62
   179
370
    25
100
AcDbCircle
 10
176.6152200151
 20
531.8235577505
 30
0.0
 40
16.52899155979249
100
AcDbArc
 50
92.804150975
 51
96.6892818065
  0
ARC
  5
39A
330
1B
100
AcDbEntity
 67
     1
  8
SLD-0_0
  6
SLD-実線
 62
   179
370
    25
100
AcDbCircle
 10
187.1275025418
 20
547.7608657587
 30
0.0
 40
12.44688764398231
100
AcDbArc
 50
177.7937672694
 51
182.2062327339
  0
ARC
  5
39B
330
1B
100
AcDbEntity
 67
     1
  8
SLD-0_0
  6
SLD-実線
 62
   179
370
    25
100
AcDbCircle
 10
176.6159337226
 20
530.8566391029
 30
0.0
 40
16.53761135547914
100
AcDbArc
 50
92.8051638742
 51
96.6882689077
  0
ARC
  5
39C
330
1B
100
AcDbEntity
 67
     1
  8
SLD-0_0
  6
SLD-実線
 62
   179
370
    25
100
AcDbCircle
 10
176.6278902776
 20
547.9034384965
 30
0.0
 40
0.9769266500491586
100
AcDbArc
 50
212.7857230556
 51
241.343357274
  0
ARC
  5
39D
330
1B
100
AcDbEntity
 67
     1
  8
SLD-0_0
  6
SLD-実線
 62
   179
370
    25
100
AcDbCircle
 10
176.6743961534
 20
546.9619867162
 30
0.0
 40
4.005809174154782
100
AcDbArc
 50
183.0859941185
 51
356.9140058815
  0
ARC
  5
39E
330
1B
100
AcDbEntity
 67
     1
  8
SLD-0_0
  6
SLD-実線
 62
   179
370
    25
100
AcDbCircle
 10
176.7150395552
 20
546.9824668443
 30
0.0
 40
0.8231559937074313
100
AcDbArc
 50
39.3172035073
 51
54.8117217368
  0
ARC
  5
39F
330
1B
100
AcDbEntity
 67
     1
  8
SLD-0_0
  6
SLD-実線
 62
   179
370
    25
100
AcDbCircle
 10
176.6338054817
 20
546.9824170169
 30
0.0
 40
0.8232276390941938
100
AcDbArc
 50
125.1893321045
 51
140.6823977865
  0
ARC
  5
3A0
330
1B
100
AcDbEntity
 67
     1
  8
SLD-0_0
  6
SLD-実線
 62
   179
370
    25
100
AcDbCircle
 10
176.6743956878
 20
547.1330592532
 30
0.0
 40
0.9003583313479019
100
AcDbArc
 50
235.1105781585
 51
304.8894218415
  0
ARC
  5
3A1
330
1B
100
AcDbEntity
 67
     1
  8
SLD-0_0
  6
SLD-実線
 62
   179
370
    25
100
AcDbCircle
 10
176.6743956878
 20
546.9166759561
 30
0.0
 40
0.9003583313647032
100
AcDbArc
 50
55.1105781606
 51
124.8894218421
  0
ARC
  5
3A2
330
1B
100
AcDbEntity
 67
     1
  8
SLD-0_0
  6
SLD-実線
 62
   179
370
    25
100
AcDbCircle
 10
226.8752325104
 20
624.2894718476
 30
0.0
 40
4.999163546097814
100
AcDbArc
 50
0.0099364881
 51
90.009575566
  0
ARC
  5
3A3
330
1B
100
AcDbEntity
 67
     1
  8
SLD-0_0
  6
SLD-実線
 62
   179
370
    25
100
AcDbCircle
 10
185.4735604037
 20
624.2894706666
 30
0.0
 40
4.999164727256455
100
AcDbArc
 50
89.9904166228
 51
179.9900499787
  0
ARC
  5
3A4
330
1B
100
AcDbEntity
 67
     1
  8
SLD-0_0
  6
SLD-実線
 62
   179
370
    25
100
AcDbCircle
 10
235.8658138017
 20
544.7530413598
 30
0.0
 40
5.512422635998851
100
AcDbArc
 50
268.0100253196
 51
357.8613110821
  0
ARC
  5
3A5
330
1B
100
AcDbEntity
 67
     1
  8
SLD-0_0
  6
SLD-実線
 62
   179
370
    25
100
AcDbCircle
 10
176.4829770182
 20
544.7530383763
 30
0.0
 40
5.512419750735154
100
AcDbArc
 50
182.1386590061
 51
271.9900045924
  0
ARC
  5
3A6
330
1B
100
AcDbEntity
 67
     1
  8
SLD-0_0
  6
SLD-実線
 62
   179
370
    25
100
AcDbCircle
 10
223.5295921559
 20
525.7261425475
 30
0.0
 40
1.000000000000005
100
AcDbArc
 50
270.0
 51
0.5
  0
ARC
  5
3A7
330
1B
100
AcDbEntity
 67
     1
  8
SLD-0_0
  6
SLD-実線
 62
   179
370
    25
100
AcDbCircle
 10
187.8192022257
 20
525.7261419961
 30
0.0
 40
1.000000551400061
100
AcDbArc
 50
179.5
 51
270.0000118258
  0
ARC
  5
3A8
330
1B
100
AcDbEntity
 67
     1
  8
SLD-0_0
  6
SLD-実線
 62
   179
370
    25
100
AcDbCircle
 10
268.8429715267
 20
613.7261511159
 30
0.0
 40
0.9999966063273116
100
AcDbArc
 50
1.4999461192
 51
89.9981716797
  0
ARC
  5
3A9
330
1B
100
AcDbEntity
 67
     1
  8
SLD-0_0
  6
SLD-実線
 62
   179
370
    25
100
AcDbCircle
 10
142.5058126186
 20
613.7261625606
 30
0.0
 40
0.9999851613756611
100
AcDbArc
 50
90.0014029767
 51
178.5006926772
  0
ARC
  5
3AA
330
1B
100
AcDbEntity
 67
     1
  8
SLD-0_0
  6
SLD-実線
 62
   179
370
    25
100
AcDbCircle
 10
160.1082320591
 20
317.8154068717
 30
0.0
 40
3.001719829515753
100
AcDbArc
 50
325.5624575165
 51
359.9442599913
  0
ARC
  5
3AB
330
1B
100
AcDbEntity
 67
     1
  8
SLD-0_0
  6
SLD-実線
 62
   179
370
    25
100
AcDbCircle
 10
142.4699945501
 20
517.7229832633
 30
0.0
 40
2.996837031855694
100
AcDbArc
 50
269.9993779817
 51
287.5891356716
  0
ARC
  5
3AC
330
1B
100
AcDbEntity
 67
     1
  8
SLD-0_0
  6
SLD-実線
 62
   179
370
    25
100
AcDbCircle
 10
159.8615361897
 20
317.8253085732
 30
0.0
 40
2.999163743948071
100
AcDbArc
 50
270.0158601379
 51
0.015951773
  0
ARC
  5
3AD
330
1B
100
AcDbEntity
 67
     1
  8
SLD-0_0
  6
SLD-実線
 62
   179
370
    25
100
AcDbCircle
 10
122.6743961461
 20
472.7261452482
 30
0.0
 40
2.0
100
AcDbArc
 50
180.0
 51
269.9999999992
  0
ARC
  5
3AE
330
1B
100
AcDbEntity
 67
     1
  8
SLD-0_0
  6
SLD-実線
 62
   179
370
    25
100
AcDbCircle
 10
122.6743955183
 20
508.7261452482
 30
0.0
 40
2.000000627751747
100
AcDbArc
 50
90.0000000008
 51
179.999893281
  0
ARC
  5
3AF
330
1B
100
AcDbEntity
 67
     1
  8
SLD-0_0
  6
SLD-実線
 62
   179
370
    25
100
AcDbCircle
 10
187.6743951838
 20
315.826144286
 30
0.0
 40
1.0
100
AcDbArc
 50
180.0
 51
270.0
  0
ARC
  5
3B0
330
1B
100
AcDbEntity
 67
     1
  8
SLD-0_0
  6
SLD-実線
 62
   179
370
    25
100
AcDbCircle
 10
223.6743961461
 20
315.8261452482
 30
0.0
 40
1.0
100
AcDbArc
 50
270.0
 51
0.0
  0
ARC
  5
3B1
330
1B
100
AcDbEntity
 67
     1
  8
SLD-0_0
  6
SLD-実線
 62
   179
370
    25
100
AcDbCircle
 10
185.6743961461
 20
316.8261442859
 30
0.0
 40
0.9999992872534486
100
AcDbArc
 50
359.999787914
 51
89.9999950955
  0
ARC
  5
3B2
330
1B
100
AcDbEntity
 67
     1
  8
SLD-0_0
  6
SLD-実線
 62
   179
370
    25
100
AcDbCircle
 10
225.6743965912
 20
316.8261452482
 30
0.0
 40
0.9999995549034679
100
AcDbArc
 50
90.0
 51
180.0002120862
  0
ARC
  5
3B3
330
1B
100
AcDbEntity
 67
     1
  8
SLD-0_0
  6
SLD-実線
 62
   179
370
    25
100
AcDbCircle
 10
268.1743961461
 20
459.7261452482
 30
0.0
 40
5.0
100
AcDbArc
 50
90.0
 51
180.0
  0
ARC
  5
3B4
330
1B
100
AcDbEntity
 67
     1
  8
SLD-0_0
  6
SLD-実線
 62
   179
370
    25
100
AcDbCircle
 10
180.6743961461
 20
326.8261485083
 30
0.0
 40
4.999999845450154
100
AcDbArc
 50
90.0
 51
179.9999809446
  0
ARC
  5
3B5
330
1B
100
AcDbEntity
 67
     1
  8
SLD-0_0
  6
SLD-実線
 62
   179
370
    25
100
AcDbCircle
 10
230.6743956655
 20
326.8261483537
 30
0.0
 40
5.000000000000057
100
AcDbArc
 50
0.0
 51
90.0
  0
ARC
  5
3B6
330
1B
100
AcDbEntity
 67
     1
  8
SLD-0_0
  6
SLD-実線
 62
   179
370
    25
100
AcDbCircle
 10
187.6743962937
 20
332.8261468568
 30
0.0
 40
1.000001608550409
100
AcDbArc
 50
270.0000152313
 51
359.9999263037
  0
ARC
  5
3B7
330
1B
100
AcDbEntity
 67
     1
  8
SLD-0_0
  6
SLD-実線
 62
   179
370
    25
100
AcDbCircle
 10
223.6743964273
 20
332.8261480725
 30
0.0
 40
0.9999997188003308
100
AcDbArc
 50
180.0002236396
 51
269.9999563539
  0
ARC
  5
3B8
330
1B
100
AcDbEntity
 67
     1
  8
SLD-0_0
  6
SLD-実線
 62
   179
370
    25
100
AcDbCircle
 10
268.8787869398
 20
517.7228768109
 30
0.0
 40
2.996730579602115
100
AcDbArc
 50
254.1939667374
 51
270.0007435263
  0
ARC
  5
3B9
330
1B
100
AcDbEntity
 67
     1
  8
SLD-0_0
  6
SLD-実線
 62
   179
370
    25
100
AcDbCircle
 10
273.6743961461
 20
512.7261457716
 30
0.0
 40
2.000000460002575
100
AcDbArc
 50
359.9999120596
 51
89.999904488
  0
ARC
  5
3BA
330
1B
100
AcDbEntity
 67
     1
  8
SLD-0_0
  6
SLD-実線
 62
   179
370
    25
100
AcDbCircle
 10
234.6743961461
 20
227.8220828958
 30
0.0
 40
6.499999999999981
100
AcDbArc
 50
59.9457950223
 51
120.0542049777
  0
ARC
  5
3BB
330
1B
100
AcDbEntity
 67
     1
  8
SLD-0_0
  6
SLD-実線
 62
   179
370
    25
100
AcDbCircle
 10
176.6743961461
 20
227.8220828958
 30
0.0
 40
6.499999999999996
100
AcDbArc
 50
59.9457950223
 51
120.0542049777
  0
ARC
  5
3BC
330
1B
100
AcDbEntity
 67
     1
  8
SLD-0_0
  6
SLD-実線
 62
   179
370
    25
100
AcDbCircle
 10
207.1746501324
 20
202.3706537444
 30
0.0
 40
1.499746166028543
100
AcDbArc
 50
269.9902923798
 51
359.9901742223
  0
ARC
  5
3BD
330
1B
100
AcDbEntity
 67
     1
  8
SLD-0_0
  6
SLD-実線
 62
   179
370
    25
100
AcDbCircle
 10
204.1741416356
 20
202.3706530116
 30
0.0
 40
1.499745433333101
100
AcDbArc
 50
180.0097977858
 51
270.0097356116
  0
ARC
  5
3BE
330
1B
100
AcDbEntity
 67
     1
  8
SLD-0_0
  6
SLD-実線
 62
   179
370
    25
100
AcDbCircle
 10
205.6743962503
 20
162.7271544521
 30
0.0
 40
46.60231050666381
100
AcDbArc
 50
85.6928265181
 51
94.3071734819
  0
ARC
  5
3BF
330
1B
100
AcDbEntity
 67
     1
  8
SLD-0_0
  6
SLD-実線
 62
   179
370
    25
100
AcDbCircle
 10
216.6702107747
 20
206.5791012449
 30
0.0
 40
2.665270238100157
100
AcDbArc
 50
90.24602528
 51
100.7210578019
  0
ARC
  5
3C0
330
1B
100
AcDbEntity
 67
     1
  8
SLD-0_0
  6
SLD-実線
 62
   179
370
    25
100
AcDbCircle
 10
205.3343513424
 20
199.1128429415
 30
0.0
 40
13.10762348847246
100
AcDbArc
 50
90.6992122223
 51
92.2997720179
  0
ARC
  5
3C1
330
1B
100
AcDbEntity
 67
     1
  8
SLD-0_0
  6
SLD-実線
 62
   179
370
    25
100
AcDbCircle
 10
206.0144434654
 20
199.1129155271
 30
0.0
 40
13.1075508687381
100
AcDbArc
 50
87.7002253267
 51
89.3007980605
  0
ARC
  5
3C2
330
1B
100
AcDbEntity
 67
     1
  8
SLD-0_0
  6
SLD-実線
 62
   179
370
    25
100
AcDbCircle
 10
233.4173387829
 20
229.6214539813
 30
0.0
 40
3.399452092482405
100
AcDbArc
 50
236.1486667052
 51
257.3762234717
  0
ARC
  5
3C3
330
1B
100
AcDbEntity
 67
     1
  8
SLD-0_0
  6
SLD-実線
 62
   179
370
    25
100
AcDbCircle
 10
230.326234797
 20
225.1106815515
 30
0.0
 40
2.069264488814722
100
AcDbArc
 50
54.6411742634
 51
69.7666224053
  0
ARC
  5
3C4
330
1B
100
AcDbEntity
 67
     1
  8
SLD-0_0
  6
SLD-実線
 62
   179
370
    25
100
AcDbCircle
 10
181.0226292883
 20
225.1105439898
 30
0.0
 40
2.069418641213545
100
AcDbArc
 50
110.2339442415
 51
125.3582590889
  0
ARC
  5
3C5
330
1B
100
AcDbEntity
 67
     1
  8
SLD-0_0
  6
SLD-実線
 62
   179
370
    25
100
AcDbCircle
 10
177.9314562031
 20
229.6214460239
 30
0.0
 40
3.399443580701898
100
AcDbArc
 50
282.6237496444
 51
303.8513601781
  0
ARC
  5
3C6
330
1B
100
AcDbEntity
 67
     1
  8
SLD-0_0
  6
SLD-実線
 62
   179
370
    25
100
AcDbCircle
 10
178.1847087871
 20
230.4640536713
 30
0.0
 40
4.592189747480878
100
AcDbArc
 50
280.1881061256
 51
303.5893995879
  0
ARC
  5
3C7
330
1B
100
AcDbEntity
 67
     1
  8
SLD-0_0
  6
SLD-実線
 62
   179
370
    25
100
AcDbCircle
 10
182.0902380584
 20
224.2048168462
 30
0.0
 40
2.790458720934918
100
AcDbArc
 50
86.6023779464
 51
119.2848487002
  0
ARC
  5
3C8
330
1B
100
AcDbEntity
 67
     1
  8
SLD-0_0
  6
SLD-実線
 62
   179
370
    25
100
AcDbCircle
 10
229.2585550149
 20
224.2048274423
 30
0.0
 40
2.790448287748934
100
AcDbArc
 50
60.7150884892
 51
93.3976848641
  0
ARC
  5
3C9
330
1B
100
AcDbEntity
 67
     1
  8
SLD-0_0
  6
SLD-実線
 62
   179
370
    25
100
AcDbCircle
 10
233.1640877228
 20
230.4640693759
 30
0.0
 40
4.592206078346223
100
AcDbArc
 50
236.4106477856
 51
259.8118678612
  0
CIRCLE
  5
3CA
330
1B
100
AcDbEntity
 67
     1
  8
SLD-0_0
  6
SLD-実線
 62
   179
370
    25
100
AcDbCircle
 10
205.6739512756
 20
209.8329423249
 30
0.0
 40
10.99882975413561
  0
ARC
  5
3CB
330
1B
100
AcDbEntity
 67
     1
  8
SLD-0_0
  6
SLD-実線
 62
   179
370
    25
100
AcDbCircle
 10
205.6723871126
 20
209.7971699486
 30
0.0
 40
10.99799106007019
100
AcDbArc
 50
89.9895355042
 51
179.9908261556
  0
ARC
  5
3CC
330
1B
100
AcDbEntity
 67
     1
  8
SLD-0_0
  6
SLD-実線
 62
   179
370
    25
100
AcDbCircle
 10
205.6762507443
 20
209.7970158342
 30
0.0
 40
10.99814514745158
100
AcDbArc
 50
0.0099765879
 51
90.0096635713
  0
ARC
  5
3CD
330
1B
100
AcDbEntity
 67
     1
  8
SLD-0_0
  6
SLD-実線
 62
   179
370
    25
100
AcDbCircle
 10
150.2087203003
 20
110.8911796507
 30
0.0
 40
4.600000876292276
100
AcDbArc
 50
188.9999934985
 51
238.5475014023
  0
ARC
  5
3CE
330
1B
100
AcDbEntity
 67
     1
  8
SLD-0_0
  6
SLD-実線
 62
   179
370
    25
100
AcDbCircle
 10
150.2087203003
 20
110.8911796507
 30
0.0
 40
4.599999999999997
100
AcDbArc
 50
242.2993549497
 51
297.9445199804
  0
ARC
  5
3CF
330
1B
100
AcDbEntity
 67
     1
  8
SLD-0_0
  6
SLD-実線
 62
   179
370
    25
100
AcDbCircle
 10
150.2087203003
 20
110.8911796507
 30
0.0
 40
4.600000000000004
100
AcDbArc
 50
301.1830830838
 51
357.711089023
  0
ARC
  5
3D0
330
1B
100
AcDbEntity
 67
     1
  8
SLD-0_0
  6
SLD-実線
 62
   179
370
    25
100
AcDbCircle
 10
150.2087203003
 20
110.8911796507
 30
0.0
 40
4.600000000000016
100
AcDbArc
 50
2.4898963436
 51
117.4823371408
  0
ARC
  5
3D1
330
1B
100
AcDbEntity
 67
     1
  8
SLD-0_0
  6
SLD-実線
 62
   179
370
    25
100
AcDbCircle
 10
150.2087203003
 20
110.8911796507
 30
0.0
 40
4.600000000000034
100
AcDbArc
 50
121.8838477979
 51
180.0
  0
ARC
  5
3D2
330
1B
100
AcDbEntity
 67
     1
  8
SLD-0_0
  6
SLD-実線
 62
   179
370
    25
100
AcDbCircle
 10
261.140071992
 20
144.8062973985
 30
0.0
 40
4.600000000000024
100
AcDbArc
 50
160.909152433
 51
329.620241456
  0
ARC
  5
3D3
330
1B
100
AcDbEntity
 67
     1
  8
SLD-0_0
  6
SLD-実線
 62
   179
370
    25
100
AcDbCircle
 10
261.140071992
 20
144.8062973985
 30
0.0
 40
4.600000000000035
100
AcDbArc
 50
334.3990487766
 51
29.4311277931
  0
ARC
  5
3D4
330
1B
100
AcDbEntity
 67
     1
  8
SLD-0_0
  6
SLD-実線
 62
   179
370
    25
100
AcDbCircle
 10
261.140071992
 20
144.8062973985
 30
0.0
 40
4.600000000000009
100
AcDbArc
 50
31.2554739209
 51
89.3914895738
  0
ARC
  5
3D5
330
1B
100
AcDbEntity
 67
     1
  8
SLD-0_0
  6
SLD-実線
 62
   179
370
    25
100
AcDbCircle
 10
261.140071992
 20
144.8062973985
 30
0.0
 40
4.599999999999985
100
AcDbArc
 50
93.7930002309
 51
151.909152433
  0
ARC
  5
3D6
330
1B
100
AcDbEntity
 67
     1
  8
SLD-0_0
  6
SLD-実線
 62
   179
370
    25
100
AcDbCircle
 10
188.7168372722
 20
183.3144143704
 30
0.0
 40
4.600000000000023
100
AcDbArc
 50
69.0
 51
237.7110890229
  0
ARC
  5
3D7
330
1B
100
AcDbEntity
 67
     1
  8
SLD-0_0
  6
SLD-実線
 62
   179
370
    25
100
AcDbCircle
 10
188.7168372722
 20
183.3144143704
 30
0.0
 40
4.599999999999983
100
AcDbArc
 50
242.4898963436
 51
357.4823371409
  0
ARC
  5
3D8
330
1B
100
AcDbEntity
 67
     1
  8
SLD-0_0
  6
SLD-実線
 62
   179
370
    25
100
AcDbCircle
 10
188.7168372722
 20
183.3144143704
 30
0.0
 40
4.600000000000025
100
AcDbArc
 50
1.8838477979
 51
60.0
  0
ARC
  5
3D9
330
1B
100
AcDbEntity
 67
     1
  8
SLD-0_0
  6
SLD-実線
 62
   179
370
    25
100
AcDbCircle
 10
222.63195502
 20
72.3830626787
 30
0.0
 40
4.599999999999996
100
AcDbArc
 50
97.090847567
 51
265.80193659
  0
ARC
  5
3DA
330
1B
100
AcDbEntity
 67
     1
  8
SLD-0_0
  6
SLD-実線
 62
   179
370
    25
100
AcDbCircle
 10
222.63195502
 20
72.3830626787
 30
0.0
 40
4.600000000000058
100
AcDbArc
 50
270.5807439106
 51
25.5731847078
  0
ARC
  5
3DB
330
1B
100
AcDbEntity
 67
     1
  8
SLD-0_0
  6
SLD-実線
 62
   179
370
    25
100
AcDbCircle
 10
222.63195502
 20
72.3830626787
 30
0.0
 40
4.600000000000033
100
AcDbArc
 50
29.9746953649
 51
88.090847567
  0
ARC
  5
3DC
330
1B
100
AcDbEntity
 67
     1
  8
SLD-0_0
  6
SLD-実線
 62
   179
370
    25
100
AcDbCircle
 10
150.2087203003
 20
110.8911796507
 30
0.0
 40
3.999999999999992
100
AcDbArc
 50
269.9999941834
 51
330.0
  0
ARC
  5
3DD
330
1B
100
AcDbEntity
 67
     1
  8
SLD-0_0
  6
SLD-実線
 62
   179
370
    25
100
AcDbCircle
 10
150.2087203003
 20
110.8911796507
 30
0.0
 40
3.999999999999992
100
AcDbArc
 50
209.9999761646
 51
269.9999941834
  0
ARC
  5
3DE
330
1B
100
AcDbEntity
 67
     1
  8
SLD-0_0
  6
SLD-実線
 62
   179
370
    25
100
AcDbCircle
 10
150.2087203003
 20
110.8911796507
 30
0.0
 40
4.000000000000019
100
AcDbArc
 50
150.0000030549
 51
209.9999761646
  0
ARC
  5
3DF
330
1B
100
AcDbEntity
 67
     1
  8
SLD-0_0
  6
SLD-実線
 62
   179
370
    25
100
AcDbCircle
 10
150.2087203003
 20
110.8911796507
 30
0.0
 40
4.000000000000033
100
AcDbArc
 50
90.0000073446
 51
150.0000030549
  0
ARC
  5
3E0
330
1B
100
AcDbEntity
 67
     1
  8
SLD-0_0
  6
SLD-実線
 62
   179
370
    25
100
AcDbCircle
 10
150.2087203003
 20
110.8911796507
 30
0.0
 40
4.000000000000033
100
AcDbArc
 50
29.9999850274
 51
90.0000073446
  0
ARC
  5
3E1
330
1B
100
AcDbEntity
 67
     1
  8
SLD-0_0
  6
SLD-実線
 62
   179
370
    25
100
AcDbCircle
 10
150.2087203003
 20
110.8911796507
 30
0.0
 40
4.000000000000025
100
AcDbArc
 50
330.0
 51
29.9999850274
  0
ARC
  5
3E2
330
1B
100
AcDbEntity
 67
     1
  8
SLD-0_0
  6
SLD-実線
 62
   179
370
    25
100
AcDbCircle
 10
261.140071992
 20
144.8062973985
 30
0.0
 40
4.000000000000061
100
AcDbArc
 50
181.909134038
 51
241.9091415039
  0
ARC
  5
3E3
330
1B
100
AcDbEntity
 67
     1
  8
SLD-0_0
  6
SLD-実線
 62
   179
370
    25
100
AcDbCircle
 10
261.140071992
 20
144.8062973985
 30
0.0
 40
4.00000000000002
100
AcDbArc
 50
241.9091415039
 51
301.909152433
  0
ARC
  5
3E4
330
1B
100
AcDbEntity
 67
     1
  8
SLD-0_0
  6
SLD-実線
 62
   179
370
    25
100
AcDbCircle
 10
261.140071992
 20
144.8062973985
 30
0.0
 40
4.000000000000061
100
AcDbArc
 50
121.9091444094
 51
181.909134038
  0
ARC
  5
3E5
330
1B
100
AcDbEntity
 67
     1
  8
SLD-0_0
  6
SLD-実線
 62
   179
370
    25
100
AcDbCircle
 10
261.140071992
 20
144.8062973985
 30
0.0
 40
4.00000000000002
100
AcDbArc
 50
301.909152433
 51
1.9091590598
  0
ARC
  5
3E6
330
1B
100
AcDbEntity
 67
     1
  8
SLD-0_0
  6
SLD-実線
 62
   179
370
    25
100
AcDbCircle
 10
261.140071992
 20
144.8062973985
 30
0.0
 40
4.000000000000061
100
AcDbArc
 50
61.9091382163
 51
121.9091444094
  0
ARC
  5
3E7
330
1B
100
AcDbEntity
 67
     1
  8
SLD-0_0
  6
SLD-実線
 62
   179
370
    25
100
AcDbCircle
 10
261.140071992
 20
144.8062973985
 30
0.0
 40
4.00000000000002
100
AcDbArc
 50
1.9091590598
 51
61.9091382163
  0
ARC
  5
3E8
330
1B
100
AcDbEntity
 67
     1
  8
SLD-0_0
  6
SLD-実線
 62
   179
370
    25
100
AcDbCircle
 10
188.7168372722
 20
183.3144143704
 30
0.0
 40
3.999999999999972
100
AcDbArc
 50
209.9999890782
 51
270.0
  0
ARC
  5
3E9
330
1B
100
AcDbEntity
 67
     1
  8
SLD-0_0
  6
SLD-実線
 62
   179
370
    25
100
AcDbCircle
 10
188.7168372722
 20
183.3144143704
 30
0.0
 40
4.000000000000004
100
AcDbArc
 50
149.9999808933
 51
209.9999890782
  0
ARC
  5
3EA
330
1B
100
AcDbEntity
 67
     1
  8
SLD-0_0
  6
SLD-実線
 62
   179
370
    25
100
AcDbCircle
 10
188.7168372722
 20
183.3144143704
 30
0.0
 40
4.000000000000008
100
AcDbArc
 50
89.999987602
 51
149.9999808933
  0
ARC
  5
3EB
330
1B
100
AcDbEntity
 67
     1
  8
SLD-0_0
  6
SLD-実線
 62
   179
370
    25
100
AcDbCircle
 10
188.7168372722
 20
183.3144143704
 30
0.0
 40
4.000000000000008
100
AcDbArc
 50
30.0000100118
 51
89.999987602
  0
ARC
  5
3EC
330
1B
100
AcDbEntity
 67
     1
  8
SLD-0_0
  6
SLD-実線
 62
   179
370
    25
100
AcDbCircle
 10
188.7168372722
 20
183.3144143704
 30
0.0
 40
3.999999999999987
100
AcDbArc
 50
330.000005489
 51
30.0000100118
  0
ARC
  5
3ED
330
1B
100
AcDbEntity
 67
     1
  8
SLD-0_0
  6
SLD-実線
 62
   179
370
    25
100
AcDbCircle
 10
188.7168372722
 20
183.3144143704
 30
0.0
 40
3.999999999999976
100
AcDbArc
 50
270.0
 51
330.000005489
  0
ARC
  5
3EE
330
1B
100
AcDbEntity
 67
     1
  8
SLD-0_0
  6
SLD-実線
 62
   179
370
    25
100
AcDbCircle
 10
222.63195502
 20
72.3830626787
 30
0.0
 40
4.000000000000044
100
AcDbArc
 50
178.0908580146
 51
238.0908386333
  0
ARC
  5
3EF
330
1B
100
AcDbEntity
 67
     1
  8
SLD-0_0
  6
SLD-実線
 62
   179
370
    25
100
AcDbCircle
 10
222.63195502
 20
72.3830626787
 30
0.0
 40
4.000000000000021
100
AcDbArc
 50
238.0908386333
 51
298.090847567
  0
ARC
  5
3F0
330
1B
100
AcDbEntity
 67
     1
  8
SLD-0_0
  6
SLD-実線
 62
   179
370
    25
100
AcDbCircle
 10
222.63195502
 20
72.3830626787
 30
0.0
 40
4.000000000000044
100
AcDbArc
 50
118.0908443617
 51
178.0908580146
  0
ARC
  5
3F1
330
1B
100
AcDbEntity
 67
     1
  8
SLD-0_0
  6
SLD-実線
 62
   179
370
    25
100
AcDbCircle
 10
222.63195502
 20
72.3830626787
 30
0.0
 40
4.000000000000046
100
AcDbArc
 50
58.090863901
 51
118.0908443617
  0
ARC
  5
3F2
330
1B
100
AcDbEntity
 67
     1
  8
SLD-0_0
  6
SLD-実線
 62
   179
370
    25
100
AcDbCircle
 10
222.63195502
 20
72.3830626787
 30
0.0
 40
4.000000000000046
100
AcDbArc
 50
358.0908604975
 51
58.090863901
  0
ARC
  5
3F3
330
1B
100
AcDbEntity
 67
     1
  8
SLD-0_0
  6
SLD-実線
 62
   179
370
    25
100
AcDbCircle
 10
222.63195502
 20
72.3830626787
 30
0.0
 40
4.000000000000041
100
AcDbArc
 50
298.090847567
 51
358.0908604975
  0
CIRCLE
  5
3F4
330
1B
100
AcDbEntity
 67
     1
  8
SLD-0_0
  6
SLD-実線
 62
   179
370
    25
100
AcDbCircle
 10
205.6743966911
 20
127.8487386296
 30
0.0
 40
9.452691193458115
  0
CIRCLE
  5
3F5
330
1B
100
AcDbEntity
 67
     1
  8
SLD-0_0
  6
SLD-実線
 62
   179
370
    25
100
AcDbCircle
 10
205.6743966911
 20
127.8487386296
 30
0.0
 40
13.4526911934581
  0
CIRCLE
  5
3F6
330
1B
100
AcDbEntity
 67
     1
  8
SLD-0_0
  6
SLD-実線
 62
   179
370
    25
100
AcDbCircle
 10
205.6743966911
 20
127.8487386296
 30
0.0
 40
43.34730880654187
  0
ARC
  5
3F7
330
1B
100
AcDbEntity
 67
     1
  8
SLD-0_0
  6
SLD-実線
 62
   179
370
    25
100
AcDbCircle
 10
205.6743966911
 20
127.8487386296
 30
0.0
 40
62.50000000000001
100
AcDbArc
 50
287.9078077078
 51
16.0921922922
  0
ARC
  5
3F8
330
1B
100
AcDbEntity
 67
     1
  8
SLD-0_0
  6
SLD-実線
 62
   179
370
    25
100
AcDbCircle
 10
205.6743966911
 20
127.8487386296
 30
0.0
 40
62.50000000000007
100
AcDbArc
 50
18.2191263533
 51
106.0921922922
  0
ARC
  5
3F9
330
1B
100
AcDbEntity
 67
     1
  8
SLD-0_0
  6
SLD-実線
 62
   179
370
    25
100
AcDbCircle
 10
205.6743966911
 20
127.8487386296
 30
0.0
 40
62.50000000000006
100
AcDbArc
 50
107.9078077078
 51
196.4206292453
  0
ARC
  5
3FA
330
1B
100
AcDbEntity
 67
     1
  8
SLD-0_0
  6
SLD-実線
 62
   179
370
    25
100
AcDbCircle
 10
205.6743966911
 20
127.8487386296
 30
0.0
 40
62.50000000000001
100
AcDbArc
 50
197.9078077078
 51
286.1971039273
  0
CIRCLE
  5
3FB
330
1B
100
AcDbEntity
 67
     1
  8
SLD-0_0
  6
SLD-実線
 62
   179
370
    25
100
AcDbCircle
 10
205.6743966911
 20
127.8487386296
 30
0.0
 40
41.04730880654185
  0
CIRCLE
  5
3FC
330
1B
100
AcDbEntity
 67
     1
  8
SLD-0_0
  6
SLD-実線
 62
   179
370
    25
100
AcDbCircle
 10
205.6743966911
 20
127.8487386296
 30
0.0
 40
28.15269119345808
  0
CIRCLE
  5
3FD
330
1B
100
AcDbEntity
 67
     1
  8
SLD-0_0
  6
SLD-実線
 62
   179
370
    25
100
AcDbCircle
 10
205.6743966911
 20
127.8487386296
 30
0.0
 40
30.45269119345807
  0
ARC
  5
3FE
330
1B
100
AcDbEntity
 67
     1
  8
SLD-0_0
  6
SLD-実線
 62
   179
370
    25
100
AcDbCircle
 10
156.6743959654
 20
123.3487385246
 30
0.0
 40
13.50000018075002
100
AcDbArc
 50
179.9999991172
 51
196.5609161108
  0
ARC
  5
3FF
330
1B
100
AcDbEntity
 67
     1
  8
SLD-0_0
  6
SLD-実線
 62
   179
370
    25
100
AcDbCircle
 10
156.6743961461
 20
132.3487385246
 30
0.0
 40
13.5
100
AcDbArc
 50
164.2792647628
 51
180.0
  0
ARC
  5
400
330
1B
100
AcDbEntity
 67
     1
  8
SLD-0_0
  6
SLD-実線
 62
   179
370
    25
100
AcDbCircle
 10
140.791599212
 20
136.8193941308
 30
0.0
 40
2.999999999986438
100
AcDbArc
 50
344.2792647632
 51
352.1282256523
  0
ARC
  5
401
330
1B
100
AcDbEntity
 67
     1
  8
SLD-0_0
  6
SLD-実線
 62
   179
370
    25
100
AcDbCircle
 10
205.6743966911
 20
127.8487386296
 30
0.0
 40
64.0
100
AcDbArc
 50
183.8140748343
 51
196.6071923598
  0
ARC
  5
402
330
1B
100
AcDbEntity
 67
     1
  8
SLD-0_0
  6
SLD-実線
 62
   179
370
    25
100
AcDbCircle
 10
205.6743966911
 20
127.8487386296
 30
0.0
 40
64.00000000000001
100
AcDbArc
 50
163.3928076402
 51
176.1859251657
  0
ARC
  5
403
330
1B
100
AcDbEntity
 67
     1
  8
SLD-0_0
  6
SLD-実線
 62
   179
370
    25
100
AcDbCircle
 10
205.6743966911
 20
127.8487386296
 30
0.0
 40
64.00000000000001
100
AcDbArc
 50
176.1859251657
 51
183.8140748343
  0
ARC
  5
404
330
1B
100
AcDbEntity
 67
     1
  8
SLD-0_0
  6
SLD-実線
 62
   179
370
    25
100
AcDbCircle
 10
205.6743966911
 20
127.8487386296
 30
0.0
 40
63.99999999999999
100
AcDbArc
 50
196.6071923598
 51
163.3928076402
  0
CIRCLE
  5
405
330
1B
100
AcDbEntity
 67
     1
  8
SLD-0_0
  6
SLD-実線
 62
   179
370
    25
100
AcDbCircle
 10
265.778472547
 20
67.7446621237
 30
0.0
 40
5.0
  0
CIRCLE
  5
406
330
1B
100
AcDbEntity
 67
     1
  8
SLD-0_0
  6
SLD-実線
 62
   179
370
    25
100
AcDbCircle
 10
145.5703197453
 20
187.9528149254
 30
0.0
 40
5.0
  0
ARC
  5
407
330
1B
100
AcDbEntity
 67
     1
  8
SLD-0_0
  6
SLD-実線
 62
   179
370
    25
100
AcDbCircle
 10
205.6743966911
 20
127.8487386296
 30
0.0
 40
95.00000001334296
100
AcDbArc
 50
42.536898363
 51
47.4631017304
  0
ARC
  5
408
330
1B
100
AcDbEntity
 67
     1
  8
SLD-0_0
  6
SLD-実線
 62
   179
370
    25
100
AcDbCircle
 10
205.6743966911
 20
127.8487386296
 30
0.0
 40
94.99999989480433
100
AcDbArc
 50
312.5368990991
 51
317.4631025668
  0
ARC
  5
409
330
1B
100
AcDbEntity
 67
     1
  8
SLD-0_0
  6
SLD-実線
 62
   179
370
    25
100
AcDbCircle
 10
205.6743966911
 20
127.8487386296
 30
0.0
 40
95.00000047261584
100
AcDbArc
 50
222.5368981875
 51
227.4631032667
  0
ARC
  5
40A
330
1B
100
AcDbEntity
 67
     1
  8
SLD-0_0
  6
SLD-実線
 62
   179
370
    25
100
AcDbCircle
 10
205.6743966911
 20
127.8487386296
 30
0.0
 40
95.00000015538083
100
AcDbArc
 50
132.536898363
 51
137.4631020211
  0
ARC
  5
40B
330
1B
100
AcDbEntity
 67
     1
  8
SLD-0_0
  6
SLD-実線
 62
   179
370
    25
100
AcDbCircle
 10
122.6743955183
 20
109.8487385246
 30
0.0
 40
2.000000627750012
100
AcDbArc
 50
180.0000040737
 51
269.9999999992
  0
ARC
  5
40C
330
1B
100
AcDbEntity
 67
     1
  8
SLD-0_0
  6
SLD-実線
 62
   179
370
    25
100
AcDbCircle
 10
122.6743955183
 20
145.8487385246
 30
0.0
 40
2.000000627750005
100
AcDbArc
 50
90.0000000008
 51
179.9999951098
  0
SPLINE
  5
40D
330
1B
100
AcDbEntity
 67
     1
  8
SLD-0_0
  6
SLD-実線
 62
   179
370
    25
100
AcDbSpline
210
0.0
220
0.0
230
1.0
 70
     8
 71
     3
 72
    14
 73
    10
 74
     0
 42
0.000000001
 43
0.00000001
 40
0.0
 40
0.0
 40
0.0
 40
0.0
 40
0.0945600604066849
 40
0.2430270937457952
 40
0.3915206303204042
 40
0.5403999734208907
 40
0.6900595916663989
 40
0.8406517357674672
 40
1.0
 40
1.0
 40
1.0
 40
1.0
 10
241.3743966071816
 20
631.7216969236125
 30
0.0
 10
241.3617357125701
 20
631.9921053520137
 30
0.0
 10
241.3291961772904
 20
632.687077142387
 30
0.0
 10
241.0037966279156
 20
633.7757028461004
 30
0.0
 10
240.3601834633937
 20
634.8973039123255
 30
0.0
 10
239.4568485328813
 20
635.8457169156711
 30
0.0
 10
238.3471672666113
 20
636.5638351007653
 30
0.0
 10
237.0650548114755
 20
637.0484871936271
 30
0.0
 10
236.1465986834034
 20
637.1111491207387
 30
0.0
 10
235.6743969767304
 20
637.1433652147044
 30
0.0
  0
SPLINE
  5
40E
330
1B
100
AcDbEntity
 67
     1
  8
SLD-0_0
  6
SLD-実線
 62
   179
370
    25
100
AcDbSpline
210
0.0
220
0.0
230
1.0
 70
     8
 71
     3
 72
    13
 73
     9
 74
     0
 42
0.000000001
 43
0.00000001
 40
0.0
 40
0.0
 40
0.0
 40
0.0
 40
0.1081042398018093
 40
0.2870349698562201
 40
0.4664579510344141
 40
0.645653814980749
 40
0.8241168713644763
 40
1.0
 40
1.0
 40
1.0
 40
1.0
 10
176.6743966191026
 20
637.1433652147044
 30
0.0
 10
176.4022606019204
 20
637.1323014777947
 30
0.0
 10
175.6796936273793
 20
637.1029253923039
 30
0.0
 10
174.5343237354041
 20
636.7996926323734
 30
0.0
 10
173.3316049945595
 20
636.1795728400858
 30
0.0
 10
172.3219176706769
 20
635.2982021794544
 30
0.0
 10
171.5390709496821
 20
634.2224669501779
 30
0.0
 10
171.2678112270471
 20
633.397365706496
 30
0.0
 10
171.1331688611718
 20
632.9878187879312
 30
0.0
  0
SPLINE
  5
40F
330
1B
100
AcDbEntity
 67
     1
  8
SLD-0_0
  6
SLD-実線
 62
   179
370
    25
100
AcDbSpline
210
0.0
220
0.0
230
1.0
 70
     8
 71
     3
 72
    12
 73
     8
 74
     0
 42
0.000000001
 43
0.00000001
 40
0.0
 40
0.0
 40
0.0
 40
0.0
 40
0.0766817823625189
 40
0.2569688242134298
 40
0.5263940616041705
 40
0.8656413856254552
 40
1.0
 40
1.0
 40
1.0
 40
1.0
 10
253.0225113778265
 20
616.7266286119643
 30
0.0
 10
253.0202421497474
 20
616.7266916965998
 30
0.0
 10
253.0126377246363
 20
616.7269030999353
 30
0.0
 10
252.9540765299087
 20
616.737036877996
 30
0.0
 10
252.8442797222467
 20
616.7905600649526
 30
0.0
 10
252.7534853994085
 20
616.8937478654918
 30
0.0
 10
252.7359720878112
 20
616.9514261019399
 30
0.0
 10
252.7310036866816
 20
616.9677890047255
 30
0.0
  0
SPLINE
  5
410
330
1B
100
AcDbEntity
 67
     1
  8
SLD-0_0
  6
SLD-実線
 62
   179
370
    25
100
AcDbSpline
210
0.0
220
0.0
230
1.0
 70
     8
 71
     3
 72
    13
 73
     9
 74
     0
 42
0.000000001
 43
0.00000001
 40
0.0
 40
0.0
 40
0.0
 40
0.0
 40
0.009570189380521
 40
0.2482817162888581
 40
0.5929972615140667
 40
0.8179331362986136
 40
0.9713853943859878
 40
0.9999999999999999
 40
0.9999999999999999
 40
0.9999999999999999
 40
0.9999999999999999
 10
158.6236552148016
 20
616.9744647249404
 30
0.0
 10
158.6234269706987
 20
616.9734438666491
 30
0.0
 10
158.6175055792456
 20
616.9469594953797
 30
0.0
 10
158.5662728363218
 20
616.8483941264515
 30
0.0
 10
158.4478427585676
 20
616.7558438309352
 30
0.0
 10
158.3528146950046
 20
616.7272255641151
 30
0.0
 10
158.3171631362911
 20
616.7262574287389
 30
0.0
 10
158.3217968409226
 20
616.7261146154625
 30
0.0
 10
158.3225250988157
 20
616.7260921701615
 30
0.0
  0
SPLINE
  5
411
330
1B
100
AcDbEntity
 67
     1
  8
SLD-0_0
  6
SLD-実線
 62
   179
370
    25
100
AcDbSpline
210
0.0
220
0.0
230
1.0
 70
     8
 71
     3
 72
     9
 73
     5
 74
     0
 42
0.000000001
 43
0.00000001
 40
0.0
 40
0.0
 40
0.0
 40
0.0
 40
0.4525755223867138
 40
1.0
 40
1.0
 40
1.0
 40
1.0
 10
252.7340807764681
 20
616.9656581386748
 30
0.0
 10
252.7263952955867
 20
616.9831002112755
 30
0.0
 10
252.709413641694
 20
617.0216397958044
 30
0.0
 10
252.7115503018351
 20
617.0338033439037
 30
0.0
 10
252.7127199618967
 20
617.0404619678679
 30
0.0
  0
SPLINE
  5
412
330
1B
100
AcDbEntity
 67
     1
  8
SLD-0_0
  6
SLD-実線
 62
   179
370
    25
100
AcDbSpline
210
0.0
220
0.0
230
1.0
 70
     8
 71
     3
 72
     9
 73
     5
 74
     0
 42
0.000000001
 43
0.00000001
 40
0.0
 40
0.0
 40
0.0
 40
0.0
 40
0.9960055356832955
 40
1.0
 40
1.0
 40
1.0
 40
1.0
 10
158.6373940854223
 20
617.0460350021544
 30
0.0
 10
158.6407963171881
 20
617.0272028993816
 30
0.0
 10
158.64421219355
 20
617.0082952707604
 30
0.0
 10
158.6236627928435
 20
616.9734564977641
 30
0.0
 10
158.6235807089956
 20
616.9733173355285
 30
0.0
  0
SPLINE
  5
413
330
1B
100
AcDbEntity
 67
     1
  8
SLD-0_0
  6
SLD-実線
 62
   179
370
    25
100
AcDbSpline
210
0.0
220
0.0
230
1.0
 70
     8
 71
     3
 72
    11
 73
     7
 74
     0
 42
0.000000001
 43
0.00000001
 40
0.0
 40
0.0
 40
0.0
 40
0.0
 40
0.2596613309085653
 40
0.545195546791503
 40
0.8642686060592031
 40
1.0
 40
1.0
 40
1.0
 40
1.0
 10
259.2564978449495
 20
614.7347307905379
 30
0.0
 10
259.2369909194615
 20
614.7317642675815
 30
0.0
 10
259.1960333811539
 20
614.7255356346935
 30
0.0
 10
259.1656545489423
 20
614.7257880375911
 30
0.0
 10
259.147590073428
 20
614.7293417210075
 30
0.0
 10
259.1529744460822
 20
614.7274556553352
 30
0.0
 10
259.1545813529642
 20
614.72689277975
 30
0.0
  0
SPLINE
  5
414
330
1B
100
AcDbEntity
 67
     1
  8
SLD-0_0
  6
SLD-実線
 62
   179
370
    25
100
AcDbSpline
210
0.0
220
0.0
230
1.0
 70
     8
 71
     3
 72
    13
 73
     9
 74
     0
 42
0.000000001
 43
0.00000001
 40
0.0
 40
0.0
 40
0.0
 40
0.0
 40
0.2414375725306398
 40
0.4219929543108588
 40
0.5285700798136239
 40
0.634095551056024
 40
0.821950106301341
 40
1.0
 40
1.0
 40
1.0
 40
1.0
 10
144.6694181113394
 20
515.7205826744263
 30
0.0
 10
144.6584700291604
 20
515.7040484638545
 30
0.0
 10
144.639334591812
 20
515.6751493977596
 30
0.0
 10
144.5932368050466
 20
515.6198091114165
 30
0.0
 10
144.46533718655
 20
515.4902700663395
 30
0.0
 10
144.2327719462451
 20
515.2933081261428
 30
0.0
 10
143.8617442710986
 20
515.0430253169018
 30
0.0
 10
143.5310376440262
 20
514.9325458318629
 30
0.0
 10
143.3701150863321
 20
514.8787862762634
 30
0.0
  0
SPLINE
  5
415
330
1B
100
AcDbEntity
 67
     1
  8
SLD-0_0
  6
SLD-実線
 62
   179
370
    25
100
AcDbSpline
210
0.0
220
0.0
230
1.0
 70
     8
 71
     3
 72
    15
 73
    11
 74
     0
 42
0.000000001
 43
0.00000001
 40
0.0
 40
0.0
 40
0.0
 40
0.0
 40
0.126092284146385
 40
0.2917147774299385
 40
0.4243365923059956
 40
0.512754203783261
 40
0.595467068352284
 40
0.7063606765784733
 40
0.8890202604245259
 40
0.9999999999999999
 40
0.9999999999999999
 40
0.9999999999999999
 40
0.9999999999999999
 10
268.067234083906
 20
514.851234029216
 30
0.0
 10
267.9479448383261
 20
514.8843975874739
 30
0.0
 10
267.6719689056216
 20
514.9611215526354
 30
0.0
 10
267.3095186165039
 20
515.1609314639267
 30
0.0
 10
267.020786570331
 20
515.3697967828143
 30
0.0
 10
266.8622858356571
 20
515.5119717198189
 30
0.0
 10
266.7731687299235
 20
515.6020231281902
 30
0.0
 10
266.7232386386878
 20
515.6585813467535
 30
0.0
 10
266.6899061399439
 20
515.7000737951389
 30
0.0
 10
266.6835898068295
 20
515.7142275095746
 30
0.0
 10
266.6812025754602
 20
515.7195768460457
 30
0.0
  0
SPLINE
  5
416
330
1B
100
AcDbEntity
 67
     1
  8
SLD-0_0
  6
SLD-実線
 62
   179
370
    25
100
AcDbSpline
210
0.0
220
0.0
230
1.0
 70
    24
 71
     3
 72
    10
 73
     6
 74
     0
 42
0.000000001
 43
0.00000001
 40
0.0
 40
0.0
 40
0.0
 40
0.0
 40
0.0699823551581567
 40
0.8866246995754912
 40
1.0
 40
1.0
 40
1.0
 40
1.0
 10
177.1893956510703
 20
632.3231971964444
 30
0.0
 10
177.1893956510694
 20
632.3468255296483
 30
0.0
 10
177.1893956510583
 20
632.6461790421289
 30
0.0
 10
177.1893956510459
 20
632.9810823051756
 30
0.0
 10
177.1893956510343
 20
633.2912179867479
 30
0.0
 10
177.1893956510329
 20
633.3290255770291
 30
0.0
  0
SPLINE
  5
417
330
1B
100
AcDbEntity
 67
     1
  8
SLD-0_0
  6
SLD-実線
 62
   179
370
    25
100
AcDbSpline
210
0.0
220
0.0
230
1.0
 70
     8
 71
     3
 72
    10
 73
     6
 74
     0
 42
0.000000001
 43
0.00000001
 40
0.0
 40
0.0
 40
0.0
 40
0.0
 40
0.1133756427184354
 40
0.9300187567178076
 40
1.0
 40
1.0
 40
1.0
 40
1.0
 10
177.5422067193674
 20
633.0007678970906
 30
0.0
 10
177.5352418324851
 20
632.9694406753262
 30
0.0
 10
177.4781089661688
 20
632.7124639284843
 30
0.0
 10
177.4150241728123
 20
632.4361534317267
 30
0.0
 10
177.3564939748274
 20
632.1913612587487
 30
0.0
 10
177.3518741874384
 20
632.1720398172947
 30
0.0
  0
SPLINE
  5
418
330
1B
100
AcDbEntity
 67
     1
  8
SLD-0_0
  6
SLD-実線
 62
   179
370
    25
100
AcDbSpline
210
0.0
220
0.0
230
1.0
 70
    24
 71
     3
 72
    10
 73
     6
 74
     0
 42
0.000000001
 43
0.00000001
 40
0.0
 40
0.0
 40
0.0
 40
0.0
 40
0.1133753004245088
 40
0.9300176448418432
 40
1.0
 40
1.0
 40
1.0
 40
1.0
 10
176.1593957243841
 20
633.3290255770048
 30
0.0
 10
176.1593957243841
 20
633.2912179867234
 30
0.0
 10
176.1593957243841
 20
632.9810823051511
 30
0.0
 10
176.1593957243841
 20
632.6461790421046
 30
0.0
 10
176.1593957243841
 20
632.3468255296239
 30
0.0
 10
176.1593957243841
 20
632.3231971964201
 30
0.0
  0
SPLINE
  5
419
330
1B
100
AcDbEntity
 67
     1
  8
SLD-0_0
  6
SLD-実線
 62
   179
370
    25
100
AcDbSpline
210
0.0
220
0.0
230
1.0
 70
     8
 71
     3
 72
    10
 73
     6
 74
     0
 42
0.000000001
 43
0.00000001
 40
0.0
 40
0.0
 40
0.0
 40
0.0
 40
0.0699813146571351
 40
0.886624357581993
 40
1.0
 40
1.0
 40
1.0
 40
1.0
 10
175.9969190507203
 20
632.1720398173
 30
0.0
 10
175.9922986081981
 20
632.1913612576597
 30
0.0
 10
175.9337601697155
 20
632.4361531671896
 30
0.0
 10
175.8706846788821
 20
632.7124639606093
 30
0.0
 10
175.8135514503467
 20
632.9694406767525
 30
0.0
 10
175.8065865187913
 20
633.0007678970959
 30
0.0
  0
SPLINE
  5
41A
330
1B
100
AcDbEntity
 67
     1
  8
SLD-0_0
  6
SLD-実線
 62
   179
370
    25
100
AcDbSpline
210
0.0
220
0.0
230
1.0
 70
     8
 71
     3
 72
    10
 73
     6
 74
     0
 42
0.000000001
 43
0.00000001
 40
0.0
 40
0.0
 40
0.0
 40
0.0
 40
0.1133756421164026
 40
0.9300186139590936
 40
0.9999999999999999
 40
0.9999999999999999
 40
0.9999999999999999
 40
0.9999999999999999
 10
235.5422050504821
 20
633.0007678970705
 30
0.0
 10
235.5352400742538
 20
632.9694406781483
 30
0.0
 10
235.4781064834999
 20
632.7124639927042
 30
0.0
 10
235.4150402951653
 20
632.4361529025895
 30
0.0
 10
235.3564936162086
 20
632.1913612565397
 30
0.0
 10
235.3518725185531
 20
632.1720398172746
 30
0.0
  0
SPLINE
  5
41B
330
1B
100
AcDbEntity
 67
     1
  8
SLD-0_0
  6
SLD-実線
 62
   179
370
    25
100
AcDbSpline
210
0.0
220
0.0
230
1.0
 70
    24
 71
     3
 72
    10
 73
     6
 74
     0
 42
0.000000001
 43
0.00000001
 40
0.0
 40
0.0
 40
0.0
 40
0.0
 40
0.0699823551581567
 40
0.8866246995754912
 40
1.0
 40
1.0
 40
1.0
 40
1.0
 10
235.1893977074719
 20
632.3231971964291
 30
0.0
 10
235.1893977074722
 20
632.3468255296328
 30
0.0
 10
235.1893977074761
 20
632.6461790421135
 30
0.0
 10
235.1893977074805
 20
632.9810823051602
 30
0.0
 10
235.1893977074845
 20
633.2912179867325
 30
0.0
 10
235.189397707485
 20
633.3290255770138
 30
0.0
  0
SPLINE
  5
41C
330
1B
100
AcDbEntity
 67
     1
  8
SLD-0_0
  6
SLD-実線
 62
   179
370
    25
100
AcDbSpline
210
0.0
220
0.0
230
1.0
 70
     8
 71
     3
 72
    10
 73
     6
 74
     0
 42
0.000000001
 43
0.00000001
 40
0.0
 40
0.0
 40
0.0
 40
0.0
 40
0.0699812432821924
 40
0.8866243572815646
 40
1.0
 40
1.0
 40
1.0
 40
1.0
 10
233.9969173817785
 20
632.1720398173
 30
0.0
 10
233.9922975943896
 20
632.1913612587539
 30
0.0
 10
233.9337673964047
 20
632.4361534317318
 30
0.0
 10
233.870682603048
 20
632.7124639284897
 30
0.0
 10
233.8135497367318
 20
632.9694406753314
 30
0.0
 10
233.8065848498495
 20
633.0007678970958
 30
0.0
  0
SPLINE
  5
41D
330
1B
100
AcDbEntity
 67
     1
  8
SLD-0_0
  6
SLD-実線
 62
   179
370
    25
100
AcDbSpline
210
0.0
220
0.0
230
1.0
 70
    24
 71
     3
 72
    10
 73
     6
 74
     0
 42
0.000000001
 43
0.00000001
 40
0.0
 40
0.0
 40
0.0
 40
0.0
 40
0.1133753004245088
 40
0.9300176448418432
 40
1.0
 40
1.0
 40
1.0
 40
1.0
 10
234.1593959181205
 20
633.3290255770258
 30
0.0
 10
234.1593959181205
 20
633.2912179867445
 30
0.0
 10
234.1593959181205
 20
632.9810823051721
 30
0.0
 10
234.1593959181206
 20
632.6461790421256
 30
0.0
 10
234.1593959181205
 20
632.3468255296449
 30
0.0
 10
234.1593959181205
 20
632.3231971964411
 30
0.0
  0
SPLINE
  5
41E
330
1B
100
AcDbEntity
 67
     1
  8
SLD-0_0
  6
SLD-実線
 62
   179
370
    25
100
AcDbSpline
210
0.0
220
0.0
230
1.0
 70
     8
 71
     3
 72
    10
 73
     6
 74
     0
 42
0.000000001
 43
0.00000001
 40
0.0
 40
0.0
 40
0.0
 40
0.0
 40
0.1133762882587203
 40
0.9300192599746897
 40
1.0
 40
1.0
 40
1.0
 40
1.0
 10
235.5422050505224
 20
548.33275742374
 30
0.0
 10
235.5352400749748
 20
548.3014352716924
 30
0.0
 10
235.4781067757285
 20
548.044501435565
 30
0.0
 10
235.4150408132363
 20
547.7682149444021
 30
0.0
 10
235.3564936177291
 20
547.5233559358181
 30
0.0
 10
235.3518725185934
 20
547.5040293439441
 30
0.0
  0
SPLINE
  5
41F
330
1B
100
AcDbEntity
 67
     1
  8
SLD-0_0
  6
SLD-実線
 62
   179
370
    25
100
AcDbSpline
210
0.0
220
0.0
230
1.0
 70
    24
 71
     3
 72
    10
 73
     6
 74
     0
 42
0.000000001
 43
0.00000001
 40
0.0
 40
0.0
 40
0.0
 40
0.0
 40
0.0699850875388308
 40
0.8866220862095366
 40
0.9999999999999999
 40
0.9999999999999999
 40
0.9999999999999999
 40
0.9999999999999999
 10
235.1893977074917
 20
547.655201624283
 30
0.0
 10
235.1893977074925
 20
547.6788298896446
 30
0.0
 10
235.1893977075023
 20
547.9781699728685
 30
0.0
 10
235.1893977075133
 20
548.3130961482556
 30
0.0
 10
235.1893977075235
 20
548.6232225618729
 30
0.0
 10
235.1893977075247
 20
548.6610300048677
 30
0.0
  0
SPLINE
  5
420
330
1B
100
AcDbEntity
 67
     1
  8
SLD-0_0
  6
SLD-実線
 62
   179
370
    25
100
AcDbSpline
210
0.0
220
0.0
230
1.0
 70
    24
 71
     3
 72
    10
 73
     6
 74
     0
 42
0.000000001
 43
0.00000001
 40
0.0
 40
0.0
 40
0.0
 40
0.0
 40
0.1133779137904633
 40
0.9300149124611692
 40
0.9999999999999999
 40
0.9999999999999999
 40
0.9999999999999999
 40
0.9999999999999999
 10
234.1593959181602
 20
548.6610300048786
 30
0.0
 10
234.1593959181602
 20
548.6232225618838
 30
0.0
 10
234.1593959181602
 20
548.3130961482664
 30
0.0
 10
234.1593959181602
 20
547.9781699728792
 30
0.0
 10
234.1593959181602
 20
547.6788298896554
 30
0.0
 10
234.1593959181602
 20
547.6552016242939
 30
0.0
  0
SPLINE
  5
421
330
1B
100
AcDbEntity
 67
     1
  8
SLD-0_0
  6
SLD-実線
 62
   179
370
    25
100
AcDbSpline
210
0.0
220
0.0
230
1.0
 70
     8
 71
     3
 72
    10
 73
     6
 74
     0
 42
0.000000001
 43
0.00000001
 40
0.0
 40
0.0
 40
0.0
 40
0.0
 40
0.0699805972653641
 40
0.8866237111390936
 40
1.0
 40
1.0
 40
1.0
 40
1.0
 10
233.9969173818247
 20
547.504029344
 30
0.0
 10
233.9922975929549
 20
547.5233559380624
 30
0.0
 10
233.9337668785493
 20
547.7682154737176
 30
0.0
 10
233.8706823108943
 20
548.0445013713808
 30
0.0
 10
233.8135497360956
 20
548.301435268905
 30
0.0
 10
233.8065848498957
 20
548.3327574237959
 30
0.0
  0
SPLINE
  5
422
330
1B
100
AcDbEntity
 67
     1
  8
SLD-0_0
  6
SLD-実線
 62
   179
370
    25
100
AcDbSpline
210
0.0
220
0.0
230
1.0
 70
    24
 71
     3
 72
    10
 73
     6
 74
     0
 42
0.000000001
 43
0.00000001
 40
0.0
 40
0.0
 40
0.0
 40
0.0
 40
0.0699850875388308
 40
0.8866220862095366
 40
0.9999999999999999
 40
0.9999999999999999
 40
0.9999999999999999
 40
0.9999999999999999
 10
177.1893956511258
 20
547.6552016243431
 30
0.0
 10
177.1893956511249
 20
547.6788298897046
 30
0.0
 10
177.1893956511138
 20
547.9781699729286
 30
0.0
 10
177.1893956511013
 20
548.3130961483156
 30
0.0
 10
177.1893956510898
 20
548.623222561933
 30
0.0
 10
177.1893956510884
 20
548.6610300049279
 30
0.0
  0
SPLINE
  5
423
330
1B
100
AcDbEntity
 67
     1
  8
SLD-0_0
  6
SLD-実線
 62
   179
370
    25
100
AcDbSpline
210
0.0
220
0.0
230
1.0
 70
     8
 71
     3
 72
    10
 73
     6
 74
     0
 42
0.000000001
 43
0.00000001
 40
0.0
 40
0.0
 40
0.0
 40
0.0
 40
0.1133762888609064
 40
0.9300194027346358
 40
1.0
 40
1.0
 40
1.0
 40
1.0
 10
177.5422067194231
 20
548.3327574238283
 30
0.0
 10
177.5352418332232
 20
548.3014352689374
 30
0.0
 10
177.4781092584244
 20
548.0445013714132
 30
0.0
 10
177.4150246907696
 20
547.76821547375
 30
0.0
 10
177.3564939763639
 20
547.5233559380948
 30
0.0
 10
177.3518741874942
 20
547.5040293440325
 30
0.0
  0
SPLINE
  5
424
330
1B
100
AcDbEntity
 67
     1
  8
SLD-0_0
  6
SLD-実線
 62
   179
370
    25
100
AcDbSpline
210
0.0
220
0.0
230
1.0
 70
     8
 71
     3
 72
    10
 73
     6
 74
     0
 42
0.000000001
 43
0.00000001
 40
0.0
 40
0.0
 40
0.0
 40
0.0
 40
0.0699806686409229
 40
0.8866237114395985
 40
1.0
 40
1.0
 40
1.0
 40
1.0
 10
175.9969190507086
 20
547.504029344
 30
0.0
 10
175.9922986067058
 20
547.5233559369682
 30
0.0
 10
175.933759651738
 20
547.7682152091038
 30
0.0
 10
175.870684386677
 20
548.0445014035005
 30
0.0
 10
175.8135514496544
 20
548.3014352703268
 30
0.0
 10
175.8065865187806
 20
548.332757423796
 30
0.0
  0
SPLINE
  5
425
330
1B
100
AcDbEntity
 67
     1
  8
SLD-0_0
  6
SLD-実線
 62
   179
370
    25
100
AcDbSpline
210
0.0
220
0.0
230
1.0
 70
    24
 71
     3
 72
    10
 73
     6
 74
     0
 42
0.000000001
 43
0.00000001
 40
0.0
 40
0.0
 40
0.0
 40
0.0
 40
0.1133779137904633
 40
0.9300149124611692
 40
0.9999999999999999
 40
0.9999999999999999
 40
0.9999999999999999
 40
0.9999999999999999
 10
176.1593957244396
 20
548.6610300049034
 30
0.0
 10
176.1593957244396
 20
548.6232225619085
 30
0.0
 10
176.1593957244396
 20
548.3130961482912
 30
0.0
 10
176.1593957244396
 20
547.978169972904
 30
0.0
 10
176.1593957244396
 20
547.6788298896802
 30
0.0
 10
176.1593957244396
 20
547.6552016243187
 30
0.0
  0
SPLINE
  5
426
330
1B
100
AcDbEntity
 67
     1
  8
SLD-0_0
  6
SLD-実線
 62
   179
370
    25
100
AcDbSpline
210
0.0
220
0.0
230
1.0
 70
     8
 71
     3
 72
     9
 73
     5
 74
     0
 42
0.000000001
 43
0.00000001
 40
0.0
 40
0.0
 40
0.0
 40
0.0
 40
0.0701846287616662
 40
1.0
 40
1.0
 40
1.0
 40
1.0
 10
150.2087198941919
 20
287.7261481388969
 30
0.0
 10
150.1539858499384
 20
287.7265027808618
 30
0.0
 10
149.3741278494158
 20
287.7315557671228
 30
0.0
 10
148.6099052375131
 20
287.9138815829605
 30
0.0
 10
147.8993193059179
 20
288.0834109291
 30
0.0
  0
SPLINE
  5
427
330
1B
100
AcDbEntity
 67
     1
  8
SLD-0_0
  6
SLD-実線
 62
   179
370
    25
100
AcDbSpline
210
0.0
220
0.0
230
1.0
 70
     8
 71
     3
 72
     9
 73
     5
 74
     0
 42
0.000000001
 43
0.00000001
 40
0.0
 40
0.0
 40
0.0
 40
0.0
 40
0.8027756269528334
 40
1.0
 40
1.0
 40
1.0
 40
1.0
 10
153.6728226392339
 20
287.7261481388969
 30
0.0
 10
153.3590159931136
 20
287.7726849753427
 30
0.0
 10
152.9681139333296
 20
287.83065489232
 30
0.0
 10
152.5922500092328
 20
288.0417732444604
 30
0.0
 10
152.5181204824517
 20
288.0834109291
 30
0.0
  0
SPLINE
  5
428
330
1B
100
AcDbEntity
 67
     1
  8
SLD-0_0
  6
SLD-実線
 62
   179
370
    25
100
AcDbSpline
210
0.0
220
0.0
230
1.0
 70
     8
 71
     3
 72
     9
 73
     5
 74
     0
 42
0.000000001
 43
0.00000001
 40
0.0
 40
0.0
 40
0.0
 40
0.0
 40
0.7789543027054808
 40
0.9999999999999999
 40
0.9999999999999999
 40
0.9999999999999999
 40
0.9999999999999999
 10
154.8275210707257
 20
288.0834109291
 30
0.0
 10
154.5307895163822
 20
287.935638791949
 30
0.0
 10
154.1498537499157
 20
287.7459330073637
 30
0.0
 10
153.7591795010004
 20
287.7297297903092
 30
0.0
 10
153.6728226392339
 20
287.7261481388969
 30
0.0
  0
SPLINE
  5
429
330
1B
100
AcDbEntity
 67
     1
  8
SLD-0_0
  6
SLD-実線
 62
   179
370
    25
100
AcDbSpline
210
0.0
220
0.0
230
1.0
 70
     8
 71
     3
 72
     9
 73
     5
 74
     0
 42
0.000000001
 43
0.00000001
 40
0.0
 40
0.0
 40
0.0
 40
0.0
 40
0.0701846096778837
 40
1.0
 40
1.0
 40
1.0
 40
1.0
 10
146.7446171490919
 20
287.7261481388969
 30
0.0
 10
146.7172507693616
 20
287.7265027810327
 30
0.0
 10
146.327330816028
 20
287.7315557711024
 30
0.0
 10
145.9452154581932
 20
287.9138815830749
 30
0.0
 10
145.5899187176
 20
288.0834109291
 30
0.0
  0
SPLINE
  5
42A
330
1B
100
AcDbEntity
 67
     1
  8
SLD-0_0
  6
SLD-実線
 62
   179
370
    25
100
AcDbSpline
210
0.0
220
0.0
230
1.0
 70
     8
 71
     3
 72
     9
 73
     5
 74
     0
 42
0.000000001
 43
0.00000001
 40
0.0
 40
0.0
 40
0.0
 40
0.0
 40
0.0701855556599275
 40
1.0
 40
1.0
 40
1.0
 40
1.0
 10
259.0257757156046
 20
287.7261481389229
 30
0.0
 10
258.9793119642149
 20
287.7265027725875
 30
0.0
 10
258.3172989481063
 20
287.731555573855
 30
0.0
 10
257.6685617834644
 20
287.9138815774264
 30
0.0
 10
257.0653565972002
 20
288.083410929126
 30
0.0
  0
SPLINE
  5
42B
330
1B
100
AcDbEntity
 67
     1
  8
SLD-0_0
  6
SLD-実線
 62
   179
370
    25
100
AcDbSpline
210
0.0
220
0.0
230
1.0
 70
     8
 71
     3
 72
     9
 73
     5
 74
     0
 42
0.000000001
 43
0.00000001
 40
0.0
 40
0.0
 40
0.0
 40
0.0
 40
0.8027761181898605
 40
1.0
 40
1.0
 40
1.0
 40
1.0
 10
263.0235560982424
 20
287.7261481389229
 30
0.0
 10
262.4698725822311
 20
287.7726847542352
 30
0.0
 10
261.7801615862691
 20
287.8306543602783
 30
0.0
 10
261.1169884201482
 20
288.0417732434613
 30
0.0
 10
260.9861948340136
 20
288.083410929126
 30
0.0
  0
SPLINE
  5
42C
330
1B
100
AcDbEntity
 67
     1
  8
SLD-0_0
  6
SLD-実線
 62
   179
370
    25
100
AcDbSpline
210
0.0
220
0.0
230
1.0
 70
     8
 71
     3
 72
     9
 73
     5
 74
     0
 42
0.000000001
 43
0.00000001
 40
0.0
 40
0.0
 40
0.0
 40
0.0
 40
0.7789546553594249
 40
1.0
 40
1.0
 40
1.0
 40
1.0
 10
265.0609173624712
 20
288.083410929126
 30
0.0
 10
264.5373607842573
 20
287.9356387940996
 30
0.0
 10
263.8652336269039
 20
287.7459330981267
 30
0.0
 10
263.1759246406688
 20
287.7297298020816
 30
0.0
 10
263.0235560982424
 20
287.7261481389229
 30
0.0
  0
SPLINE
  5
42D
330
1B
100
AcDbEntity
 67
     1
  8
SLD-0_0
  6
SLD-実線
 62
   179
370
    25
100
AcDbSpline
210
0.0
220
0.0
230
1.0
 70
     8
 71
     3
 72
     9
 73
     5
 74
     0
 42
0.000000001
 43
0.00000001
 40
0.0
 40
0.0
 40
0.0
 40
0.0
 40
0.0701845613005055
 40
1.0
 40
1.0
 40
1.0
 40
1.0
 10
265.1378520577151
 20
287.7261481389229
 30
0.0
 10
265.1360282797129
 20
287.7265027814918
 30
0.0
 10
265.1100428212529
 20
287.7315557812174
 30
0.0
 10
265.0845867813661
 20
287.9138815833913
 30
0.0
 10
265.0609173624712
 20
288.083410929126
 30
0.0
  0
SPLINE
  5
42E
330
1B
100
AcDbEntity
 67
     1
  8
SLD-0_0
  6
SLD-実線
 62
   179
370
    25
100
AcDbSpline
210
0.0
220
0.0
230
1.0
 70
     8
 71
     3
 72
     9
 73
     5
 74
     0
 42
0.000000001
 43
0.00000001
 40
0.0
 40
0.0
 40
0.0
 40
0.0
 40
0.0701850265928357
 40
1.0
 40
1.0
 40
1.0
 40
1.0
 10
188.7168370931706
 20
287.7261481388969
 30
0.0
 10
188.6621027381616
 20
287.7265027772993
 30
0.0
 10
187.8822447304623
 20
287.7315556841594
 30
0.0
 10
187.1180221257626
 20
287.9138815805739
 30
0.0
 10
186.4074365048966
 20
288.0834109291
 30
0.0
  0
SPLINE
  5
42F
330
1B
100
AcDbEntity
 67
     1
  8
SLD-0_0
  6
SLD-実線
 62
   179
370
    25
100
AcDbSpline
210
0.0
220
0.0
230
1.0
 70
     8
 71
     3
 72
     9
 73
     5
 74
     0
 42
0.000000001
 43
0.00000001
 40
0.0
 40
0.0
 40
0.0
 40
0.0
 40
0.1972245534598939
 40
1.0
 40
1.0
 40
1.0
 40
1.0
 10
186.4074365048966
 20
288.0834109291
 30
0.0
 10
186.3333073279219
 20
288.0417732448369
 30
0.0
 10
185.9574455212948
 20
287.8306550877277
 30
0.0
 10
185.5665425703975
 20
287.7726850565564
 30
0.0
 10
185.252735279437
 20
287.7261481388969
 30
0.0
  0
SPLINE
  5
430
330
1B
100
AcDbEntity
 67
     1
  8
SLD-0_0
  6
SLD-実線
 62
   179
370
    25
100
AcDbSpline
210
0.0
220
0.0
230
1.0
 70
     8
 71
     3
 72
     9
 73
     5
 74
     0
 42
0.000000001
 43
0.00000001
 40
0.0
 40
0.0
 40
0.0
 40
0.0
 40
0.0701840389003152
 40
1.0
 40
1.0
 40
1.0
 40
1.0
 10
192.1809389069341
 20
287.7261481388969
 30
0.0
 10
192.1535717156873
 20
287.7265027861439
 30
0.0
 10
191.7636370286054
 20
287.731555890133
 30
0.0
 10
191.3815286326061
 20
287.9138815864996
 30
0.0
 10
191.0262381471358
 20
288.0834109291
 30
0.0
  0
SPLINE
  5
431
330
1B
100
AcDbEntity
 67
     1
  8
SLD-0_0
  6
SLD-実線
 62
   179
370
    25
100
AcDbSpline
210
0.0
220
0.0
230
1.0
 70
     8
 71
     3
 72
     9
 73
     5
 74
     0
 42
0.000000001
 43
0.00000001
 40
0.0
 40
0.0
 40
0.0
 40
0.0
 40
0.2210468378324219
 40
1.0
 40
1.0
 40
1.0
 40
1.0
 10
185.252735279437
 20
287.7261481388969
 30
0.0
 10
185.166378143892
 20
287.7297297523192
 30
0.0
 10
184.7757046721887
 20
287.7459327139062
 30
0.0
 10
184.3947673314535
 20
287.9356387850781
 30
0.0
 10
184.0980349853
 20
288.0834109291
 30
0.0
  0
SPLINE
  5
432
330
1B
100
AcDbEntity
 67
     1
  8
SLD-0_0
  6
SLD-実線
 62
   179
370
    25
100
AcDbSpline
210
0.0
220
0.0
230
1.0
 70
     8
 71
     3
 72
     9
 73
     5
 74
     0
 42
0.000000001
 43
0.00000001
 40
0.0
 40
0.0
 40
0.0
 40
0.0
 40
0.0701849076632425
 40
1.0
 40
1.0
 40
1.0
 40
1.0
 10
220.7484719156178
 20
287.7261481389229
 30
0.0
 10
220.70018502004
 20
287.7265027783903
 30
0.0
 10
220.0121895921698
 20
287.7315557089868
 30
0.0
 10
219.3379917981416
 20
287.9138815813134
 30
0.0
 10
218.7111125140341
 20
288.083410929126
 30
0.0
  0
SPLINE
  5
433
330
1B
100
AcDbEntity
 67
     1
  8
SLD-0_0
  6
SLD-実線
 62
   179
370
    25
100
AcDbSpline
210
0.0
220
0.0
230
1.0
 70
     8
 71
     3
 72
     9
 73
     5
 74
     0
 42
0.000000001
 43
0.00000001
 40
0.0
 40
0.0
 40
0.0
 40
0.0
 40
0.0701844128520786
 40
0.9999999999999999
 40
0.9999999999999999
 40
0.9999999999999999
 40
0.9999999999999999
 10
224.7462504356236
 20
287.7261481389229
 30
0.0
 10
224.6997873023899
 20
287.7265027828212
 30
0.0
 10
224.0377723143666
 20
287.7315558121749
 30
0.0
 10
223.3890352702002
 20
287.913881584282
 30
0.0
 10
222.7858294545741
 20
288.083410929126
 30
0.0
  0
SPLINE
  5
434
330
1B
100
AcDbEntity
 67
     1
  8
SLD-0_0
  6
SLD-実線
 62
   179
370
    25
100
AcDbSpline
210
0.0
220
0.0
230
1.0
 70
     8
 71
     3
 72
     9
 73
     5
 74
     0
 42
0.000000001
 43
0.00000001
 40
0.0
 40
0.0
 40
0.0
 40
0.0
 40
0.1972241782645336
 40
1.0
 40
1.0
 40
1.0
 40
1.0
 10
218.7111125140341
 20
288.083410929126
 30
0.0
 10
218.7061733533838
 20
288.0417732440799
 30
0.0
 10
218.6811299702966
 20
287.8306546813737
 30
0.0
 10
218.6550845720916
 20
287.7726848876862
 30
0.0
 10
218.6341759561451
 20
287.7261481389229
 30
0.0
  0
SPLINE
  5
435
330
1B
100
AcDbEntity
 67
     1
  8
SLD-0_0
  6
SLD-実線
 62
   179
370
    25
100
AcDbSpline
210
0.0
220
0.0
230
1.0
 70
     8
 71
     3
 72
     9
 73
     5
 74
     0
 42
0.000000001
 43
0.00000001
 40
0.0
 40
0.0
 40
0.0
 40
0.0
 40
0.8027758217354664
 40
1.0
 40
1.0
 40
1.0
 40
1.0
 10
226.6297348587842
 20
287.7261481389229
 30
0.0
 10
226.6506434747307
 20
287.7726848876862
 30
0.0
 10
226.6766888729357
 20
287.8306546813738
 30
0.0
 10
226.7017322560228
 20
288.0417732440799
 30
0.0
 10
226.7066714166732
 20
288.083410929126
 30
0.0
  0
SPLINE
  5
436
330
1B
100
AcDbEntity
 67
     1
  8
SLD-0_0
  6
SLD-実線
 62
   179
370
    25
100
AcDbSpline
210
0.0
220
0.0
230
1.0
 70
     8
 71
     3
 72
     9
 73
     5
 74
     0
 42
0.000000001
 43
0.00000001
 40
0.0
 40
0.0
 40
0.0
 40
0.0
 40
0.2210454580758575
 40
1.0
 40
1.0
 40
1.0
 40
1.0
 10
218.6341759561451
 20
287.7261481389229
 30
0.0
 10
218.6284215643352
 20
287.7297297983031
 30
0.0
 10
218.6023889470629
 20
287.74593306894
 30
0.0
 10
218.5770080784753
 20
287.9356387934162
 30
0.0
 10
218.557237535611
 20
288.083410929126
 30
0.0
  0
SPLINE
  5
437
330
1B
100
AcDbEntity
 67
     1
  8
SLD-0_0
  6
SLD-実線
 62
   179
370
    25
100
AcDbSpline
210
0.0
220
0.0
230
1.0
 70
     8
 71
     3
 72
    12
 73
     8
 74
     0
 42
0.000000001
 43
0.00000001
 40
0.0
 40
0.0
 40
0.0
 40
0.0
 40
0.2172457852642745
 40
0.4345286667465155
 40
0.6508302720178971
 40
0.8651894585866261
 40
1.0
 40
1.0
 40
1.0
 40
1.0
 10
149.1784131243356
 20
524.7261408981274
 30
0.0
 10
149.0728197172238
 20
524.7373423854503
 30
0.0
 10
148.8616148721967
 20
524.7597472728276
 30
0.0
 10
148.5804345051815
 20
524.9346818805967
 30
0.0
 10
148.3696303523577
 20
525.1916901837269
 30
0.0
 10
148.2607882429972
 20
525.4723582697477
 30
0.0
 10
148.2499921876826
 20
525.6554523430686
 30
0.0
 10
148.2458239510187
 20
525.7261429246853
 30
0.0
  0
SPLINE
  5
438
330
1B
100
AcDbEntity
 67
     1
  8
SLD-0_0
  6
SLD-実線
 62
   179
370
    25
100
AcDbSpline
210
0.0
220
0.0
230
1.0
 70
     8
 71
     3
 72
    16
 73
    12
 74
     0
 42
0.000000001
 43
0.00000001
 40
0.0
 40
0.0
 40
0.0
 40
0.0
 40
0.7378277395408857
 40
0.7907193415636147
 40
0.8205084010894963
 40
0.840331577529356
 40
0.855222802117954
 40
0.870180669903679
 40
0.8882924040998995
 40
0.919607611607573
 40
1.0
 40
1.0
 40
1.0
 40
1.0
 10
155.7959219530187
 20
528.7261415538158
 30
0.0
 10
155.8097744747106
 20
528.8902609122454
 30
0.0
 10
155.8246200223149
 20
529.0661452604213
 30
0.0
 10
155.8833319917947
 20
529.2240580985685
 30
0.0
 10
155.8933334425293
 20
529.2410321360202
 30
0.0
 10
155.9012698928523
 20
529.2489744577847
 30
0.0
 10
155.9084111383304
 20
529.2517901207278
 30
0.0
 10
155.9155104274376
 20
529.2505236988412
 30
0.0
 10
155.9239606608093
 20
529.2438208666914
 30
0.0
 10
155.9372128303794
 20
529.2228395711528
 30
0.0
 10
155.9442240512034
 20
529.2004935690594
 30
0.0
 10
155.9492698028646
 20
529.1844118651713
 30
0.0
  0
SPLINE
  5
439
330
1B
100
AcDbEntity
 67
     1
  8
SLD-0_0
  6
SLD-実線
 62
   179
370
    25
100
AcDbSpline
210
0.0
220
0.0
230
1.0
 70
     8
 71
     3
 72
    16
 73
    12
 74
     0
 42
0.000000001
 43
0.00000001
 40
0.0
 40
0.0
 40
0.0
 40
0.0
 40
0.0956354836958708
 40
0.114880091771459
 40
0.1343326755812295
 40
0.1484487065510973
 40
0.1625273261371892
 40
0.1863925732406889
 40
0.2489300361577504
 40
0.4978718078339643
 40
1.0
 40
1.0
 40
1.0
 40
1.0
 10
161.5194216449199
 20
529.1844126692324
 30
0.0
 10
161.5261942594879
 20
529.2039143746327
 30
0.0
 10
161.5343297187656
 20
529.2273403836779
 30
0.0
 10
161.5513098867331
 20
529.2466318942729
 30
0.0
 10
161.5595094260179
 20
529.251341914254
 30
0.0
 10
161.5675149063986
 20
529.2513722001279
 30
0.0
 10
161.5757232781172
 20
529.2475547638968
 30
0.0
 10
161.5889766911649
 20
529.2337220511447
 30
0.0
 10
161.6186544421815
 20
529.1702199015541
 30
0.0
 10
161.6560628970817
 20
528.9969708314953
 30
0.0
 10
161.6780336152277
 20
528.8346572094135
 30
0.0
 10
161.6927221496046
 20
528.7261423578769
 30
0.0
  0
SPLINE
  5
43A
330
1B
100
AcDbEntity
 67
     1
  8
SLD-0_0
  6
SLD-実線
 62
   179
370
    25
100
AcDbSpline
210
0.0
220
0.0
230
1.0
 70
     8
 71
     3
 72
    26
 73
    22
 74
     0
 42
0.000000001
 43
0.00000001
 40
0.0
 40
0.0
 40
0.0
 40
0.0
 40
0.2491815781201844
 40
0.4972983353618906
 40
0.6633052384301591
 40
0.7743876580901383
 40
0.8487261241206123
 40
0.8984852988340358
 40
0.9318044577311033
 40
0.9541249991857728
 40
0.9690890486870626
 40
0.9791319408275585
 40
0.9858849770001493
 40
0.9904376147274054
 40
0.9935191606468015
 40
0.9956202690493267
 40
0.997064002326917
 40
0.9985359799105332
 40
0.9991382927657328
 40
0.9996496837835595
 40
1.0
 40
1.0
 40
1.0
 40
1.0
 10
183.982519813293
 20
528.7261423578773
 30
0.0
 10
183.9779253434168
 20
528.3930160711066
 30
0.0
 10
183.9687560370878
 20
527.72818703709
 30
0.0
 10
183.9546894047683
 20
526.8415989912156
 30
0.0
 10
183.9417890021562
 20
526.1397946046701
 30
0.0
 10
183.9316661172836
 20
525.6703931191025
 30
0.0
 10
183.9236877892392
 20
525.3564470420458
 30
0.0
 10
183.9173655596576
 20
525.1464853236287
 30
0.0
 10
183.9123282040881
 20
525.0060763253962
 30
0.0
 10
183.9082950103719
 20
524.9121882088754
 30
0.0
 10
183.9050521293321
 20
524.8494177378327
 30
0.0
 10
183.9024311695962
 20
524.8074583232606
 30
0.0
 10
183.9003020113904
 20
524.7794187929072
 30
0.0
 10
183.8985626120682
 20
524.7606862079713
 30
0.0
 10
183.8971295739767
 20
524.7481867967624
 30
0.0
 10
183.8959420901292
 20
524.7398436897281
 30
0.0
 10
183.8948352601194
 20
524.7337684612424
 30
0.0
 10
183.8938523113044
 20
524.7297195393321
 30
0.0
 10
183.8928760659448
 20
524.7273177876626
 30
0.0
 10
183.8921939757323
 20
524.7263089670041
 30
0.0
 10
183.8917428141366
 20
524.7261900474659
 30
0.0
 10
183.8915594000756
 20
524.7261417022263
 30
0.0
  0
SPLINE
  5
43B
330
1B
100
AcDbEntity
 67
     1
  8
SLD-0_0
  6
SLD-実線
 62
   179
370
    25
100
AcDbSpline
210
0.0
220
0.0
230
1.0
 70
     8
 71
     3
 72
    12
 73
     8
 74
     0
 42
0.000000001
 43
0.00000001
 40
0.0
 40
0.0
 40
0.0
 40
0.0
 40
0.2145879318230476
 40
0.4291783730152852
 40
0.6438288356143825
 40
0.8585685653868748
 40
1.0
 40
1.0
 40
1.0
 40
1.0
 10
183.6888272404701
 20
525.7261429246853
 30
0.0
 10
183.678514287414
 20
525.6137588603095
 30
0.0
 10
183.6578882607032
 20
525.3889894173498
 30
0.0
 10
183.4971880751324
 20
525.0893939280214
 30
0.0
 10
183.2609995993118
 20
524.8632211825748
 30
0.0
 10
182.9996087217875
 20
524.7432487977991
 30
0.0
 10
182.8272041215311
 20
524.7310034024605
 30
0.0
 10
182.7587442562014
 20
524.7261408981274
 30
0.0
  0
SPLINE
  5
43C
330
1B
100
AcDbEntity
 67
     1
  8
SLD-0_0
  6
SLD-実線
 62
   179
370
    25
100
AcDbSpline
210
0.0
220
0.0
230
1.0
 70
     8
 71
     3
 72
    12
 73
     8
 74
     0
 42
0.000000001
 43
0.00000001
 40
0.0
 40
0.0
 40
0.0
 40
0.0
 40
0.2153451288496827
 40
0.4306899100017618
 40
0.6459256650507114
 40
0.8606501816830168
 40
1.0
 40
1.0
 40
1.0
 40
1.0
 10
245.9036689267406
 20
524.7261414447156
 30
0.0
 10
245.8186695613449
 20
524.7372444145251
 30
0.0
 10
245.6486709677943
 20
524.7594503362171
 30
0.0
 10
245.4207243260528
 20
524.9325333433605
 30
0.0
 10
245.2483252431484
 20
525.1871723866716
 30
0.0
 10
245.1573498720651
 20
525.4682529972878
 30
0.0
 10
245.1481419658287
 20
525.6533116278023
 30
0.0
 10
245.144518093849
 20
525.7261434712735
 30
0.0
  0
SPLINE
  5
43D
330
1B
100
AcDbEntity
 67
     1
  8
SLD-0_0
  6
SLD-実線
 62
   179
370
    25
100
AcDbSpline
210
0.0
220
0.0
230
1.0
 70
     8
 71
     3
 72
    11
 73
     7
 74
     0
 42
0.000000001
 43
0.00000001
 40
0.0
 40
0.0
 40
0.0
 40
0.0
 40
0.0043755994436455
 40
0.4131421809121431
 40
0.7514584993937219
 40
1.0
 40
1.0
 40
1.0
 40
1.0
 10
153.6001158090366
 20
517.2261452522305
 30
0.0
 10
153.5995681922061
 20
517.225089714719
 30
0.0
 10
153.5478624511788
 20
517.1254263257198
 30
0.0
 10
153.4537745811923
 20
516.9460274200641
 30
0.0
 10
153.3016368545043
 20
516.7591218513672
 30
0.0
 10
153.1994266954019
 20
516.7359554814111
 30
0.0
 10
153.1561394365562
 20
516.7261442389515
 30
0.0
  0
SPLINE
  5
43E
330
1B
100
AcDbEntity
 67
     1
  8
SLD-0_0
  6
SLD-実線
 62
   179
370
    25
100
AcDbSpline
210
0.0
220
0.0
230
1.0
 70
     8
 71
     3
 72
    15
 73
    11
 74
     0
 42
0.000000001
 43
0.00000001
 40
0.0
 40
0.0
 40
0.0
 40
0.0
 40
0.0477639592697238
 40
0.1832821956453179
 40
0.2734940121423706
 40
0.3412691962607129
 40
0.4092928258840842
 40
0.491718255278999
 40
0.6342069845035821
 40
1.0
 40
1.0
 40
1.0
 40
1.0
 10
249.7548291412375
 20
529.2219948911321
 30
0.0
 10
249.7558271441688
 20
529.223874937205
 30
0.0
 10
249.7596567297251
 20
529.231089141752
 30
0.0
 10
249.7662963221425
 20
529.241034603413
 30
0.0
 10
249.7752568307329
 20
529.2489770344085
 30
0.0
 10
249.7833109319751
 20
529.2517922523379
 30
0.0
 10
249.7913243876571
 20
529.25052481983
 30
0.0
 10
249.8008517696485
 20
529.243824157082
 30
0.0
 10
249.8157856674824
 20
529.22284163861
 30
0.0
 10
249.8236841829476
 20
529.2004957416225
 30
0.0
 10
249.8293684748192
 20
529.1844141626009
 30
0.0
  0
SPLINE
  5
43F
330
1B
100
AcDbEntity
 67
     1
  8
SLD-0_0
  6
SLD-実線
 62
   179
370
    25
100
AcDbSpline
210
0.0
220
0.0
230
1.0
 70
     8
 71
     3
 72
    16
 73
    12
 74
     0
 42
0.000000001
 43
0.00000001
 40
0.0
 40
0.0
 40
0.0
 40
0.0
 40
0.0956333758932875
 40
0.1148842145887145
 40
0.1343328928689752
 40
0.1484489397421083
 40
0.1625280329230893
 40
0.186392916567911
 40
0.2489304499403198
 40
0.4978712421311917
 40
1.0
 40
1.0
 40
1.0
 40
1.0
 10
255.3995231573869
 20
529.1844125588714
 30
0.0
 10
255.405537077834
 20
529.2039167572752
 30
0.0
 10
255.4127615904135
 20
529.2273471182122
 30
0.0
 10
255.4278218484711
 20
529.2466294974857
 30
0.0
 10
255.4350905272704
 20
529.2513423192074
 30
0.0
 10
255.442190069713
 20
529.2513719295649
 30
0.0
 10
255.4494594878263
 20
529.2475548762523
 30
0.0
 10
255.4612059188295
 20
529.2337216263337
 30
0.0
 10
255.4874687336759
 20
529.1702204660994
 30
0.0
 10
255.5205348728094
 20
528.9969694906907
 30
0.0
 10
255.5399146355959
 20
528.8346567151401
 30
0.0
 10
255.5528710072329
 20
528.7261422475158
 30
0.0
  0
SPLINE
  5
440
330
1B
100
AcDbEntity
 67
     1
  8
SLD-0_0
  6
SLD-実線
 62
   179
370
    25
100
AcDbSpline
210
0.0
220
0.0
230
1.0
 70
     8
 71
     3
 72
    15
 73
    11
 74
     0
 42
0.000000001
 43
0.00000001
 40
0.0
 40
0.0
 40
0.0
 40
0.0
 40
0.000470826562487
 40
0.001063078397981
 40
0.0024839068387853
 40
0.0077523630108771
 40
0.0286336562752165
 40
0.1118819083948244
 40
0.4446029877558809
 40
1.0
 40
1.0
 40
1.0
 40
1.0
 10
244.7590956417477
 20
524.7261431956812
 30
0.0
 10
244.7586485454933
 20
524.7262282214817
 30
0.0
 10
244.7576390477129
 20
524.7264202010747
 30
0.0
 10
244.7556819034306
 20
524.7284453303998
 30
0.0
 10
244.7516753415055
 20
524.7364624542234
 30
0.0
 10
244.7435043909735
 20
524.7719651510758
 30
0.0
 10
244.7265049385654
 20
524.9161288468811
 30
0.0
 10
244.6905002094
 20
525.4991583135234
 30
0.0
 10
244.6447744377837
 20
526.79627636339
 30
0.0
 10
244.6145154990965
 20
527.9836212175393
 30
0.0
 10
244.5955926505482
 20
528.7261438513322
 30
0.0
  0
SPLINE
  5
441
330
1B
100
AcDbEntity
 67
     1
  8
SLD-0_0
  6
SLD-実線
 62
   179
370
    25
100
AcDbSpline
210
0.0
220
0.0
230
1.0
 70
     8
 71
     3
 72
    17
 73
    13
 74
     0
 42
0.000000001
 43
0.00000001
 40
0.4829275816213219
 40
0.4829275816213219
 40
0.4829275816213219
 40
0.4829275816213219
 40
0.5366501776317847
 40
0.5904068965877771
 40
0.6441155896226298
 40
0.6977678442410922
 40
0.7514127872266609
 40
0.8050786302490075
 40
0.8587535636584299
 40
0.912423371229973
 40
0.9660954926632996
 40
1.0
 40
1.0
 40
1.0
 40
1.0
 10
251.3278060405405
 20
629.6087122663682
 30
0.0
 10
251.448544787227
 20
629.8230955515888
 30
0.0
 10
251.6377346720124
 20
630.3139385403138
 30
0.0
 10
251.7360487144342
 20
631.1532403726916
 30
0.0
 10
251.6392448624621
 20
632.0007195157575
 30
0.0
 10
251.3574450606643
 20
632.7603879568381
 30
0.0
 10
250.9191345823814
 20
633.3470632674298
 30
0.0
 10
250.3696762783875
 20
633.6946805660494
 30
0.0
 10
249.7669645016323
 20
633.7646634843062
 30
0.0
 10
249.1817593530966
 20
633.5464009177813
 30
0.0
 10
248.732288749353
 20
633.1322604602152
 30
0.0
 10
248.5342262277221
 20
632.7702397040451
 30
0.0
 10
248.4575480966719
 20
632.6300866111937
 30
0.0
  0
SPLINE
  5
442
330
1B
100
AcDbEntity
 67
     1
  8
SLD-0_0
  6
SLD-実線
 62
   179
370
    25
100
AcDbSpline
210
0.0
220
0.0
230
1.0
 70
     8
 71
     3
 72
    16
 73
    12
 74
     0
 42
0.000000001
 43
0.00000001
 40
0.0
 40
0.0
 40
0.0
 40
0.0
 40
0.0536452533018884
 40
0.1072898082525626
 40
0.1609458510019646
 40
0.2146608221863452
 40
0.2684188741579425
 40
0.3221331141519274
 40
0.3757448640183119
 40
0.4293064043133929
 40
0.4829275816213219
 40
0.4829275816213219
 40
0.4829275816213219
 40
0.4829275816213219
 10
248.4575480966719
 20
632.6300866111937
 30
0.0
 10
248.3633401206068
 20
632.3821014411395
 30
0.0
 10
248.1749253948715
 20
631.8861343292891
 30
0.0
 10
248.1436495325877
 20
631.0256291650213
 30
0.0
 10
248.3098678306785
 20
630.1990326342598
 30
0.0
 10
248.6687025987153
 20
629.4846780167367
 30
0.0
 10
249.1721416453922
 20
628.9671579212556
 30
0.0
 10
249.7602838879291
 20
628.7044127855656
 30
0.0
 10
250.3634951716901
 20
628.7260922425376
 30
0.0
 10
250.9142864182032
 20
629.0286672585971
 30
0.0
 10
251.2072952271251
 20
629.3947336986454
 30
0.0
 10
251.3278060405405
 20
629.6087122663682
 30
0.0
  0
SPLINE
  5
443
330
1B
100
AcDbEntity
 67
     1
  8
SLD-0_0
  6
SLD-実線
 62
   179
370
    25
100
AcDbSpline
210
0.0
220
0.0
230
1.0
 70
     8
 71
     3
 72
    17
 73
    13
 74
     0
 42
0.000000001
 43
0.00000001
 40
0.4829274669675385
 40
0.4829274669675385
 40
0.4829274669675385
 40
0.4829274669675385
 40
0.5366501606477542
 40
0.5904068573808695
 40
0.6441155286010664
 40
0.6977678670273717
 40
0.7514126929178698
 40
0.8050786943270306
 40
0.8587534652163726
 40
0.9124234414153451
 40
0.9660957070598598
 40
1.0
 40
1.0
 40
1.0
 40
1.0
 10
162.7168812601718
 20
629.608712266368
 30
0.0
 10
162.8533813686245
 20
629.8230955899209
 30
0.0
 10
163.0755019225949
 20
630.3139374377806
 30
0.0
 10
163.2146176109013
 20
631.1532403476281
 30
0.0
 10
163.1422467095709
 20
632.0007206627915
 30
0.0
 10
162.8680028984454
 20
632.7603861386376
 30
0.0
 10
162.4262667383414
 20
633.3470650163968
 30
0.0
 10
161.8709451337161
 20
633.6946795596683
 30
0.0
 10
161.2667603229431
 20
633.7646635854109
 30
0.0
 10
160.6857444257305
 20
633.5464003459546
 30
0.0
 10
160.241696966298
 20
633.1322631225521
 30
0.0
 10
160.0428401626782
 20
632.7702398891388
 30
0.0
 10
159.9658549575956
 20
632.6300866111937
 30
0.0
  0
SPLINE
  5
444
330
1B
100
AcDbEntity
 67
     1
  8
SLD-0_0
  6
SLD-実線
 62
   179
370
    25
100
AcDbSpline
210
0.0
220
0.0
230
1.0
 70
     8
 71
     3
 72
    16
 73
    12
 74
     0
 42
0.000000001
 43
0.00000001
 40
0.0
 40
0.0
 40
0.0
 40
0.0
 40
0.0536452584754348
 40
0.107289818599588
 40
0.1609458665235769
 40
0.2146608428882275
 40
0.2684189000442495
 40
0.3221331452184338
 40
0.3757449002551336
 40
0.429306284488385
 40
0.4829274669675385
 40
0.4829274669675385
 40
0.4829274669675385
 40
0.4829274669675385
 10
159.9658549575956
 20
632.6300866111937
 30
0.0
 10
159.8692339296928
 20
632.3821014410962
 30
0.0
 10
159.6759931316949
 20
631.8861343291591
 30
0.0
 10
159.6170078130814
 20
631.0256291655417
 30
0.0
 10
159.7407637042089
 20
630.1990326323084
 30
0.0
 10
160.0499353777104
 20
629.4846780240326
 30
0.0
 10
160.5099476422016
 20
628.9671578940121
 30
0.0
 10
161.0736518579444
 20
628.704412887064
 30
0.0
 10
161.6789337986088
 20
628.7260918429598
 30
0.0
 10
162.257577368861
 20
629.0286679203422
 30
0.0
 10
162.580639074191
 20
629.3947340287701
 30
0.0
 10
162.7168812601718
 20
629.608712266368
 30
0.0
  0
SPLINE
  5
445
330
1B
100
AcDbEntity
 67
     1
  8
SLD-0_0
  6
SLD-実線
 62
   179
370
    25
100
AcDbSpline
210
0.0
220
0.0
230
1.0
 70
    24
 71
     3
 72
     9
 73
     5
 74
     0
 42
0.000000001
 43
0.00000001
 40
0.0
 40
0.0
 40
0.0
 40
0.0
 40
0.8971088424221051
 40
1.0
 40
1.0
 40
1.0
 40
1.0
 10
244.7500655380642
 20
528.7261438513323
 30
0.0
 10
244.7067643419759
 20
528.7261438513323
 30
0.0
 10
244.6584968475084
 20
528.7261438513323
 30
0.0
 10
244.6014611223346
 20
528.7261438513322
 30
0.0
 10
244.5955926505482
 20
528.7261438513322
 30
0.0
  0
SPLINE
  5
446
330
1B
100
AcDbEntity
 67
     1
  8
SLD-0_0
  6
SLD-実線
 62
   179
370
    25
100
AcDbSpline
210
0.0
220
0.0
230
1.0
 70
     8
 71
     3
 72
    11
 73
     7
 74
     0
 42
0.000000001
 43
0.00000001
 40
0.0
 40
0.0
 40
0.0
 40
0.0
 40
0.2282110771915726
 40
0.454821239018486
 40
0.8026636869958447
 40
1.0
 40
1.0
 40
1.0
 40
1.0
 10
141.6848531188574
 20
529.564865514328
 30
0.0
 10
141.6396192731727
 20
529.5437970553112
 30
0.0
 10
141.549468900136
 20
529.5018079338709
 30
0.0
 10
141.419595929363
 20
529.2892682269645
 30
0.0
 10
141.3265883737385
 20
529.0208006768082
 30
0.0
 10
141.2861342203472
 20
528.8044557634626
 30
0.0
 10
141.2714911820497
 20
528.7261462059516
 30
0.0
  0
SPLINE
  5
447
330
1B
100
AcDbEntity
 67
     1
  8
SLD-0_0
  6
SLD-実線
 62
   179
370
    25
100
AcDbSpline
210
0.0
220
0.0
230
1.0
 70
     8
 71
     3
 72
    14
 73
    10
 74
     0
 42
0.000000001
 43
0.00000001
 40
0.0
 40
0.0
 40
0.0
 40
0.0
 40
0.0359076146400643
 40
0.086655425982978
 40
0.1999946130789703
 40
0.4062443171764653
 40
0.7401269361926939
 40
0.9953631690599637
 40
1.0
 40
1.0
 40
1.0
 40
1.0
 10
262.534403130308
 20
614.7261477216903
 30
0.0
 10
262.5149932809805
 20
614.7269333482832
 30
0.0
 10
262.4681517188606
 20
614.7288292917412
 30
0.0
 10
262.3886299661173
 20
614.749995871442
 30
0.0
 10
262.3058952833188
 20
614.8050601466967
 30
0.0
 10
262.2508633824824
 20
614.9161184267723
 30
0.0
 10
262.2579528339208
 20
615.057457019547
 30
0.0
 10
262.297247651026
 20
615.1646201056313
 30
0.0
 10
262.32052860174
 20
615.2116672744945
 30
0.0
 10
262.3209439962061
 20
615.2125067218963
 30
0.0
  0
SPLINE
  5
448
330
1B
100
AcDbEntity
 67
     1
  8
SLD-0_0
  6
SLD-実線
 62
   179
370
    25
100
AcDbSpline
210
0.0
220
0.0
230
1.0
 70
     8
 71
     3
 72
    14
 73
    10
 74
     0
 42
0.000000001
 43
0.00000001
 40
0.0
 40
0.0
 40
0.0
 40
0.0
 40
0.0046362302159895
 40
0.2598731550241304
 40
0.5937557872099181
 40
0.8000051726799149
 40
0.9133424340366554
 40
0.9640921529346078
 40
1.0
 40
1.0
 40
1.0
 40
1.0
 10
148.8609731941374
 20
615.2125067218963
 30
0.0
 10
148.8613451268838
 20
615.2116672733665
 30
0.0
 10
148.8821929562127
 20
615.1646139287784
 30
0.0
 10
148.9159249706888
 20
615.05746112933
 30
0.0
 10
148.915435799186
 20
614.9161174024
 30
0.0
 10
148.854211588675
 20
614.80506134021
 30
0.0
 10
148.7681962689191
 20
614.7499948379668
 30
0.0
 10
148.687205196959
 20
614.7288294634766
 30
0.0
 10
148.6400650154262
 20
614.7269333884749
 30
0.0
 10
148.6205317824038
 20
614.7261477216903
 30
0.0
  0
SPLINE
  5
449
330
1B
100
AcDbEntity
 67
     1
  8
SLD-0_0
  6
SLD-実線
 62
   179
370
    25
100
AcDbSpline
210
0.0
220
0.0
230
1.0
 70
     8
 71
     3
 72
     9
 73
     5
 74
     0
 42
0.000000001
 43
0.00000001
 40
0.0
 40
0.0
 40
0.0
 40
0.0
 40
0.0287775190653279
 40
1.0
 40
1.0
 40
1.0
 40
1.0
 10
262.3209439962061
 20
615.2125067218963
 30
0.0
 10
262.320870307611
 20
615.2100082135643
 30
0.0
 10
262.3183096770398
 20
615.1231866801877
 30
0.0
 10
262.321785361723
 20
615.036656056515
 30
0.0
 10
262.325161024824
 20
614.9526155695144
 30
0.0
  0
SPLINE
  5
44A
330
1B
100
AcDbEntity
 67
     1
  8
SLD-0_0
  6
SLD-実線
 62
   179
370
    25
100
AcDbSpline
210
0.0
220
0.0
230
1.0
 70
     8
 71
     3
 72
     9
 73
     5
 74
     0
 42
0.000000001
 43
0.00000001
 40
0.0
 40
0.0
 40
0.0
 40
0.0
 40
0.9679827245732648
 40
1.0
 40
1.0
 40
1.0
 40
1.0
 10
148.8558658211382
 20
614.9789161190215
 30
0.0
 10
148.8593328630306
 20
615.0541988429507
 30
0.0
 10
148.8629145817994
 20
615.1319716399416
 30
0.0
 10
148.8610334236946
 20
615.2100082037399
 30
0.0
 10
148.8609731941374
 20
615.2125067218963
 30
0.0
  0
SPLINE
  5
44B
330
1B
100
AcDbEntity
 67
     1
  8
SLD-0_0
  6
SLD-実線
 62
   179
370
    25
100
AcDbSpline
210
0.0
220
0.0
230
1.0
 70
     8
 71
     3
 72
    14
 73
    10
 74
     0
 42
0.000000001
 43
0.00000001
 40
0.0
 40
0.0
 40
0.0
 40
0.0
 40
0.0046365362946881
 40
0.2598730448987339
 40
0.5937544111071874
 40
0.8000052615928407
 40
0.9133419223458691
 40
0.9640902632174199
 40
1.0
 40
1.0
 40
1.0
 40
1.0
 10
263.1648042051943
 20
615.2125067218963
 30
0.0
 10
263.1649252565395
 20
615.211667273926
 30
0.0
 10
263.1717100587429
 20
615.1646170868353
 30
0.0
 10
263.2010246018686
 20
615.0574596113856
 30
0.0
 10
263.2860432714138
 20
614.9161166571255
 30
0.0
 10
263.4151636492041
 20
614.8050617567227
 30
0.0
 10
263.536228010754
 20
614.7499952453157
 30
0.0
 10
263.6318943917667
 20
614.7288291131096
 30
0.0
 10
263.6813752305346
 20
614.726933311778
 30
0.0
 10
263.7018793075235
 20
614.7261477216903
 30
0.0
  0
SPLINE
  5
44C
330
1B
100
AcDbEntity
 67
     1
  8
SLD-0_0
  6
SLD-実線
 62
   179
370
    25
100
AcDbSpline
210
0.0
220
0.0
230
1.0
 70
     8
 71
     3
 72
    11
 73
     7
 74
     0
 42
0.000000001
 43
0.00000001
 40
0.0
 40
0.0
 40
0.0
 40
0.0
 40
0.1420817581973783
 40
0.3428876928354316
 40
0.7913430979756961
 40
1.0
 40
1.0
 40
1.0
 40
1.0
 10
263.7056865542086
 20
614.7261477216903
 30
0.0
 10
263.685213228722
 20
614.7269297275232
 30
0.0
 10
263.6358046950028
 20
614.7288169520282
 30
0.0
 10
263.5421703492339
 20
614.7501092814209
 30
0.0
 10
263.4668859352204
 20
614.7814553935357
 30
0.0
 10
263.4356270208106
 20
614.8095079966454
 30
0.0
 10
263.4257011859568
 20
614.8184157118026
 30
0.0
  0
SPLINE
  5
44D
330
1B
100
AcDbEntity
 67
     1
  8
SLD-0_0
  6
SLD-実線
 62
   179
370
    25
100
AcDbSpline
210
0.0
220
0.0
230
1.0
 70
     8
 71
     3
 72
    14
 73
    10
 74
     0
 42
0.000000001
 43
0.00000001
 40
0.0
 40
0.0
 40
0.0
 40
0.0
 40
0.0359079846268088
 40
0.086657199998627
 40
0.199994268352418
 40
0.4062437908925725
 40
0.7401266522962786
 40
0.9953635584257952
 40
1.0
 40
1.0
 40
1.0
 40
1.0
 10
147.6431087403448
 20
614.7261477216903
 30
0.0
 10
147.6635570507952
 20
614.7269333743011
 30
0.0
 10
147.7129052207565
 20
614.7288293998262
 30
0.0
 10
147.807408945829
 20
614.7499949914519
 30
0.0
 10
147.9255285042478
 20
614.8050613638034
 30
0.0
 10
148.0487690030771
 20
614.9161176417639
 30
0.0
 10
148.1263440642942
 20
615.0574597615469
 30
0.0
 10
148.1501279211418
 20
615.1646160609827
 30
0.0
 10
148.1544067260683
 20
615.2116672737538
 30
0.0
 10
148.154483064905
 20
615.2125067218963
 30
0.0
  0
SPLINE
  5
44E
330
1B
100
AcDbEntity
 67
     1
  8
SLD-0_0
  6
SLD-実線
 62
   179
370
    25
100
AcDbSpline
210
0.0
220
0.0
230
1.0
 70
     8
 71
     3
 72
    12
 73
     8
 74
     0
 42
0.000000001
 43
0.00000001
 40
0.0
 40
0.0
 40
0.0
 40
0.0
 40
0.0828818037450306
 40
0.3122311250915071
 40
0.5415108297681911
 40
0.7707547384018864
 40
1.0
 40
1.0
 40
1.0
 40
1.0
 10
205.7430640606855
 20
302.8412006005331
 30
0.0
 10
205.7400044702871
 20
302.8578350590429
 30
0.0
 10
205.7284784258572
 20
302.9205001491003
 30
0.0
 10
205.7094198571636
 20
303.2362344923885
 30
0.0
 10
205.6900685687146
 20
303.9160094250198
 30
0.0
 10
205.6769248131561
 20
304.8145038035406
 30
0.0
 10
205.6752387957864
 20
305.4889283419494
 30
0.0
 10
205.6743957846139
 20
305.82614160624
 30
0.0
  0
SPLINE
  5
44F
330
1B
100
AcDbEntity
 67
     1
  8
SLD-0_0
  6
SLD-実線
 62
   179
370
    25
100
AcDbSpline
210
0.0
220
0.0
230
1.0
 70
     8
 71
     3
 72
    17
 73
    13
 74
     0
 42
0.000000001
 43
0.00000001
 40
0.0
 40
0.0
 40
0.0
 40
0.0
 40
0.1114297528823319
 40
0.2233709064076459
 40
0.3250953379857479
 40
0.4233320912368192
 40
0.5261589888712862
 40
0.6324756931803978
 40
0.7376011731328175
 40
0.8375910650463683
 40
0.9359424021711522
 40
1.0
 40
1.0
 40
1.0
 40
1.0
 10
190.6747192888411
 20
304.8261470302765
 30
0.0
 10
190.5994479665077
 20
304.5913224110894
 30
0.0
 10
190.4485598683005
 20
304.120595458208
 30
0.0
 10
189.9721348244244
 20
303.618196279685
 30
0.0
 10
189.3411368895659
 20
303.3241856550445
 30
0.0
 10
188.6383920197614
 20
303.189343548133
 30
0.0
 10
187.9189668974513
 20
303.1644275199281
 30
0.0
 10
187.2550414058171
 20
303.2476662669864
 30
0.0
 10
186.7433542361955
 20
303.4722082512834
 30
0.0
 10
186.4335696455872
 20
303.8677459616737
 30
0.0
 10
186.3042772533479
 20
304.3437844249838
 30
0.0
 10
186.2725025769268
 20
304.6897074893084
 30
0.0
 10
186.2599699570687
 20
304.8261470302765
 30
0.0
  0
SPLINE
  5
450
330
1B
100
AcDbEntity
 67
     1
  8
SLD-0_0
  6
SLD-実線
 62
   179
370
    25
100
AcDbSpline
210
0.0
220
0.0
230
1.0
 70
     8
 71
     3
 72
    14
 73
    10
 74
     0
 42
0.000000001
 43
0.00000001
 40
0.0
 40
0.0
 40
0.0
 40
0.0
 40
0.0233695261545049
 40
0.2182502389734004
 40
0.403927330698412
 40
0.5700228931191934
 40
0.7336889904897405
 40
0.9203806965009501
 40
1.0
 40
1.0
 40
1.0
 40
1.0
 10
263.0543493478449
 20
302.8261429771607
 30
0.0
 10
263.0324488440315
 20
302.8262011733946
 30
0.0
 10
262.8279179451461
 20
302.8267446735865
 30
0.0
 10
262.3583483625116
 20
302.8452700461843
 30
0.0
 10
261.6143687762338
 20
303.0084544792367
 30
0.0
 10
260.9389215273092
 20
303.3465660502349
 30
0.0
 10
260.3896053052744
 20
303.8460523985801
 30
0.0
 10
260.0652129468413
 20
304.3647712763114
 30
0.0
 10
259.9409368889528
 20
304.7199568098749
 30
0.0
 10
259.9037819354685
 20
304.8261470302765
 30
0.0
  0
SPLINE
  5
451
330
1B
100
AcDbEntity
 67
     1
  8
SLD-0_0
  6
SLD-実線
 62
   179
370
    25
100
AcDbSpline
210
0.0
220
0.0
230
1.0
 70
     8
 71
     3
 72
    20
 73
    16
 74
     0
 42
0.000000001
 43
0.00000001
 40
0.0
 40
0.0
 40
0.0
 40
0.0
 40
0.0772756615481671
 40
0.1545512887764015
 40
0.2339753123644772
 40
0.3133993377348202
 40
0.3927611533255523
 40
0.472123003975873
 40
0.5538182322635199
 40
0.6355134267304721
 40
0.7147664671154266
 40
0.7940194719934466
 40
0.8755958120378834
 40
0.9571720930443158
 40
1.0
 40
1.0
 40
1.0
 40
1.0
 10
205.7430676052435
 20
302.8411855186752
 30
0.0
 10
207.3792546525654
 20
302.8411582586434
 30
0.0
 10
210.6516280205404
 20
302.841103738592
 30
0.0
 10
215.5724450893991
 20
302.8405238379752
 30
0.0
 10
220.470882121531
 20
302.8395736604108
 30
0.0
 10
225.3096031643574
 20
302.8382727465005
 30
0.0
 10
230.0091071794637
 20
302.8367038060042
 30
0.0
 10
234.5826545585655
 20
302.8349179056109
 30
0.0
 10
238.9909574486067
 20
302.8330174732104
 30
0.0
 10
243.1545372239524
 20
302.8311310169246
 30
0.0
 10
247.0061758956226
 20
302.8293947795067
 30
0.0
 10
250.5680616551141
 20
302.8279088580676
 30
0.0
 10
253.8342718199447
 20
302.8267800555345
 30
0.0
 10
256.3286686054856
 20
302.8262147574489
 30
0.0
 10
257.6597135363668
 20
302.8261612255617
 30
0.0
 10
258.1179446408614
 20
302.8261427964501
 30
0.0
  0
SPLINE
  5
452
330
1B
100
AcDbEntity
 67
     1
  8
SLD-0_0
  6
SLD-実線
 62
   179
370
    25
100
AcDbSpline
210
0.0
220
0.0
230
1.0
 70
     8
 71
     3
 72
    10
 73
     6
 74
     0
 42
0.000000001
 43
0.00000001
 40
0.0
 40
0.0
 40
0.0
 40
0.0
 40
0.4987313211728193
 40
0.99405746132668
 40
1.0
 40
1.0
 40
1.0
 40
1.0
 10
262.9292913525255
 20
304.5278332337563
 30
0.0
 10
262.8354585078164
 20
304.7392956424147
 30
0.0
 10
262.6484334796282
 20
305.1607766607367
 30
0.0
 10
262.5818393751271
 20
305.6031488328804
 30
0.0
 10
262.5678801625794
 20
305.823529000038
 30
0.0
 10
262.5677146761568
 20
305.8261416062538
 30
0.0
  0
SPLINE
  5
453
330
1B
100
AcDbEntity
 67
     1
  8
SLD-0_0
  6
SLD-実線
 62
   179
370
    25
100
AcDbSpline
210
0.0
220
0.0
230
1.0
 70
     8
 71
     3
 72
    10
 73
     6
 74
     0
 42
0.000000001
 43
0.00000001
 40
0.0
 40
0.0
 40
0.0
 40
0.0
 40
0.3703492893681295
 40
0.7402763955139998
 40
1.0
 40
1.0
 40
1.0
 40
1.0
 10
263.1743931024225
 20
304.1547528609459
 30
0.0
 10
263.166211251272
 20
304.1614741625418
 30
0.0
 10
263.1498568759508
 20
304.1749091037212
 30
0.0
 10
263.0425321693131
 20
304.3226482980721
 30
0.0
 10
262.9623610202808
 20
304.4679131639091
 30
0.0
 10
262.9292913525255
 20
304.5278332337563
 30
0.0
  0
SPLINE
  5
454
330
1B
100
AcDbEntity
 67
     1
  8
SLD-0_0
  6
SLD-実線
 62
   179
370
    25
100
AcDbSpline
210
0.0
220
0.0
230
1.0
 70
     8
 71
     3
 72
    10
 73
     6
 74
     0
 42
0.000000001
 43
0.00000001
 40
0.0
 40
0.0
 40
0.0
 40
0.0
 40
0.4420153526111429
 40
0.8156629689298273
 40
1.0
 40
1.0
 40
1.0
 40
1.0
 10
261.2477325647028
 20
304.8261470302765
 30
0.0
 10
261.3848239441531
 20
304.5341252746449
 30
0.0
 10
261.6378024004817
 20
303.9952495754559
 30
0.0
 10
262.1621625335675
 20
303.4550113819835
 30
0.0
 10
262.4586837232636
 20
303.2829762131126
 30
0.0
 10
262.5566431133898
 20
303.2261422976677
 30
0.0
  0
SPLINE
  5
455
330
1B
100
AcDbEntity
 67
     1
  8
SLD-0_0
  6
SLD-実線
 62
   179
370
    25
100
AcDbSpline
210
0.0
220
0.0
230
1.0
 70
     8
 71
     3
 72
    13
 73
     9
 74
     0
 42
0.000000001
 43
0.00000001
 40
0.0
 40
0.0
 40
0.0
 40
0.0
 40
0.0058700653261493
 40
0.1415162430121847
 40
0.3562024678111869
 40
0.5708204377788261
 40
0.7854098779891355
 40
1.0
 40
1.0
 40
1.0
 40
1.0
 10
205.4712706058
 20
314.8261449441
 30
0.0
 10
205.4718911675075
 20
314.8260715804929
 30
0.0
 10
205.4868517440134
 20
314.8243029218004
 30
0.0
 10
205.5245501497305
 20
314.6513454989876
 30
0.0
 10
205.5810606383667
 20
313.7386167974397
 30
0.0
 10
205.6326124264593
 20
311.9181205911744
 30
0.0
 10
205.6676527852328
 20
309.5242263458781
 30
0.0
 10
205.6721481157731
 20
307.7255054896488
 30
0.0
 10
205.6743957846139
 20
306.8261436327978
 30
0.0
  0
SPLINE
  5
456
330
1B
100
AcDbEntity
 67
     1
  8
SLD-0_0
  6
SLD-実線
 62
   179
370
    25
100
AcDbSpline
210
0.0
220
0.0
230
1.0
 70
     8
 71
     3
 72
    11
 73
     7
 74
     0
 42
0.000000001
 43
0.00000001
 40
0.0
 40
0.0
 40
0.0
 40
0.0
 40
0.2579997892912679
 40
0.6284013953932585
 40
0.940118672192467
 40
1.0
 40
1.0
 40
1.0
 40
1.0
 10
260.8083494751604
 20
311.7138586148307
 30
0.0
 10
260.3861926469766
 20
312.1855091309323
 30
0.0
 10
259.3579594820027
 20
313.3342924042462
 30
0.0
 10
257.2776259074764
 20
314.4401006695437
 30
0.0
 10
255.4808170583312
 20
314.8083255879711
 30
0.0
 10
254.5735948078469
 20
314.8236719514403
 30
0.0
 10
254.4274003057631
 20
314.8261449441
 30
0.0
  0
SPLINE
  5
457
330
1B
100
AcDbEntity
 67
     1
  8
SLD-0_0
  6
SLD-実線
 62
   179
370
    25
100
AcDbSpline
210
0.0
220
0.0
230
1.0
 70
     8
 71
     3
 72
    17
 73
    13
 74
     0
 42
0.000000001
 43
0.00000001
 40
0.0
 40
0.0
 40
0.0
 40
0.0
 40
0.0017560843142342
 40
0.0335675546229592
 40
0.0540016986367778
 40
0.0870642195431494
 40
0.1412909763563445
 40
0.2340037881013822
 40
0.5013723744269473
 40
0.700949736043145
 40
0.8456357207816397
 40
1.0
 40
1.0
 40
1.0
 40
1.0
 10
157.9368495195063
 20
464.7261454865162
 30
0.0
 10
157.9412130957977
 20
464.7261412871846
 30
0.0
 10
158.0246228639541
 20
464.7260610169546
 30
0.0
 10
158.1587735250401
 20
464.7223882999558
 30
0.0
 10
158.3701344458287
 20
464.7081740185486
 30
0.0
 10
158.6360986316071
 20
464.6792912680016
 30
0.0
 10
159.076844699488
 20
464.6012621768583
 30
0.0
 10
160.0675496409335
 20
464.3087307623474
 30
0.0
 10
161.3021823801328
 20
463.5334374948918
 30
0.0
 10
162.2677767257975
 20
462.2299930614361
 30
0.0
 10
162.7705504551027
 20
460.9675376806269
 30
0.0
 10
162.8300086066035
 20
460.1487762249636
 30
0.0
 10
162.8606998174341
 20
459.7261465295975
 30
0.0
  0
SPLINE
  5
458
330
1B
100
AcDbEntity
 67
     1
  8
SLD-0_0
  6
SLD-実線
 62
   179
370
    25
100
AcDbSpline
210
0.0
220
0.0
230
1.0
 70
     8
 71
     3
 72
    12
 73
     8
 74
     0
 42
0.000000001
 43
0.00000001
 40
0.0
 40
0.0
 40
0.0
 40
0.0
 40
0.2033002461648733
 40
0.4064936637552772
 40
0.6127773834473476
 40
0.8267608769056446
 40
1.0
 40
1.0
 40
1.0
 40
1.0
 10
135.9875955431612
 20
499.726145635542
 30
0.0
 10
135.9965417559998
 20
500.0533237871419
 30
0.0
 10
136.014429480693
 20
500.7075081674043
 30
0.0
 10
136.1554821084715
 20
501.5823890665384
 30
0.0
 10
136.3713739924046
 20
502.259011398696
 30
0.0
 10
136.6368556346854
 20
502.6600895541442
 30
0.0
 10
136.8320618497161
 20
502.7057267065538
 30
0.0
 10
136.9193949549349
 20
502.7261442646353
 30
0.0
  0
SPLINE
  5
459
330
1B
100
AcDbEntity
 67
     1
  8
SLD-0_0
  6
SLD-実線
 62
   179
370
    25
100
AcDbSpline
210
0.0
220
0.0
230
1.0
 70
     8
 71
     3
 72
     9
 73
     5
 74
     0
 42
0.000000001
 43
0.00000001
 40
0.0
 40
0.0
 40
0.0
 40
0.0
 40
0.4840641710866385
 40
1.0
 40
1.0
 40
1.0
 40
1.0
 10
135.6743954866083
 20
508.8864556655114
 30
0.0
 10
135.7607349357129
 20
508.42799297774
 30
0.0
 10
135.9390985789273
 20
507.4808815921935
 30
0.0
 10
135.9710900150481
 20
506.3233532423707
 30
0.0
 10
135.9875955431612
 20
505.7261428937142
 30
0.0
  0
SPLINE
  5
45A
330
1B
100
AcDbEntity
 67
     1
  8
SLD-0_0
  6
SLD-実線
 62
   179
370
    25
100
AcDbSpline
210
0.0
220
0.0
230
1.0
 70
     8
 71
     3
 72
    13
 73
     9
 74
     0
 42
0.000000001
 43
0.00000001
 40
0.0
 40
0.0
 40
0.0
 40
0.0
 40
0.2123497217683656
 40
0.4246670636802897
 40
0.6378050060721377
 40
0.852700445382184
 40
0.9944588221154322
 40
1.0
 40
1.0
 40
1.0
 40
1.0
 10
135.6743954866083
 20
512.7261421785
 30
0.0
 10
135.6962346890274
 20
512.9495899159336
 30
0.0
 10
135.7399097637447
 20
513.3964513186789
 30
0.0
 10
136.0801270026207
 20
513.9916911523023
 30
0.0
 10
136.5816621791039
 20
514.4469111654345
 30
0.0
 10
137.1393539047419
 20
514.68048990942
 30
0.0
 10
137.5157465117747
 20
514.7256947459642
 30
0.0
 10
137.6686440492277
 20
514.7261298631893
 30
0.0
 10
137.6743958144339
 20
514.7261462316159
 30
0.0
  0
SPLINE
  5
45B
330
1B
100
AcDbEntity
 67
     1
  8
SLD-0_0
  6
SLD-実線
 62
   179
370
    25
100
AcDbSpline
210
0.0
220
0.0
230
1.0
 70
     8
 71
     3
 72
    12
 73
     8
 74
     0
 42
0.000000001
 43
0.00000001
 40
0.0
 40
0.0
 40
0.0
 40
0.0
 40
0.0021252474970078
 40
0.384449462078412
 40
0.6556385497428036
 40
0.8271683450952028
 40
1.0
 40
1.0
 40
1.0
 40
1.0
 10
154.6941929309023
 20
499.7261456355444
 30
0.0
 10
154.6927906628381
 20
499.7287582417862
 30
0.0
 10
154.4391255232632
 20
500.2013691098055
 30
0.0
 10
153.8517274843707
 20
501.0180760865891
 30
0.0
 10
152.803668524902
 20
501.9192278088987
 30
0.0
 10
151.8697905843387
 20
502.465020669729
 30
0.0
 10
151.3165736499699
 20
502.6116045176328
 30
0.0
 10
151.0389194636
 20
502.6851735219352
 30
0.0
  0
SPLINE
  5
45C
330
1B
100
AcDbEntity
 67
     1
  8
SLD-0_0
  6
SLD-実線
 62
   179
370
    25
100
AcDbSpline
210
0.0
220
0.0
230
1.0
 70
     8
 71
     3
 72
     9
 73
     5
 74
     0
 42
0.000000001
 43
0.00000001
 40
0.0
 40
0.0
 40
0.0
 40
0.0
 40
0.8285558021536819
 40
1.0
 40
1.0
 40
1.0
 40
1.0
 10
143.7313304095419
 20
502.726144264621
 30
0.0
 10
144.0125470637537
 20
502.7259830548796
 30
0.0
 10
144.3519528750231
 20
502.7257884877291
 30
0.0
 10
144.6844748832042
 20
502.7260921956587
 30
0.0
 10
144.7414838521631
 20
502.726144264621
 30
0.0
  0
SPLINE
  5
45D
330
1B
100
AcDbEntity
 67
     1
  8
SLD-0_0
  6
SLD-実線
 62
   179
370
    25
100
AcDbSpline
210
0.0
220
0.0
230
1.0
 70
     8
 71
     3
 72
    14
 73
    10
 74
     0
 42
0.000000001
 43
0.00000001
 40
0.0
 40
0.0
 40
0.0
 40
0.0
 40
0.1338325961935156
 40
0.136631617112621
 40
0.2911245393251652
 40
0.5340648005103292
 40
0.8641601543179387
 40
0.9973139244197587
 40
1.0
 40
1.0
 40
1.0
 40
1.0
 10
175.6743963006982
 20
316.8261448067011
 30
0.0
 10
175.6930820280448
 20
316.6137206430732
 30
0.0
 10
175.7121585551159
 20
316.3968537674706
 30
0.0
 10
175.8325475169107
 20
316.0186465892994
 30
0.0
 10
176.0605880417575
 20
315.5810930050574
 30
0.0
 10
176.5960433829752
 20
315.0798604148927
 30
0.0
 10
177.1736129738738
 20
314.8596933250721
 30
0.0
 10
177.5595723132174
 20
314.8263402705094
 30
0.0
 10
177.6721701370012
 20
314.8261519284126
 30
0.0
 10
177.6743966285238
 20
314.8261482041658
 30
0.0
  0
SPLINE
  5
45E
330
1B
100
AcDbEntity
 67
     1
  8
SLD-0_0
  6
SLD-実線
 62
   179
370
    25
100
AcDbSpline
210
0.0
220
0.0
230
1.0
 70
     8
 71
     3
 72
    12
 73
     8
 74
     0
 42
0.000000001
 43
0.00000001
 40
0.0
 40
0.0
 40
0.0
 40
0.0
 40
0.003590405632005
 40
0.1815951245953789
 40
0.6228778570752832
 40
0.9476486878324275
 40
1.0
 40
1.0
 40
1.0
 40
1.0
 10
233.6743961682872
 20
314.826148049623
 30
0.0
 10
233.6766214009947
 20
314.8261517798725
 30
0.0
 10
233.7891689658641
 20
314.826340448001
 30
0.0
 10
234.1754050389926
 20
314.8595444294509
 30
0.0
 10
234.7513613319131
 20
315.0810670210913
 30
0.0
 10
235.2056384142121
 20
315.4995924182747
 30
0.0
 10
235.3768959942052
 20
315.7776163036675
 30
0.0
 10
235.4006696155624
 20
315.8162110016648
 30
0.0
  0
SPLINE
  5
45F
330
1B
100
AcDbEntity
 67
     1
  8
SLD-0_0
  6
SLD-実線
 62
   179
370
    25
100
AcDbSpline
210
0.0
220
0.0
230
1.0
 70
     8
 71
     3
 72
    10
 73
     6
 74
     0
 42
0.000000001
 43
0.00000001
 40
0.0
 40
0.0
 40
0.0
 40
0.0
 40
0.4477483644103501
 40
0.9131317025989936
 40
1.0
 40
1.0
 40
1.0
 40
1.0
 10
235.4006696155624
 20
315.8162110016648
 30
0.0
 10
235.4638469347276
 20
315.9392257893222
 30
0.0
 10
235.5926898688407
 20
316.1901004131669
 30
0.0
 10
235.6697857311605
 20
316.5639232181834
 30
0.0
 10
235.673769807317
 20
316.7905038774999
 30
0.0
 10
235.6743964961127
 20
316.8261446521583
 30
0.0
  0
SPLINE
  5
460
330
1B
100
AcDbEntity
 67
     1
  8
SLD-0_0
  6
SLD-実線
 62
   179
370
    25
100
AcDbSpline
210
0.0
220
0.0
230
1.0
 70
    24
 71
     3
 72
     9
 73
     5
 74
     0
 42
0.000000001
 43
0.00000001
 40
0.0
 40
0.0
 40
0.0
 40
0.0
 40
0.1516986899923944
 40
1.0
 40
1.0
 40
1.0
 40
1.0
 10
235.6743964961127
 20
316.8261446521583
 30
0.0
 10
235.6743964961127
 20
316.8776713995108
 30
0.0
 10
235.6743964961127
 20
317.2173364774038
 30
0.0
 10
235.6743964961127
 20
317.5646394728674
 30
0.0
 10
235.6743964961127
 20
317.8592570588889
 30
0.0
  0
SPLINE
  5
461
330
1B
100
AcDbEntity
 67
     1
  8
SLD-0_0
  6
SLD-実線
 62
   179
370
    25
100
AcDbSpline
210
0.0
220
0.0
230
1.0
 70
    24
 71
     3
 72
    10
 73
     6
 74
     0
 42
0.000000001
 43
0.00000001
 40
0.0
 40
0.0
 40
0.0
 40
0.0
 40
0.3223345184131213
 40
0.6498990566346768
 40
1.0
 40
1.0
 40
1.0
 40
1.0
 10
263.1743931024225
 20
311.9974202617828
 30
0.0
 10
263.1743931024225
 20
311.4532900807005
 30
0.0
 10
263.1743931024225
 20
310.3562009662214
 30
0.0
 10
263.1743931024225
 20
308.6200491131443
 30
0.0
 10
263.1743931024225
 20
307.4372241134782
 30
0.0
 10
263.1743931024225
 20
306.8261436328117
 30
0.0
  0
SPLINE
  5
462
330
1B
100
AcDbEntity
 67
     1
  8
SLD-0_0
  6
SLD-実線
 62
   179
370
    25
100
AcDbSpline
210
0.0
220
0.0
230
1.0
 70
    24
 71
     3
 72
     9
 73
     5
 74
     0
 42
0.000000001
 43
0.00000001
 40
0.0
 40
0.0
 40
0.0
 40
0.0
 40
0.8859175129784743
 40
1.0
 40
1.0
 40
1.0
 40
1.0
 10
263.1743931024225
 20
315.5379138096993
 30
0.0
 10
263.1743931024225
 20
314.4689610802822
 30
0.0
 10
263.1743931024225
 20
313.2623558221661
 30
0.0
 10
263.1743931024225
 20
312.1269501631426
 30
0.0
 10
263.1743931024225
 20
311.9974202617828
 30
0.0
  0
SPLINE
  5
463
330
1B
100
AcDbEntity
 67
     1
  8
SLD-0_0
  6
SLD-実線
 62
   179
370
    25
100
AcDbSpline
210
0.0
220
0.0
230
1.0
 70
     8
 71
     3
 72
    11
 73
     7
 74
     0
 42
0.000000001
 43
0.00000001
 40
0.0
 40
0.0
 40
0.0
 40
0.0
 40
0.1854201622782629
 40
0.5176103024273939
 40
0.857209149533595
 40
1.0
 40
1.0
 40
1.0
 40
1.0
 10
203.681457210228
 20
211.9136589717482
 30
0.0
 10
203.5695244935362
 20
211.8484842329783
 30
0.0
 10
203.2570583268233
 20
211.6665454630472
 30
0.0
 10
202.8971042668345
 20
211.175894237787
 30
0.0
 10
202.6716734123432
 20
210.6332709429051
 30
0.0
 10
202.6983759173387
 20
210.2970180750457
 30
0.0
 10
202.7062800525578
 20
210.1974847864721
 30
0.0
  0
SPLINE
  5
464
330
1B
100
AcDbEntity
 67
     1
  8
SLD-0_0
  6
SLD-実線
 62
   179
370
    25
100
AcDbSpline
210
0.0
220
0.0
230
1.0
 70
     8
 71
     3
 72
    11
 73
     7
 74
     0
 42
0.000000001
 43
0.00000001
 40
0.0
 40
0.0
 40
0.0
 40
0.0
 40
0.3526948810602603
 40
0.6353496314996282
 40
0.8709149157371521
 40
1.0
 40
1.0
 40
1.0
 40
1.0
 10
208.6743962764
 20
210.1974996876
 30
0.0
 10
208.6483698504557
 20
210.4443826576307
 30
0.0
 10
208.6014854724255
 20
210.8891211907248
 30
0.0
 10
208.2837345804318
 20
211.4186415201862
 30
0.0
 10
207.9696510471892
 20
211.7488710226598
 30
0.0
 10
207.7496482270039
 20
211.8755117301292
 30
0.0
 10
207.6717679201816
 20
211.9203421425103
 30
0.0
  0
SPLINE
  5
465
330
1B
100
AcDbEntity
 67
     1
  8
SLD-0_0
  6
SLD-実線
 62
   179
370
    25
100
AcDbSpline
210
0.0
220
0.0
230
1.0
 70
     8
 71
     3
 72
    15
 73
    11
 74
     0
 42
0.000000001
 43
0.00000001
 40
0.0
 40
0.0
 40
0.0
 40
0.0
 40
0.0820686734439079
 40
0.2387268227034185
 40
0.3991843560980385
 40
0.5695539210693651
 40
0.7095683287829099
 40
0.8280939812444351
 40
0.9416791486479978
 40
1.0
 40
1.0
 40
1.0
 40
1.0
 10
176.6743966190512
 20
232.5697976302717
 30
0.0
 10
176.4489423948098
 20
232.5661518080916
 30
0.0
 10
175.7931261331395
 20
232.5555465977394
 30
0.0
 10
174.7203726776176
 20
232.4360861594502
 30
0.0
 10
173.5295282031584
 20
232.1621175776818
 30
0.0
 10
172.5426733685489
 20
231.758182606366
 30
0.0
 10
171.7826669038252
 20
231.2282926334419
 30
0.0
 10
171.2570955320777
 20
230.5842687019917
 30
0.0
 10
171.0043441121485
 20
229.9440461781662
 30
0.0
 10
170.9819831654006
 20
229.5406491327367
 30
0.0
 10
170.9743969886
 20
229.4037926148985
 30
0.0
  0
SPLINE
  5
466
330
1B
100
AcDbEntity
 67
     1
  8
SLD-0_0
  6
SLD-実線
 62
   179
370
    25
100
AcDbSpline
210
0.0
220
0.0
230
1.0
 70
     8
 71
     3
 72
    15
 73
    11
 74
     0
 42
0.000000001
 43
0.00000001
 40
0.0
 40
0.0
 40
0.0
 40
0.0
 40
0.1238226700804778
 40
0.2337446252622396
 40
0.3477314667204708
 40
0.4797671971353331
 40
0.6395331399056584
 40
0.8046350392616043
 40
0.9532179021018086
 40
1.0
 40
1.0
 40
1.0
 40
1.0
 10
241.3743966071302
 20
229.4037926148985
 30
0.0
 10
241.3405312534328
 20
229.6950962709748
 30
0.0
 10
241.2766023751084
 20
230.2450009361127
 30
0.0
 10
240.843315818346
 20
230.9242994260655
 30
0.0
 10
240.2781453955972
 20
231.4530340488051
 30
0.0
 10
239.5140950524988
 20
231.8943670575329
 30
0.0
 10
238.5132946759403
 20
232.2493936695927
 30
0.0
 10
237.3206587174036
 20
232.4822941709631
 30
0.0
 10
236.3392471749774
 20
232.5634928854756
 30
0.0
 10
235.8028440750644
 20
232.568579572163
 30
0.0
 10
235.674396976679
 20
232.5697976302717
 30
0.0
  0
SPLINE
  5
467
330
1B
100
AcDbEntity
 67
     1
  8
SLD-0_0
  6
SLD-実線
 62
   179
370
    25
100
AcDbSpline
210
0.0
220
0.0
230
1.0
 70
     8
 71
     3
 72
    17
 73
    13
 74
     0
 42
0.000000001
 43
0.00000001
 40
0.0
 40
0.0
 40
0.0
 40
0.0
 40
0.0739078737137945
 40
0.217293152832013
 40
0.3642066547963248
 40
0.5175133302438361
 40
0.6127510841809023
 40
0.6874657100955274
 40
0.7313161494174841
 40
0.8017872500264462
 40
0.9023923581686095
 40
1.0
 40
1.0
 40
1.0
 40
1.0
 10
185.4743965714129
 20
233.9601877283667
 30
0.0
 10
185.3083844646673
 20
233.9599610080265
 30
0.0
 10
184.8202998767824
 20
233.9592944379432
 30
0.0
 10
184.0333251219227
 20
233.9517317616873
 30
0.0
 10
183.2311121147317
 20
233.9351051225091
 30
0.0
 10
182.707849554307
 20
233.9149703822329
 30
0.0
 10
182.4030514497125
 20
233.8922154213219
 30
0.0
 10
182.1629429431619
 20
233.8659422373231
 30
0.0
 10
181.7995539591244
 20
233.7745516107275
 30
0.0
 10
181.3638434344597
 20
233.5733717672345
 30
0.0
 10
180.8906029115868
 20
233.1757275873932
 30
0.0
 10
180.6968661175694
 20
232.7712603201397
 30
0.0
 10
180.6014626099618
 20
232.572084958515
 30
0.0
  0
SPLINE
  5
468
330
1B
100
AcDbEntity
 67
     1
  8
SLD-0_0
  6
SLD-実線
 62
   179
370
    25
100
AcDbSpline
210
0.0
220
0.0
230
1.0
 70
     8
 71
     3
 72
    18
 73
    14
 74
     0
 42
0.000000001
 43
0.00000001
 40
0.0
 40
0.0
 40
0.0
 40
0.0
 40
0.0587040110976199
 40
0.1284267609111901
 40
0.1853532440053892
 40
0.2271949081777892
 40
0.2647155045363116
 40
0.3220710051690387
 40
0.4573070485270144
 40
0.6241153722044221
 40
0.7970497366739447
 40
0.9512963063485252
 40
1.0
 40
1.0
 40
1.0
 40
1.0
 10
231.3264281301649
 20
233.2354175996397
 30
0.0
 10
231.2462557885906
 20
233.3199114749359
 30
0.0
 10
231.0708627626194
 20
233.5047587199238
 30
0.0
 10
230.7513430299383
 20
233.687513393299
 30
0.0
 10
230.4490614347883
 20
233.8023051086824
 30
0.0
 10
230.2305486869359
 20
233.8527666272832
 30
0.0
 10
230.0676733481882
 20
233.8785022024795
 30
0.0
 10
229.8621871144064
 20
233.9001853944025
 30
0.0
 10
229.5459985500954
 20
233.9192125559676
 30
0.0
 10
228.9406429878285
 20
233.939971562834
 30
0.0
 10
228.1070247494541
 20
233.9544747078121
 30
0.0
 10
227.37321807153
 20
233.9597855183661
 30
0.0
 10
226.9709360487006
 20
233.9601098869018
 30
0.0
 10
226.8743970244082
 20
233.9601877283667
 30
0.0
  0
SPLINE
  5
469
330
1B
100
AcDbEntity
 67
     1
  8
SLD-0_0
  6
SLD-実線
 62
   179
370
    25
100
AcDbSpline
210
0.0
220
0.0
230
1.0
 70
     8
 71
     3
 72
    10
 73
     6
 74
     0
 42
0.000000001
 43
0.00000001
 40
0.0
 40
0.0
 40
0.0
 40
0.0
 40
0.1224235746393447
 40
0.6420004723055847
 40
1.0
 40
1.0
 40
1.0
 40
1.0
 10
203.6743959225
 20
211.9050311994
 30
0.0
 10
203.7163291087808
 20
211.9291899347881
 30
0.0
 10
203.9362305899854
 20
212.0558805625952
 30
0.0
 10
204.319497638026
 20
212.1860074168527
 30
0.0
 10
204.6667233690532
 20
212.2029836524983
 30
0.0
 10
204.8083710297228
 20
212.2099089574261
 30
0.0
  0
SPLINE
  5
46A
330
1B
100
AcDbEntity
 67
     1
  8
SLD-0_0
  6
SLD-実線
 62
   179
370
    25
100
AcDbSpline
210
0.0
220
0.0
230
1.0
 70
    24
 71
     3
 72
    10
 73
     6
 74
     0
 42
0.000000001
 43
0.00000001
 40
0.0
 40
0.0
 40
0.0
 40
0.0
 40
0.3583504456545228
 40
0.9554800340578522
 40
1.0
 40
1.0
 40
1.0
 40
1.0
 10
205.174395702731
 20
212.2194904040745
 30
0.0
 10
205.174395702731
 20
212.2163437330922
 30
0.0
 10
205.174395702731
 20
212.2079536743276
 30
0.0
 10
205.174395702731
 20
212.0768807055443
 30
0.0
 10
205.174395702731
 20
211.9528981192392
 30
0.0
 10
205.174395702731
 20
211.9442957591466
 30
0.0
  0
SPLINE
  5
46B
330
1B
100
AcDbEntity
 67
     1
  8
SLD-0_0
  6
SLD-実線
 62
   179
370
    25
100
AcDbSpline
210
0.0
220
0.0
230
1.0
 70
     8
 71
     3
 72
     9
 73
     5
 74
     0
 42
0.000000001
 43
0.00000001
 40
0.0
 40
0.0
 40
0.0
 40
0.0
 40
0.5
 40
1.0
 40
1.0
 40
1.0
 40
1.0
 10
205.174395702731
 20
211.9442957591466
 30
0.0
 10
205.3410623967164
 20
211.9628030013494
 30
0.0
 10
205.6743957846873
 20
211.9998174857548
 30
0.0
 10
206.0077291726583
 20
211.9628030013494
 30
0.0
 10
206.1743958666437
 20
211.9442957591466
 30
0.0
  0
SPLINE
  5
46C
330
1B
100
AcDbEntity
 67
     1
  8
SLD-0_0
  6
SLD-実線
 62
   179
370
    25
100
AcDbSpline
210
0.0
220
0.0
230
1.0
 70
    24
 71
     3
 72
    10
 73
     6
 74
     0
 42
0.000000001
 43
0.00000001
 40
0.0
 40
0.0
 40
0.0
 40
0.0
 40
0.1224276053253116
 40
0.6420007618914472
 40
1.0
 40
1.0
 40
1.0
 40
1.0
 10
206.1743958666437
 20
211.9442957591466
 30
0.0
 10
206.1743958666437
 20
211.9673576298483
 30
0.0
 10
206.1743958666437
 20
212.0882922713599
 30
0.0
 10
206.1743958666437
 20
212.208390581242
 30
0.0
 10
206.1743958666437
 20
212.2162742990655
 30
0.0
 10
206.1743958666437
 20
212.2194904040745
 30
0.0
  0
SPLINE
  5
46D
330
1B
100
AcDbEntity
 67
     1
  8
SLD-0_0
  6
SLD-実線
 62
   179
370
    25
100
AcDbSpline
210
0.0
220
0.0
230
1.0
 70
     8
 71
     3
 72
    10
 73
     6
 74
     0
 42
0.000000001
 43
0.00000001
 40
0.0
 40
0.0
 40
0.0
 40
0.0
 40
0.3583509740702003
 40
0.9554858139757151
 40
1.0
 40
1.0
 40
1.0
 40
1.0
 10
206.5404214709823
 20
212.2099089574265
 30
0.0
 10
206.6820676963241
 20
212.2030536929352
 30
0.0
 10
207.0597448025981
 20
212.1847752216976
 30
0.0
 10
207.4415776972895
 20
212.0437008081113
 30
0.0
 10
207.6592922392
 20
211.9140272584291
 30
0.0
 10
207.6743961125437
 20
211.9050311994004
 30
0.0
  0
SPLINE
  5
46E
330
1B
100
AcDbEntity
 67
     1
  8
SLD-0_0
  6
SLD-実線
 62
   179
370
    25
100
AcDbSpline
210
0.0
220
0.0
230
1.0
 70
     8
 71
     3
 72
     9
 73
     5
 74
     0
 42
0.000000001
 43
0.00000001
 40
0.0
 40
0.0
 40
0.0
 40
0.0
 40
0.0701846096778837
 40
1.0
 40
1.0
 40
1.0
 40
1.0
 10
146.7446185785259
 20
112.8911794660005
 30
0.0
 10
146.7172521816037
 20
112.8437780569752
 30
0.0
 10
146.3273319833167
 20
112.1683962426016
 30
0.0
 10
145.9452163854423
 20
111.5065626330057
 30
0.0
 10
145.5899194216566
 20
110.8911795569712
 30
0.0
  0
SPLINE
  5
46F
330
1B
100
AcDbEntity
 67
     1
  8
SLD-0_0
  6
SLD-実線
 62
   179
370
    25
100
AcDbSpline
210
0.0
220
0.0
230
1.0
 70
     8
 71
     3
 72
     9
 73
     5
 74
     0
 42
0.000000001
 43
0.00000001
 40
0.0
 40
0.0
 40
0.0
 40
0.0
 40
0.1972243288517512
 40
1.0
 40
1.0
 40
1.0
 40
1.0
 10
145.5899194216566
 20
110.8911795569712
 30
0.0
 10
145.6640489806657
 20
110.7627843443374
 30
0.0
 10
146.0399131523968
 20
110.1117733185617
 30
0.0
 10
146.4308129809389
 20
109.4347105834109
 30
0.0
 10
146.7446178531485
 20
108.8911810917908
 30
0.0
  0
SPLINE
  5
470
330
1B
100
AcDbEntity
 67
     1
  8
SLD-0_0
  6
SLD-実線
 62
   179
370
    25
100
AcDbSpline
210
0.0
220
0.0
230
1.0
 70
     8
 71
     3
 72
     9
 73
     5
 74
     0
 42
0.000000001
 43
0.00000001
 40
0.0
 40
0.0
 40
0.0
 40
0.0
 40
0.2210466595319653
 40
1.0
 40
1.0
 40
1.0
 40
1.0
 10
146.7446178531485
 20
108.8911810917908
 30
0.0
 10
146.8309759592377
 20
108.7416060488808
 30
0.0
 10
147.2216541367411
 20
108.0649387641247
 30
0.0
 10
147.6025886714932
 20
107.4051358258624
 30
0.0
 10
147.8993188998378
 20
106.8911801230524
 30
0.0
  0
SPLINE
  5
471
330
1B
100
AcDbEntity
 67
     1
  8
SLD-0_0
  6
SLD-実線
 62
   179
370
    25
100
AcDbSpline
210
0.0
220
0.0
230
1.0
 70
    24
 71
     3
 72
     9
 73
     5
 74
     0
 42
0.000000001
 43
0.00000001
 40
0.0
 40
0.0
 40
0.0
 40
0.0
 40
0.0701846287616662
 40
1.0
 40
1.0
 40
1.0
 40
1.0
 10
150.208719894226
 20
106.8911796507
 30
0.0
 10
150.2634539384796
 20
106.8911796618961
 30
0.0
 10
151.0433119390022
 20
106.8911798214202
 30
0.0
 10
151.807534550905
 20
106.8911799777459
 30
0.0
 10
152.5181204825
 20
106.8911801231
 30
0.0
  0
SPLINE
  5
472
330
1B
100
AcDbEntity
 67
     1
  8
SLD-0_0
  6
SLD-実線
 62
   179
370
    25
100
AcDbSpline
210
0.0
220
0.0
230
1.0
 70
    24
 71
     3
 72
     9
 73
     5
 74
     0
 42
0.000000001
 43
0.00000001
 40
0.0
 40
0.0
 40
0.0
 40
0.0
 40
0.0701846287616662
 40
1.0
 40
1.0
 40
1.0
 40
1.0
 10
150.2087197875495
 20
114.8911796507
 30
0.0
 10
150.153985743296
 20
114.8911796444504
 30
0.0
 10
149.3741277427734
 20
114.8911795554053
 30
0.0
 10
148.6099051308707
 20
114.8911794681454
 30
0.0
 10
147.8993191992755
 20
114.8911793870099
 30
0.0
  0
SPLINE
  5
473
330
1B
100
AcDbEntity
 67
     1
  8
SLD-0_0
  6
SLD-実線
 62
   179
370
    25
100
AcDbSpline
210
0.0
220
0.0
230
1.0
 70
     8
 71
     3
 72
     9
 73
     5
 74
     0
 42
0.000000001
 43
0.00000001
 40
0.0
 40
0.0
 40
0.0
 40
0.0
 40
0.7789543027054808
 40
0.9999999999999999
 40
0.9999999999999999
 40
0.9999999999999999
 40
0.9999999999999999
 10
154.8275203469295
 20
110.8911781158804
 30
0.0
 10
154.5307889268939
 20
111.4051334396093
 30
0.0
 10
154.149853332848
 20
112.0649350761674
 30
0.0
 10
153.7591792607611
 20
112.741603992914
 30
0.0
 10
153.6728224380817
 20
112.8911787454538
 30
0.0
  0
SPLINE
  5
474
330
1B
100
AcDbEntity
 67
     1
  8
SLD-0_0
  6
SLD-実線
 62
   179
370
    25
100
AcDbSpline
210
0.0
220
0.0
230
1.0
 70
     8
 71
     3
 72
     9
 73
     5
 74
     0
 42
0.000000001
 43
0.00000001
 40
0.0
 40
0.0
 40
0.0
 40
0.0
 40
0.0701843129034119
 40
0.9999999999999999
 40
0.9999999999999999
 40
0.9999999999999999
 40
0.9999999999999999
 10
153.6728219154377
 20
108.8911796507
 30
0.0
 10
153.7001882994208
 20
108.9385807565041
 30
0.0
 10
154.0901099621264
 20
109.6139611063743
 30
0.0
 10
154.4722243732247
 20
110.275794782018
 30
0.0
 10
154.8275203469295
 20
110.8911781158804
 30
0.0
  0
SPLINE
  5
475
330
1B
100
AcDbEntity
 67
     1
  8
SLD-0_0
  6
SLD-実線
 62
   179
370
    25
100
AcDbSpline
210
0.0
220
0.0
230
1.0
 70
     8
 71
     3
 72
     9
 73
     5
 74
     0
 42
0.000000001
 43
0.00000001
 40
0.0
 40
0.0
 40
0.0
 40
0.0
 40
0.8027756269528334
 40
1.0
 40
1.0
 40
1.0
 40
1.0
 10
153.6728224380817
 20
112.8911787454538
 30
0.0
 10
153.3590157919614
 20
113.4347082233267
 30
0.0
 10
152.9681137321774
 20
114.1117709786273
 30
0.0
 10
152.5922498080806
 20
114.7627835308261
 30
0.0
 10
152.5181202812995
 20
114.8911790732793
 30
0.0
  0
SPLINE
  5
476
330
1B
100
AcDbEntity
 67
     1
  8
SLD-0_0
  6
SLD-実線
 62
   179
370
    25
100
AcDbSpline
210
0.0
220
0.0
230
1.0
 70
     8
 71
     3
 72
     9
 73
     5
 74
     0
 42
0.000000001
 43
0.00000001
 40
0.0
 40
0.0
 40
0.0
 40
0.0
 40
0.0701853252873644
 40
1.0
 40
1.0
 40
1.0
 40
1.0
 10
257.1422923213001
 20
144.6730393610726
 30
0.0
 10
257.1441160758816
 20
144.6183351325424
 30
0.0
 10
257.1701009177831
 20
143.8389096856094
 30
0.0
 10
257.1955588055598
 20
143.0751107618717
 30
0.0
 10
257.2192299232017
 20
142.3649193140507
 30
0.0
  0
SPLINE
  5
477
330
1B
100
AcDbEntity
 67
     1
  8
SLD-0_0
  6
SLD-実線
 62
   179
370
    25
100
AcDbSpline
210
0.0
220
0.0
230
1.0
 70
     8
 71
     3
 72
     9
 73
     5
 74
     0
 42
0.000000001
 43
0.00000001
 40
0.0
 40
0.0
 40
0.0
 40
0.0
 40
0.1972240111945976
 40
0.9999999999999999
 40
0.9999999999999999
 40
0.9999999999999999
 40
0.9999999999999999
 10
257.2192299232017
 20
142.3649193140507
 30
0.0
 10
257.3500235283456
 20
142.2951087802712
 30
0.0
 10
258.0131963557898
 20
141.9411430873681
 30
0.0
 10
258.7029055121529
 20
141.5730143177992
 30
0.0
 10
259.2565874621403
 20
141.2774893808007
 30
0.0
  0
SPLINE
  5
478
330
1B
100
AcDbEntity
 67
     1
  8
SLD-0_0
  6
SLD-実線
 62
   179
370
    25
100
AcDbSpline
210
0.0
220
0.0
230
1.0
 70
     8
 71
     3
 72
     9
 73
     5
 74
     0
 42
0.000000001
 43
0.00000001
 40
0.0
 40
0.0
 40
0.0
 40
0.0
 40
0.2210454904368524
 40
1.0
 40
1.0
 40
1.0
 40
1.0
 10
259.2565874621403
 20
141.2774893808007
 30
0.0
 10
259.4089559750294
 20
141.1961630698516
 30
0.0
 10
260.0982643729883
 20
140.8282464442352
 30
0.0
 10
260.7703918145187
 20
140.4695034931342
 30
0.0
 10
261.2939485161
 20
140.1900590536
 30
0.0
  0
SPLINE
  5
479
330
1B
100
AcDbEntity
 67
     1
  8
SLD-0_0
  6
SLD-実線
 62
   179
370
    25
100
AcDbSpline
210
0.0
220
0.0
230
1.0
 70
     8
 71
     3
 72
     9
 73
     5
 74
     0
 42
0.000000001
 43
0.00000001
 40
0.0
 40
0.0
 40
0.0
 40
0.0
 40
0.0701855556599275
 40
1.0
 40
1.0
 40
1.0
 40
1.0
 10
259.0257766963285
 20
148.2018467506228
 30
0.0
 10
258.9793129460796
 20
148.1729156207899
 30
0.0
 10
258.3172999462246
 20
147.7607064481059
 30
0.0
 10
257.6685627975106
 20
147.3567567311224
 30
0.0
 10
257.0653576260564
 20
146.981158449484
 30
0.0
  0
SPLINE
  5
47A
330
1B
100
AcDbEntity
 67
     1
  8
SLD-0_0
  6
SLD-実線
 62
   179
370
    25
100
AcDbSpline
210
0.0
220
0.0
230
1.0
 70
     8
 71
     3
 72
     9
 73
     5
 74
     0
 42
0.000000001
 43
0.00000001
 40
0.0
 40
0.0
 40
0.0
 40
0.0
 40
0.0701855410847431
 40
1.0
 40
1.0
 40
1.0
 40
1.0
 10
263.2543677631755
 20
141.4107483424577
 30
0.0
 10
263.3008315149197
 20
141.439679469857
 30
0.0
 10
263.9628446735586
 20
141.851888693469
 30
0.0
 10
264.61158175926
 20
142.2558388248139
 30
0.0
 10
265.2147868815799
 20
142.6314374976191
 30
0.0
  0
SPLINE
  5
47B
330
1B
100
AcDbEntity
 67
     1
  8
SLD-0_0
  6
SLD-実線
 62
   179
370
    25
100
AcDbSpline
210
0.0
220
0.0
230
1.0
 70
     8
 71
     3
 72
     9
 73
     5
 74
     0
 42
0.000000001
 43
0.00000001
 40
0.0
 40
0.0
 40
0.0
 40
0.0
 40
0.7789546553594249
 40
1.0
 40
1.0
 40
1.0
 40
1.0
 10
265.0609179885668
 20
147.2476763062001
 30
0.0
 10
264.5373614103529
 20
147.5271209758906
 30
0.0
 10
263.8652342529995
 20
147.8858641553144
 30
0.0
 10
263.1759252667644
 20
148.2537793640206
 30
0.0
 10
263.0235567243381
 20
148.3351053081275
 30
0.0
  0
SPLINE
  5
47C
330
1B
100
AcDbEntity
 67
     1
  8
SLD-0_0
  6
SLD-実線
 62
   179
370
    25
100
AcDbSpline
210
0.0
220
0.0
230
1.0
 70
     8
 71
     3
 72
     9
 73
     5
 74
     0
 42
0.000000001
 43
0.00000001
 40
0.0
 40
0.0
 40
0.0
 40
0.0
 40
0.0701845613005055
 40
1.0
 40
1.0
 40
1.0
 40
1.0
 10
265.1378516045039
 20
144.9395571818134
 30
0.0
 10
265.1360278520818
 20
144.9942607889409
 30
0.0
 10
265.1100427580913
 20
145.7736858663924
 30
0.0
 10
265.0845870753668
 20
146.5374845231183
 30
0.0
 10
265.0609179885669
 20
147.2476763062001
 30
0.0
  0
SPLINE
  5
47D
330
1B
100
AcDbEntity
 67
     1
  8
SLD-0_0
  6
SLD-実線
 62
   179
370
    25
100
AcDbSpline
210
0.0
220
0.0
230
1.0
 70
     8
 71
     3
 72
     9
 73
     5
 74
     0
 42
0.000000001
 43
0.00000001
 40
0.0
 40
0.0
 40
0.0
 40
0.0
 40
0.8027761181898605
 40
1.0
 40
1.0
 40
1.0
 40
1.0
 10
263.0235567243381
 20
148.3351053081275
 30
0.0
 10
262.4698733047006
 20
148.6306298255278
 30
0.0
 10
261.7801624287893
 20
148.998758013081
 30
0.0
 10
261.1169893781014
 20
149.3527259137088
 30
0.0
 10
260.9861958147329
 20
149.4225368371067
 30
0.0
  0
SPLINE
  5
47E
330
1B
100
AcDbEntity
 67
     1
  8
SLD-0_0
  6
SLD-実線
 62
   179
370
    25
100
AcDbSpline
210
0.0
220
0.0
230
1.0
 70
     8
 71
     3
 72
     9
 73
     5
 74
     0
 42
0.000000001
 43
0.00000001
 40
0.0
 40
0.0
 40
0.0
 40
0.0
 40
0.0701855095895324
 40
0.9999999999999999
 40
0.9999999999999999
 40
0.9999999999999999
 40
0.9999999999999999
 10
185.2527352758182
 20
181.3144150307343
 30
0.0
 10
185.2801026067436
 20
181.2670133120116
 30
0.0
 10
185.6700311131462
 20
180.5916357447632
 30
0.0
 10
186.0521431738744
 20
179.9297995702968
 30
0.0
 10
186.4074365049
 20
179.314414705
 30
0.0
  0
SPLINE
  5
47F
330
1B
100
AcDbEntity
 67
     1
  8
SLD-0_0
  6
SLD-実線
 62
   179
370
    25
100
AcDbSpline
210
0.0
220
0.0
230
1.0
 70
     8
 71
     3
 72
     9
 73
     5
 74
     0
 42
0.000000001
 43
0.00000001
 40
0.0
 40
0.0
 40
0.0
 40
0.0
 40
0.2210468378324219
 40
1.0
 40
1.0
 40
1.0
 40
1.0
 10
185.2527363240117
 20
185.3144155255899
 30
0.0
 10
185.1663790818298
 20
185.1648398997838
 30
0.0
 10
184.7757051277087
 20
184.4881705238595
 30
0.0
 10
184.3947673165818
 20
183.828369845665
 30
0.0
 10
184.0980346040152
 20
183.3144160209851
 30
0.0
  0
SPLINE
  5
480
330
1B
100
AcDbEntity
 67
     1
  8
SLD-0_0
  6
SLD-実線
 62
   179
370
    25
100
AcDbSpline
210
0.0
220
0.0
230
1.0
 70
    24
 71
     3
 72
     9
 73
     5
 74
     0
 42
0.000000001
 43
0.00000001
 40
0.0
 40
0.0
 40
0.0
 40
0.0
 40
0.0701850265928357
 40
1.0
 40
1.0
 40
1.0
 40
1.0
 10
188.7168381377449
 20
187.3144143703999
 30
0.0
 10
188.6621037827359
 20
187.3144144055483
 30
0.0
 10
187.8822457750368
 20
187.3144149063457
 30
0.0
 10
187.1180231703372
 20
187.3144153971024
 30
0.0
 10
186.4074375494714
 20
187.3144158534154
 30
0.0
  0
SPLINE
  5
481
330
1B
100
AcDbEntity
 67
     1
  8
SLD-0_0
  6
SLD-実線
 62
   179
370
    25
100
AcDbSpline
210
0.0
220
0.0
230
1.0
 70
     8
 71
     3
 72
     9
 73
     5
 74
     0
 42
0.000000001
 43
0.00000001
 40
0.0
 40
0.0
 40
0.0
 40
0.0
 40
0.1972245534598939
 40
1.0
 40
1.0
 40
1.0
 40
1.0
 10
186.4074375494714
 20
187.3144158534154
 30
0.0
 10
186.3333083724967
 20
187.1860199775464
 30
0.0
 10
185.9574465658696
 20
186.5350063303277
 30
0.0
 10
185.5665436149723
 20
185.8579442996236
 30
0.0
 10
185.2527363240117
 20
185.3144155255899
 30
0.0
  0
SPLINE
  5
482
330
1B
100
AcDbEntity
 67
     1
  8
SLD-0_0
  6
SLD-実線
 62
   179
370
    25
100
AcDbSpline
210
0.0
220
0.0
230
1.0
 70
     8
 71
     3
 72
     9
 73
     5
 74
     0
 42
0.000000001
 43
0.00000001
 40
0.0
 40
0.0
 40
0.0
 40
0.0
 40
0.7789531837681654
 40
1.0
 40
1.0
 40
1.0
 40
1.0
 10
191.0262383261353
 20
179.3144143704
 30
0.0
 10
191.3229708712705
 20
179.8283683818661
 30
0.0
 10
191.7039084568898
 20
180.4881692815554
 30
0.0
 10
192.094581947626
 20
181.1648390125803
 30
0.0
 10
192.1809390789394
 20
181.3144147022638
 30
0.0
  0
SPLINE
  5
483
330
1B
100
AcDbEntity
 67
     1
  8
SLD-0_0
  6
SLD-実線
 62
   179
370
    25
100
AcDbSpline
210
0.0
220
0.0
230
1.0
 70
    24
 71
     3
 72
     9
 73
     5
 74
     0
 42
0.000000001
 43
0.00000001
 40
0.0
 40
0.0
 40
0.0
 40
0.0
 40
0.0701852117212365
 40
1.0
 40
1.0
 40
1.0
 40
1.0
 10
188.7168372722
 20
179.3144143704
 30
0.0
 10
188.7715717825708
 20
179.3144143704
 30
0.0
 10
189.5514299468254
 20
179.3144143704001
 30
0.0
 10
190.3156527045053
 20
179.3144143704001
 30
0.0
 10
191.0262383261353
 20
179.3144143704
 30
0.0
  0
SPLINE
  5
484
330
1B
100
AcDbEntity
 67
     1
  8
SLD-0_0
  6
SLD-実線
 62
   179
370
    25
100
AcDbSpline
210
0.0
220
0.0
230
1.0
 70
     8
 71
     3
 72
     9
 73
     5
 74
     0
 42
0.000000001
 43
0.00000001
 40
0.0
 40
0.0
 40
0.0
 40
0.0
 40
0.8027754656621154
 40
1.0
 40
1.0
 40
1.0
 40
1.0
 10
192.1809390789394
 20
181.3144147022637
 30
0.0
 10
192.4947462645861
 20
181.8579434510288
 30
0.0
 10
192.8856490749851
 20
182.5350054341286
 30
0.0
 10
193.2615105095076
 20
183.1860191526136
 30
0.0
 10
193.3356396059069
 20
183.3144150300892
 30
0.0
  0
SPLINE
  5
485
330
1B
100
AcDbEntity
 67
     1
  8
SLD-0_0
  6
SLD-実線
 62
   179
370
    25
100
AcDbSpline
210
0.0
220
0.0
230
1.0
 70
     8
 71
     3
 72
     9
 73
     5
 74
     0
 42
0.000000001
 43
0.00000001
 40
0.0
 40
0.0
 40
0.0
 40
0.0
 40
0.0701840389003152
 40
1.0
 40
1.0
 40
1.0
 40
1.0
 10
192.1809385378614
 20
185.3144149757107
 30
0.0
 10
192.1535713758736
 20
185.3618154592496
 30
0.0
 10
191.763637105682
 20
186.0371895796566
 30
0.0
 10
191.3815291182179
 20
186.6990280463243
 30
0.0
 10
191.0262390126101
 20
187.3144160163017
 30
0.0
  0
SPLINE
  5
486
330
1B
100
AcDbEntity
 67
     1
  8
SLD-0_0
  6
SLD-実線
 62
   179
370
    25
100
AcDbSpline
210
0.0
220
0.0
230
1.0
 70
     8
 71
     3
 72
     9
 73
     5
 74
     0
 42
0.000000001
 43
0.00000001
 40
0.0
 40
0.0
 40
0.0
 40
0.0
 40
0.2210454580758575
 40
1.0
 40
1.0
 40
1.0
 40
1.0
 10
218.6341753677843
 20
72.51632127065619
 30
0.0
 10
218.6284209803807
 20
72.34370334522386
 30
0.0
 10
218.6023883830424
 20
71.56278738823057
 30
0.0
 10
218.5770075338918
 20
70.80133723533092
 30
0.0
 10
218.5572370061681
 20
70.20820218028089
 30
0.0
  0
SPLINE
  5
487
330
1B
100
AcDbEntity
 67
     1
  8
SLD-0_0
  6
SLD-実線
 62
   179
370
    25
100
AcDbSpline
210
0.0
220
0.0
230
1.0
 70
     8
 71
     3
 72
     9
 73
     5
 74
     0
 42
0.000000001
 43
0.00000001
 40
0.0
 40
0.0
 40
0.0
 40
0.0
 40
0.0701859294111628
 40
1.0
 40
1.0
 40
1.0
 40
1.0
 10
220.5176587193817
 20
68.98751395232428
 30
0.0
 10
220.5641224552286
 20
68.9585821779538
 30
0.0
 10
221.2261317245615
 20
68.5463660170622
 30
0.0
 10
221.8748718245632
 20
68.14242004835842
 30
0.0
 10
222.4780794977
 20
67.7668254029
 30
0.0
  0
SPLINE
  5
488
330
1B
100
AcDbEntity
 67
     1
  8
SLD-0_0
  6
SLD-実線
 62
   179
370
    25
100
AcDbSpline
210
0.0
220
0.0
230
1.0
 70
     8
 71
     3
 72
     9
 73
     5
 74
     0
 42
0.000000001
 43
0.00000001
 40
0.0
 40
0.0
 40
0.0
 40
0.0
 40
0.0701849076632425
 40
1.0
 40
1.0
 40
1.0
 40
1.0
 10
220.7484713606694
 20
75.91187116104
 30
0.0
 10
220.7001844642998
 20
75.88609870398749
 30
0.0
 10
220.0121890251466
 20
75.51889073990262
 30
0.0
 10
219.3379912200616
 20
75.15903741323277
 30
0.0
 10
218.7111119256733
 20
74.82444035906752
 30
0.0
  0
SPLINE
  5
489
330
1B
100
AcDbEntity
 67
     1
  8
SLD-0_0
  6
SLD-実線
 62
   179
370
    25
100
AcDbSpline
210
0.0
220
0.0
230
1.0
 70
     8
 71
     3
 72
     9
 73
     5
 74
     0
 42
0.000000001
 43
0.00000001
 40
0.0
 40
0.0
 40
0.0
 40
0.0
 40
0.1972241782645336
 40
1.0
 40
1.0
 40
1.0
 40
1.0
 10
218.7111119256733
 20
74.82444035906754
 30
0.0
 10
218.706172765023
 20
74.67626432576124
 30
0.0
 10
218.6811293819358
 20
73.92495667874668
 30
0.0
 10
218.6550839837308
 20
73.14358642122102
 30
0.0
 10
218.6341753677843
 20
72.51632127065619
 30
0.0
  0
SPLINE
  5
48A
330
1B
100
AcDbEntity
 67
     1
  8
SLD-0_0
  6
SLD-実線
 62
   179
370
    25
100
AcDbSpline
210
0.0
220
0.0
230
1.0
 70
     8
 71
     3
 72
     9
 73
     5
 74
     0
 42
0.000000001
 43
0.00000001
 40
0.0
 40
0.0
 40
0.0
 40
0.0
 40
0.7789545683121174
 40
1.0
 40
1.0
 40
1.0
 40
1.0
 10
226.5527964156797
 20
69.94168516629942
 30
0.0
 10
226.5725686315333
 20
70.53482018582477
 30
0.0
 10
226.597951646998
 20
71.29627026732386
 30
0.0
 10
226.6239810068953
 20
72.07718633147309
 30
0.0
 10
226.6297346779904
 20
72.24980425998496
 30
0.0
  0
SPLINE
  5
48B
330
1B
100
AcDbEntity
 67
     1
  8
SLD-0_0
  6
SLD-実線
 62
   179
370
    25
100
AcDbSpline
210
0.0
220
0.0
230
1.0
 70
     8
 71
     3
 72
     9
 73
     5
 74
     0
 42
0.000000001
 43
0.00000001
 40
0.0
 40
0.0
 40
0.0
 40
0.0
 40
0.0701857056282419
 40
1.0
 40
1.0
 40
1.0
 40
1.0
 10
224.5154388767412
 20
68.8542543017269
 30
0.0
 10
224.5637257537878
 20
68.88002803812395
 30
0.0
 10
225.2517130955761
 20
69.24725005529046
 30
0.0
 10
225.9259144028719
 20
69.60709561816883
 30
0.0
 10
226.5527964156797
 20
69.94168516629942
 30
0.0
  0
SPLINE
  5
48C
330
1B
100
AcDbEntity
 67
     1
  8
SLD-0_0
  6
SLD-実線
 62
   179
370
    25
100
AcDbSpline
210
0.0
220
0.0
230
1.0
 70
     8
 71
     3
 72
     9
 73
     5
 74
     0
 42
0.000000001
 43
0.00000001
 40
0.0
 40
0.0
 40
0.0
 40
0.0
 40
0.0701844128520786
 40
0.9999999999999999
 40
0.9999999999999999
 40
0.9999999999999999
 40
0.9999999999999999
 10
224.7462498231638
 20
75.77861233749086
 30
0.0
 10
224.6997867091238
 20
75.80754286931497
 30
0.0
 10
224.0377719945748
 20
76.2197502334357
 30
0.0
 10
223.3890352184053
 20
76.62370159215874
 30
0.0
 10
222.7858296519669
 20
76.99930186194901
 30
0.0
  0
SPLINE
  5
48D
330
1B
100
AcDbEntity
 67
     1
  8
SLD-0_0
  6
SLD-実線
 62
   179
370
    25
100
AcDbSpline
210
0.0
220
0.0
230
1.0
 70
     8
 71
     3
 72
     9
 73
     5
 74
     0
 42
0.000000001
 43
0.00000001
 40
0.0
 40
0.0
 40
0.0
 40
0.0
 40
0.8027758217354664
 40
1.0
 40
1.0
 40
1.0
 40
1.0
 10
226.6297346779904
 20
72.24980425998496
 30
0.0
 10
226.6506432939369
 20
72.87706941054978
 30
0.0
 10
226.6766886921419
 20
73.65843966807545
 30
0.0
 10
226.701732075229
 20
74.40974731508999
 30
0.0
 10
226.7066712358794
 20
74.55792334839629
 30
0.0
  0
ELLIPSE
  5
48E
330
1B
100
AcDbEntity
 67
     1
  8
SLD-0_0
  6
SLD-実線
 62
   179
370
    25
100
AcDbEllipse
 10
205.6743961461
 20
3064.2586885011
 30
0.0
 11
47.03871991210783
 21
2539.53239251024
 31
0.0
210
0.0
220
0.0
230
1.0
 40
0.0185098944
 41
3.082672371581113
 42
3.085801626288753
  0
ELLIPSE
  5
48F
330
1B
100
AcDbEntity
 67
     1
  8
SLD-0_0
  6
SLD-実線
 62
   179
370
    25
100
AcDbEllipse
 10
205.6743961461
 20
3064.2586885011
 30
0.0
 11
47.0387199176802
 21
2539.532392811082
 31
0.0
210
0.0
220
0.0
230
1.0
 40
0.0185098944
 41
3.19806938224272
 42
3.201198645322608
  0
ELLIPSE
  5
490
330
1B
100
AcDbEntity
 67
     1
  8
SLD-0_0
  6
SLD-実線
 62
   179
370
    25
100
AcDbEllipse
 10
205.6743961461
 20
3064.2586885011
 30
0.0
 11
-47.03872001714396
 21
2539.532398181001
 31
0.0
210
0.0
220
0.0
230
1.0
 40
0.0185098944
 41
3.081986616290691
 42
3.0851158817647
  0
ELLIPSE
  5
491
330
1B
100
AcDbEntity
 67
     1
  8
SLD-0_0
  6
SLD-実線
 62
   179
370
    25
100
AcDbEllipse
 10
205.6743961461
 20
3064.2586885011
 30
0.0
 11
-47.03871993962252
 21
2539.532393995764
 31
0.0
210
0.0
220
0.0
230
1.0
 40
0.0185098944
 41
3.197383690568476
 42
3.200512950070185
  0
ELLIPSE
  5
492
330
1B
100
AcDbEntity
 67
     1
  8
SLD-0_0
  6
SLD-実線
 62
   179
370
    25
100
AcDbEllipse
 10
238.9210295936
 20
635.7261452482
 30
0.0
 11
-1.414213562373106
 21
0.0
 31
0.0
210
0.0
220
0.0
230
1.0
 40
0.7071067812
 41
4.712388980384699
 42
5.322582907026837
  0
ELLIPSE
  5
493
330
1B
100
AcDbEntity
 67
     1
  8
SLD-0_0
  6
SLD-実線
 62
   179
370
    25
100
AcDbEllipse
 10
172.4277626987
 20
635.7261452482
 30
0.0
 11
1.414213562373106
 21
0.0
 31
0.0
210
0.0
220
0.0
230
1.0
 40
0.7071067812
 41
0.571416443605139
 42
1.570796326794897
  0
ELLIPSE
  5
494
330
1B
100
AcDbEntity
 67
     1
  8
SLD-0_0
  6
SLD-実線
 62
   179
370
    25
100
AcDbEllipse
 10
143.0932638389
 20
529.260893692
 30
0.0
 11
0.9985484211984212
 21
-0.3906656515762278
 31
0.0
210
0.0
220
0.0
230
1.0
 40
0.1378708387
 41
1.231984722634198
 42
2.690658158883461
  0
ELLIPSE
  5
495
330
1B
100
AcDbEntity
 67
     1
  8
SLD-0_0
  6
SLD-実線
 62
   179
370
    25
100
AcDbEllipse
 10
205.6743966099
 20
601.726143221
 30
0.0
 11
71.10693282923437
 21
71.10693282923341
 31
0.0
210
0.0
220
0.0
230
1.0
 40
0.1989123674
 41
3.43464456418621
 42
3.448512169618869
  0
ELLIPSE
  5
496
330
1B
100
AcDbEntity
 67
     1
  8
SLD-0_0
  6
SLD-実線
 62
   179
370
    25
100
AcDbEllipse
 10
158.3382858062
 20
459.7261452482
 30
0.0
 11
0.0
 21
5.0
 31
0.0
210
0.0
220
0.0
230
1.0
 40
0.9543329324
 41
4.712388980384715
 42
6.283185307179586
  0
ELLIPSE
  5
497
330
1B
100
AcDbEntity
 67
     1
  8
SLD-0_0
  6
SLD-実線
 62
   179
370
    25
100
AcDbEllipse
 10
174.0105064861
 20
459.7261452482
 30
0.0
 11
0.0
 21
5.0
 31
0.0
210
0.0
220
0.0
230
1.0
 40
0.9543329324
 41
0.0
 42
1.570796326794897
  0
ELLIPSE
  5
498
330
1B
100
AcDbEntity
 67
     1
  8
SLD-0_0
  6
SLD-実線
 62
   179
370
    25
100
AcDbEllipse
 10
175.1771731527
 20
459.7261452482
 30
0.0
 11
-5.002777006601207
 21
0.0
 31
0.0
210
0.0
220
0.0
230
1.0
 40
0.999444907
 41
4.712388980384715
 42
6.283185307179586
  0
ELLIPSE
  5
499
330
1B
100
AcDbEntity
 67
     1
  8
SLD-0_0
  6
SLD-実線
 62
   179
370
    25
100
AcDbEllipse
 10
236.1716191395
 20
459.7261452482
 30
0.0
 11
-5.002777006601207
 21
0.0
 31
0.0
210
0.0
220
0.0
230
1.0
 40
0.999444907
 41
3.141592653589623
 42
4.712388980384715
  0
ELLIPSE
  5
49A
330
1B
100
AcDbEntity
 67
     1
  8
SLD-0_0
  6
SLD-実線
 62
   179
370
    25
100
AcDbEllipse
 10
237.3382858062
 20
459.7261452482
 30
0.0
 11
0.0
 21
5.0
 31
0.0
210
0.0
220
0.0
230
1.0
 40
0.9543329324
 41
4.712388980384715
 42
6.283185307179586
  0
ELLIPSE
  5
49B
330
1B
100
AcDbEntity
 67
     1
  8
SLD-0_0
  6
SLD-実線
 62
   179
370
    25
100
AcDbEllipse
 10
253.0105064861
 20
459.7261452482
 30
0.0
 11
0.0
 21
5.0
 31
0.0
210
0.0
220
0.0
230
1.0
 40
0.9543329324
 41
0.0
 42
1.570796326794897
  0
ELLIPSE
  5
49C
330
1B
100
AcDbEntity
 67
     1
  8
SLD-0_0
  6
SLD-実線
 62
   179
370
    25
100
AcDbEllipse
 10
253.9105064861
 20
459.7261452482
 30
0.0
 11
0.0
 21
5.0
 31
0.0
210
0.0
220
0.0
230
1.0
 40
0.9865557714
 41
0.0
 42
1.570796326794897
  0
ELLIPSE
  5
49D
330
1B
100
AcDbEntity
 67
     1
  8
SLD-0_0
  6
SLD-実線
 62
   179
370
    25
100
AcDbEllipse
 10
236.4098769438
 20
319.8261452482
 30
0.0
 11
5.011722276968413
 21
0.0
 31
0.0
210
0.0
220
0.0
230
1.0
 40
0.9976610282
 41
4.712388980384709
 42
6.283185307179586
  0
ELLIPSE
  5
49E
330
1B
100
AcDbEntity
 67
     1
  8
SLD-0_0
  6
SLD-実線
 62
   179
370
    25
100
AcDbEllipse
 10
253.9771731527
 20
319.8261452482
 30
0.0
 11
0.0
 21
5.0
 31
0.0
210
0.0
220
0.0
230
1.0
 40
0.9998891047
 41
1.570796326794897
 42
3.141592653589793
  0
ELLIPSE
  5
49F
330
1B
100
AcDbEntity
 67
     1
  8
SLD-0_0
  6
SLD-実線
 62
   179
370
    25
100
AcDbEllipse
 10
179.8459711266
 20
341.8261471101
 30
0.0
 11
0.8267421051968142
 21
1.995932002951008
 31
0.0
210
0.0
220
0.0
230
1.0
 40
0.1542159533
 41
4.776180647924259
 42
6.21939520684138
  0
ELLIPSE
  5
4A0
330
1B
100
AcDbEntity
 67
     1
  8
SLD-0_0
  6
SLD-実線
 62
   179
370
    25
100
AcDbEllipse
 10
194.6077297219
 20
327.0643847901
 30
0.0
 11
-10.83999365355027
 21
11.20879114233963
 31
0.0
210
0.0
220
0.0
230
1.0
 40
0.1271852576
 41
0.0031785918266706
 42
0.1307619269058222
  0
ELLIPSE
  5
4A1
330
1B
100
AcDbEntity
 67
     1
  8
SLD-0_0
  6
SLD-実線
 62
   179
370
    25
100
AcDbEllipse
 10
216.7410628128
 20
327.0643847901
 30
0.0
 11
10.83999365355007
 21
11.20879114233941
 31
0.0
210
0.0
220
0.0
230
1.0
 40
0.1271852576
 41
6.15242338027398
 42
6.280006715353148
  0
ELLIPSE
  5
4A2
330
1B
100
AcDbEntity
 67
     1
  8
SLD-0_0
  6
SLD-実線
 62
   179
370
    25
100
AcDbEllipse
 10
231.5028229143
 20
341.8261456047
 30
0.0
 11
-0.8267421051968142
 21
1.995932002951008
 31
0.0
210
0.0
220
0.0
230
1.0
 40
0.1542159533
 41
0.063789691258526
 42
1.507004659255333
  0
ELLIPSE
  5
4A3
330
1B
100
AcDbEntity
 67
     1
  8
SLD-0_0
  6
SLD-実線
 62
   179
370
    25
100
AcDbEllipse
 10
183.4929747638
 20
338.1791397482
 30
0.0
 11
1.414213562373106
 21
1.41421356237305
 31
0.0
210
0.0
220
0.0
230
1.0
 40
0.0644061217
 41
4.839972315462928
 42
6.283165041921276
  0
ELLIPSE
  5
4A4
330
1B
100
AcDbEntity
 67
     1
  8
SLD-0_0
  6
SLD-実線
 62
   179
370
    25
100
AcDbEllipse
 10
227.8558177709
 20
338.1791397482
 30
0.0
 11
1.414213562373135
 21
-1.414213562373106
 31
0.0
210
0.0
220
0.0
230
1.0
 40
0.0644061217
 41
3.141592653590481
 42
4.584805645306386
  0
ELLIPSE
  5
4A5
330
1B
100
AcDbEntity
 67
     1
  8
SLD-0_0
  6
SLD-実線
 62
   179
370
    25
100
AcDbEllipse
 10
183.4929745214
 20
333.8261452482
 30
0.0
 11
0.0
 21
2.0
 31
0.0
210
0.0
220
0.0
230
1.0
 40
0.0907108124
 41
3.141591247738396
 42
4.712389454185303
  0
ELLIPSE
  5
4A6
330
1B
100
AcDbEntity
 67
     1
  8
SLD-0_0
  6
SLD-実線
 62
   179
370
    25
100
AcDbEllipse
 10
227.8558172902
 20
333.8261452482
 30
0.0
 11
0.0
 21
2.0
 31
0.0
210
0.0
220
0.0
230
1.0
 40
0.0907108124
 41
1.570795852996161
 42
3.141590075001364
  0
ELLIPSE
  5
4A7
330
1B
100
AcDbEntity
 67
     1
  8
SLD-0_0
  6
SLD-実線
 62
   179
370
    25
100
AcDbEllipse
 10
173.1760623501
 20
346.8261452482
 30
0.0
 11
3.001666203960724
 21
0.0
 31
0.0
210
0.0
220
0.0
230
1.0
 40
0.999444907
 41
3.141592248323104
 42
4.712388980384713
  0
ELLIPSE
  5
4A8
330
1B
100
AcDbEntity
 67
     1
  8
SLD-0_0
  6
SLD-実線
 62
   179
370
    25
100
AcDbEllipse
 10
238.1727299421
 20
346.8261452482
 30
0.0
 11
3.001666203960752
 21
0.0
 31
0.0
210
0.0
220
0.0
230
1.0
 40
0.999444907
 41
4.712388980384723
 42
6.283185712446143
  0
ENDSEC
  0
SECTION
  2
OBJECTS
  0
DICTIONARY
  5
C
330
0
100
AcDbDictionary
281
     1
  3
ACAD_GROUP
350
D
  3
ACAD_LAYOUT
350
1A
  3
ACAD_MLINESTYLE
350
17
  3
ACAD_PLOTSETTINGS
350
19
  3
ACAD_PLOTSTYLENAME
350
E
  3
ACAD_SCALELIST
350
47
  0
DICTIONARY
  5
D
102
{ACAD_REACTORS
330
C
102
}
330
C
100
AcDbDictionary
281
     1
  0
DICTIONARY
  5
1A
102
{ACAD_REACTORS
330
C
102
}
330
C
100
AcDbDictionary
281
     1
  3
Model
350
22
  3
SW_Model_1
350
1E
  0
DICTIONARY
  5
17
102
{ACAD_REACTORS
330
C
102
}
330
C
100
AcDbDictionary
281
     1
  3
Standard
350
18
  0
DICTIONARY
  5
19
102
{ACAD_REACTORS
330
C
102
}
330
C
100
AcDbDictionary
281
     1
  0
ACDBDICTIONARYWDFLT
  5
E
102
{ACAD_REACTORS
330
C
102
}
330
C
100
AcDbDictionary
281
     1
  3
Normal
350
F
100
AcDbDictionaryWithDefault
340
F
  0
DICTIONARY
  5
47
102
{ACAD_REACTORS
330
C
102
}
330
C
100
AcDbDictionary
281
     1
  3
A0
350
48
  3
A1
350
49
  3
A2
350
4A
  3
A3
350
4B
  3
A4
350
4C
  3
A5
350
4D
  3
A6
350
4E
  3
A7
350
4F
  3
A8
350
50
  3
A9
350
51
  3
B0
350
52
  3
B1
350
53
  3
B2
350
54
  3
B3
350
55
  3
B4
350
56
  3
B5
350
57
  3
B6
350
58
  3
B7
350
59
  3
B8
350
5A
  3
B9
350
5B
  3
C0
350
5C
  3
C1
350
5D
  3
C2
350
5E
  3
C3
350
5F
  3
C4
350
60
  3
C5
350
61
  3
C6
350
62
  3
C7
350
63
  3
C8
350
64
  3
C9
350
65
  3
D0
350
66
  3
D1
350
67
  3
D2
350
68
  0
LAYOUT
  5
22
102
{ACAD_REACTORS
330
1A
102
}
330
1A
100
AcDbPlotSettings
  1

  2
none_device
  4
Letter_(8.50_x_11.00_Inches)
  6

 40
6.35
 41
6.35
 42
6.35000508
 43
6.35000508
 44
215.9
 45
279.4
 46
0.0
 47
0.0
 48
0.0
 49
0.0
140
0.0
141
0.0
142
1.0
143
1.0
 70
  1712
 72
     1
 73
     0
 74
     0
  7

 75
     0
147
1.0
148
0.0
149
0.0
100
AcDbLayout
  1
Model
 70
     1
 71
     0
 10
0.0
 20
0.0
 11
2100.0
 21
1485.0
 12
0.0
 22
0.0
 32
0.0
 14
0.0
 24
0.0
 34
0.0
 15
420.0
 25
297.0
 35
0.0
146
0.0
 13
0.0
 23
0.0
 33
0.0
 16
1.0
 26
0.0
 36
0.0
 17
0.0
 27
1.0
 37
0.0
 76
     0
330
1F
331
29
  0
LAYOUT
  5
1E
102
{ACAD_REACTORS
330
1A
102
}
330
1A
100
AcDbPlotSettings
  1

  2
none_device
  4
ISO_A3_(420.00_x_297.00_MM)
  6

 40
7.5
 41
20.0
 42
7.5
 43
20.0
 44
420.0
 45
297.0
 46
0.0
 47
0.0
 48
0.0
 49
0.0
140
0.0
141
0.0
142
1.0
143
1.0
 70
  4832
 72
     1
 73
     0
 74
     1
  7

 75
     0
147
1.0
148
0.0
149
0.0
100
AcDbLayout
  1
SW_Model_1
 70
     1
 71
     1
 10
0.0
 20
0.0
 11
420.0
 21
297.0
 12
0.0
 22
0.0
 32
0.0
 14
0.0
 24
0.0
 34
0.0
 15
420.0
 25
297.0
 35
0.0
146
0.0
 13
0.0
 23
0.0
 33
0.0
 16
1.0
 26
0.0
 36
0.0
 17
0.0
 27
1.0
 37
0.0
 76
     0
330
1B
331
77
  0
MLINESTYLE
  5
18
102
{ACAD_REACTORS
330
17
102
}
330
17
100
AcDbMlineStyle
  2
Standard
 70
     0
  3

 62
   256
 51
90.0
 52
90.0
 71
     2
 49
0.5
 62
   256
  6
BYLAYER
 49
-0.5
 62
   256
  6
BYLAYER
  0
ACDBPLACEHOLDER
  5
F
102
{ACAD_REACTORS
330
E
102
}
330
E
  0
SCALE
  5
48
102
{ACAD_REACTORS
330
47
102
}
330
47
100
AcDbScale
 70
     0
300
1:1
140
1.0
141
1.0
290
     1
  0
SCALE
  5
49
102
{ACAD_REACTORS
330
47
102
}
330
47
100
AcDbScale
 70
     0
300
1:2
140
1.0
141
2.0
290
     0
  0
SCALE
  5
4A
102
{ACAD_REACTORS
330
47
102
}
330
47
100
AcDbScale
 70
     0
300
1:4
140
1.0
141
4.0
290
     0
  0
SCALE
  5
4B
102
{ACAD_REACTORS
330
47
102
}
330
47
100
AcDbScale
 70
     0
300
1:5
140
1.0
141
5.0
290
     0
  0
SCALE
  5
4C
102
{ACAD_REACTORS
330
47
102
}
330
47
100
AcDbScale
 70
     0
300
1:8
140
1.0
141
8.0
290
     0
  0
SCALE
  5
4D
102
{ACAD_REACTORS
330
47
102
}
330
47
100
AcDbScale
 70
     0
300
1:10
140
1.0
141
10.0
290
     0
  0
SCALE
  5
4E
102
{ACAD_REACTORS
330
47
102
}
330
47
100
AcDbScale
 70
     0
300
1:16
140
1.0
141
16.0
290
     0
  0
SCALE
  5
4F
102
{ACAD_REACTORS
330
47
102
}
330
47
100
AcDbScale
 70
     0
300
1:20
140
1.0
141
20.0
290
     0
  0
SCALE
  5
50
102
{ACAD_REACTORS
330
47
102
}
330
47
100
AcDbScale
 70
     0
300
1:30
140
1.0
141
30.0
290
     0
  0
SCALE
  5
51
102
{ACAD_REACTORS
330
47
102
}
330
47
100
AcDbScale
 70
     0
300
1:40
140
1.0
141
40.0
290
     0
  0
SCALE
  5
52
102
{ACAD_REACTORS
330
47
102
}
330
47
100
AcDbScale
 70
     0
300
1:50
140
1.0
141
50.0
290
     0
  0
SCALE
  5
53
102
{ACAD_REACTORS
330
47
102
}
330
47
100
AcDbScale
 70
     0
300
1:100
140
1.0
141
100.0
290
     0
  0
SCALE
  5
54
102
{ACAD_REACTORS
330
47
102
}
330
47
100
AcDbScale
 70
     0
300
2:1
140
2.0
141
1.0
290
     0
  0
SCALE
  5
55
102
{ACAD_REACTORS
330
47
102
}
330
47
100
AcDbScale
 70
     0
300
4:1
140
4.0
141
1.0
290
     0
  0
SCALE
  5
56
102
{ACAD_REACTORS
330
47
102
}
330
47
100
AcDbScale
 70
     0
300
8:1
140
8.0
141
1.0
290
     0
  0
SCALE
  5
57
102
{ACAD_REACTORS
330
47
102
}
330
47
100
AcDbScale
 70
     0
300
10:1
140
10.0
141
1.0
290
     0
  0
SCALE
  5
58
102
{ACAD_REACTORS
330
47
102
}
330
47
100
AcDbScale
 70
     0
300
100:1
140
100.0
141
1.0
290
     0
  0
SCALE
  5
59
102
{ACAD_REACTORS
330
47
102
}
330
47
100
AcDbScale
 70
     0
300
1/128" = 1'-0"
140
0.0078125
141
12.0
290
     0
  0
SCALE
  5
5A
102
{ACAD_REACTORS
330
47
102
}
330
47
100
AcDbScale
 70
     0
300
1/64" = 1'-0"
140
0.015625
141
12.0
290
     0
  0
SCALE
  5
5B
102
{ACAD_REACTORS
330
47
102
}
330
47
100
AcDbScale
 70
     0
300
1/32" = 1'-0"
140
0.03125
141
12.0
290
     0
  0
SCALE
  5
5C
102
{ACAD_REACTORS
330
47
102
}
330
47
100
AcDbScale
 70
     0
300
1/16" = 1'-0"
140
0.0625
141
12.0
290
     0
  0
SCALE
  5
5D
102
{ACAD_REACTORS
330
47
102
}
330
47
100
AcDbScale
 70
     0
300
3/32" = 1'-0"
140
0.09375
141
12.0
290
     0
  0
SCALE
  5
5E
102
{ACAD_REACTORS
330
47
102
}
330
47
100
AcDbScale
 70
     0
300
1/8" = 1'-0"
140
0.125
141
12.0
290
     0
  0
SCALE
  5
5F
102
{ACAD_REACTORS
330
47
102
}
330
47
100
AcDbScale
 70
     0
300
3/16" = 1'-0"
140
0.1875
141
12.0
290
     0
  0
SCALE
  5
60
102
{ACAD_REACTORS
330
47
102
}
330
47
100
AcDbScale
 70
     0
300
1/4" = 1'-0"
140
0.25
141
12.0
290
     0
  0
SCALE
  5
61
102
{ACAD_REACTORS
330
47
102
}
330
47
100
AcDbScale
 70
     0
300
3/8" = 1'-0"
140
0.375
141
12.0
290
     0
  0
SCALE
  5
62
102
{ACAD_REACTORS
330
47
102
}
330
47
100
AcDbScale
 70
     0
300
1/2" = 1'-0"
140
0.5
141
12.0
290
     0
  0
SCALE
  5
63
102
{ACAD_REACTORS
330
47
102
}
330
47
100
AcDbScale
 70
     0
300
3/4" = 1'-0"
140
0.75
141
12.0
290
     0
  0
SCALE
  5
64
102
{ACAD_REACTORS
330
47
102
}
330
47
100
AcDbScale
 70
     0
300
1" = 1'-0"
140
1.0
141
12.0
290
     0
  0
SCALE
  5
65
102
{ACAD_REACTORS
330
47
102
}
330
47
100
AcDbScale
 70
     0
300
1-1/2" = 1'-0"
140
1.5
141
12.0
290
     0
  0
SCALE
  5
66
102
{ACAD_REACTORS
330
47
102
}
330
47
100
AcDbScale
 70
     0
300
3" = 1'-0"
140
3.0
141
12.0
290
     0
  0
SCALE
  5
67
102
{ACAD_REACTORS
330
47
102
}
330
47
100
AcDbScale
 70
     0
300
6" = 1'-0"
140
6.0
141
12.0
290
     0
  0
SCALE
  5
68
102
{ACAD_REACTORS
330
47
102
}
330
47
100
AcDbScale
 70
     0
300
1'-0" = 1'-0"
140
12.0
141
12.0
290
     0
  0
ENDSEC
  0
EOF
