  0
SECTION
  2
HEADER
  9
$ACADVER
  1
AC1018
  9
$ACADMAINTVER
 70
     0
  9
$DWGCODEPAGE
  3
DOS932
  9
$INSBASE
 10
0.0
 20
0.0
 30
0.0
  9
$EXTMIN
 10
0.0
 20
0.0
 30
0.0
  9
$EXTMAX
 10
1117.6
 20
863.6
 30
0.0
  9
$LIMMIN
 10
0.0
 20
0.0
  9
$LIMMAX
 10
1117.6
 20
863.6
  9
$ORTHOMODE
 70
     0
  9
$REGENMODE
 70
     1
  9
$FILLMODE
 70
     1
  9
$QTEXTMODE
 70
     0
  9
$MIRRTEXT
 70
     1
  9
$LTSCALE
 40
1.0
  9
$ATTMODE
 70
     1
  9
$TEXTSIZE
 40
3.5
  9
$TRACEWID
 40
1.0
  9
$TEXTSTYLE
  7
Standard
  9
$CLAYER
  8
0
  9
$CELTYPE
  6
ByLayer
  9
$CECOLOR
 62
   256
  9
$CELTSCALE
 40
1.0
  9
$DISPSILH
 70
     0
  9
$DIMSCALE
 40
1.0
  9
$DIMASZ
 40
3.302
  9
$DIMEXO
 40
1.0
  9
$DIMDLI
 40
3.75
  9
$DIMRND
 40
0.0
  9
$DIMDLE
 40
0.0
  9
$DIMEXE
 40
1.0
  9
$DIMTP
 40
0.0
  9
$DIMTM
 40
0.0
  9
$DIMTXT
 40
3.5
  9
$DIMCEN
 40
2.5
  9
$DIMTSZ
 40
0.0
  9
$DIMTOL
 70
     0
  9
$DIMLIM
 70
     0
  9
$DIMTIH
 70
     1
  9
$DIMTOH
 70
     1
  9
$DIMSE1
 70
     0
  9
$DIMSE2
 70
     0
  9
$DIMTAD
 70
     1
  9
$DIMZIN
 70
     1
  9
$DIMBLK
  1

  9
$DIMASO
 70
     1
  9
$DIMSHO
 70
     1
  9
$DIMPOST
  1

  9
$DIMAPOST
  1

  9
$DIMALT
 70
     0
  9
$DIMALTD
 70
     3
  9
$DIMALTF
 40
0.0393700787
  9
$DIMLFAC
 40
1.0
  9
$DIMTOFL
 70
     1
  9
$DIMTVP
 40
0.0
  9
$DIMTIX
 70
     0
  9
$DIMSOXD
 70
     0
  9
$DIMSAH
 70
     0
  9
$DIMBLK1
  1

  9
$DIMBLK2
  1

  9
$DIMSTYLE
  2
ISO-25
  9
$DIMCLRD
 70
     0
  9
$DIMCLRE
 70
     0
  9
$DIMCLRT
 70
     0
  9
$DIMTFAC
 40
1.0
  9
$DIMGAP
 40
1.524
  9
$DIMJUST
 70
     0
  9
$DIMSD1
 70
     0
  9
$DIMSD2
 70
     0
  9
$DIMTOLJ
 70
     0
  9
$DIMTZIN
 70
     1
  9
$DIMALTZ
 70
     0
  9
$DIMALTTZ
 70
     0
  9
$DIMUPT
 70
     0
  9
$DIMDEC
 70
     4
  9
$DIMTDEC
 70
     4
  9
$DIMALTU
 70
     2
  9
$DIMALTTD
 70
     3
  9
$DIMTXSTY
  7
Standard
  9
$DIMAUNIT
 70
     0
  9
$DIMADEC
 70
     0
  9
$DIMALTRND
 40
0.0
  9
$DIMAZIN
 70
     0
  9
$DIMDSEP
 70
    44
  9
$DIMATFIT
 70
     3
  9
$DIMFRAC
 70
     0
  9
$DIMLDRBLK
  1

  9
$DIMLUNIT
 70
     2
  9
$DIMLWD
 70
    -2
  9
$DIMLWE
 70
    -2
  9
$DIMTMOVE
 70
     0
  9
$LUNITS
 70
     2
  9
$LUPREC
 70
     3
  9
$SKETCHINC
 40
1.0
  9
$FILLETRAD
 40
10.0
  9
$AUNITS
 70
     0
  9
$AUPREC
 70
     0
  9
$MENU
  1
.
  9
$ELEVATION
 40
0.0
  9
$PELEVATION
 40
0.0
  9
$THICKNESS
 40
0.0
  9
$LIMCHECK
 70
     0
  9
$CHAMFERA
 40
0.0
  9
$CHAMFERB
 40
0.0
  9
$CHAMFERC
 40
0.0
  9
$CHAMFERD
 40
0.0
  9
$SKPOLY
 70
     0
  9
$TDCREATE
 40
2460409.485048368
  9
$TDUCREATE
 40
2460409.110048368
  9
$TDUPDATE
 40
2460409.485048727
  9
$TDUUPDATE
 40
2460409.110048727
  9
$TDINDWG
 40
0.0000000116
  9
$TDUSRTIMER
 40
0.0000000116
  9
$USRTIMER
 70
     1
  9
$ANGBASE
 50
0.0
  9
$ANGDIR
 70
     0
  9
$PDMODE
 70
     0
  9
$PDSIZE
 40
-1.0
  9
$PLINEWID
 40
0.0
  9
$SPLFRAME
 70
     0
  9
$SPLINETYPE
 70
     6
  9
$SPLINESEGS
 70
     8
  9
$HANDSEED
  5
1A8
  9
$SURFTAB1
 70
     6
  9
$SURFTAB2
 70
     6
  9
$SURFTYPE
 70
     6
  9
$SURFU
 70
     6
  9
$SURFV
 70
     6
  9
$UCSBASE
  2

  9
$UCSNAME
  2

  9
$UCSORG
 10
0.0
 20
0.0
 30
0.0
  9
$UCSXDIR
 10
1.0
 20
0.0
 30
0.0
  9
$UCSYDIR
 10
0.0
 20
1.0
 30
0.0
  9
$UCSORTHOREF
  2

  9
$UCSORTHOVIEW
 70
     0
  9
$UCSORGTOP
 10
0.0
 20
0.0
 30
0.0
  9
$UCSORGBOTTOM
 10
0.0
 20
0.0
 30
0.0
  9
$UCSORGLEFT
 10
0.0
 20
0.0
 30
0.0
  9
$UCSORGRIGHT
 10
0.0
 20
0.0
 30
0.0
  9
$UCSORGFRONT
 10
0.0
 20
0.0
 30
0.0
  9
$UCSORGBACK
 10
0.0
 20
0.0
 30
0.0
  9
$PUCSBASE
  2

  9
$PUCSNAME
  2

  9
$PUCSORG
 10
0.0
 20
0.0
 30
0.0
  9
$PUCSXDIR
 10
1.0
 20
0.0
 30
0.0
  9
$PUCSYDIR
 10
0.0
 20
1.0
 30
0.0
  9
$PUCSORTHOREF
  2

  9
$PUCSORTHOVIEW
 70
     0
  9
$PUCSORGTOP
 10
0.0
 20
0.0
 30
0.0
  9
$PUCSORGBOTTOM
 10
0.0
 20
0.0
 30
0.0
  9
$PUCSORGLEFT
 10
0.0
 20
0.0
 30
0.0
  9
$PUCSORGRIGHT
 10
0.0
 20
0.0
 30
0.0
  9
$PUCSORGFRONT
 10
0.0
 20
0.0
 30
0.0
  9
$PUCSORGBACK
 10
0.0
 20
0.0
 30
0.0
  9
$USERI1
 70
     0
  9
$USERI2
 70
     0
  9
$USERI3
 70
     0
  9
$USERI4
 70
     0
  9
$USERI5
 70
     0
  9
$USERR1
 40
0.0
  9
$USERR2
 40
0.0
  9
$USERR3
 40
0.0
  9
$USERR4
 40
0.0
  9
$USERR5
 40
0.0
  9
$WORLDVIEW
 70
     1
  9
$SHADEDGE
 70
     3
  9
$SHADEDIF
 70
    70
  9
$TILEMODE
 70
     1
  9
$MAXACTVP
 70
    64
  9
$PINSBASE
 10
0.0
 20
0.0
 30
0.0
  9
$PLIMCHECK
 70
     0
  9
$PEXTMIN
 10
1.0000000000E+20
 20
1.0000000000E+20
 30
1.0000000000E+20
  9
$PEXTMAX
 10
-1.0000000000E+20
 20
-1.0000000000E+20
 30
-1.0000000000E+20
  9
$PLIMMIN
 10
0.0
 20
0.0
  9
$PLIMMAX
 10
420.0
 20
297.0
  9
$UNITMODE
 70
     0
  9
$VISRETAIN
 70
     1
  9
$PLINEGEN
 70
     0
  9
$PSLTSCALE
 70
     1
  9
$TREEDEPTH
 70
  3020
  9
$CMLSTYLE
  2
Standard
  9
$CMLJUST
 70
     0
  9
$CMLSCALE
 40
20.0
  9
$PROXYGRAPHICS
 70
     1
  9
$MEASUREMENT
 70
     1
  9
$CELWEIGHT
370
    -1
  9
$ENDCAPS
280
     0
  9
$JOINSTYLE
280
     0
  9
$LWDISPLAY
290
     1
  9
$INSUNITS
 70
     4
  9
$HYPERLINKBASE
  1

  9
$STYLESHEET
  1

  9
$XEDIT
290
     1
  9
$CEPSNTYPE
380
     0
  9
$PSTYLEMODE
290
     1
  9
$FINGERPRINTGUID
  2
{b6942141-eb9e-4003-b88d-08967a720e4a}
  9
$VERSIONGUID
  2
{FAEB1C32-E019-11D5-929B-00C0DF256EC4}
  9
$EXTNAMES
290
     1
  9
$PSVPSCALE
 40
0.0
  9
$OLESTARTUP
290
     0
  9
$SORTENTS
280
   127
  9
$INDEXCTL
280
     0
  9
$HIDETEXT
280
     1
  9
$XCLIPFRAME
290
     0
  9
$HALOGAP
280
     0
  9
$OBSCOLOR
 70
   257
  9
$OBSLTYPE
280
     0
  9
$INTERSECTIONDISPLAY
280
     0
  9
$INTERSECTIONCOLOR
 70
   257
  9
$DIMASSOC
280
     2
  9
$PROJECTNAME
  1

  0
ENDSEC
  0
SECTION
  2
CLASSES
  0
CLASS
  1
ACDBDICTIONARYWDFLT
  2
AcDbDictionaryWithDefault
  3
ObjectDBX Classes
 90
        0
 91
        3
280
     0
281
     0
  0
CLASS
  1
VISUALSTYLE
  2
AcDbVisualStyle
  3
ObjectDBX Classes
 90
     4095
 91
        3
280
     0
281
     0
  0
CLASS
  1
MATERIAL
  2
AcDbMaterial
  3
ObjectDBX Classes
 90
     1153
 91
        3
280
     0
281
     0
  0
CLASS
  1
SCALE
  2
AcDbScale
  3
ObjectDBX Classes
 90
     1153
 91
        3
280
     0
281
     0
  0
CLASS
  1
TABLESTYLE
  2
AcDbTableStyle
  3
ObjectDBX Classes
 90
     4095
 91
        3
280
     0
281
     0
  0
CLASS
  1
MLEADERSTYLE
  2
AcDbMLeaderStyle
  3
ACDB_MLEADERSTYLE_CLASS
 90
     4095
 91
        3
280
     0
281
     0
  0
CLASS
  1
SUN
  2
AcDbSun
  3
SCENEOE
 90
     1153
 91
        3
280
     0
281
     0
  0
CLASS
  1
DICTIONARYVAR
  2
AcDbDictionaryVar
  3
ObjectDBX Classes
 90
        0
 91
        3
280
     0
281
     0
  0
CLASS
  1
CELLSTYLEMAP
  2
AcDbCellStyleMap
  3
ObjectDBX Classes
 90
     1152
 91
        3
280
     0
281
     0
  0
ENDSEC
  0
SECTION
  2
TABLES
  0
TABLE
  2
VPORT
  5
8
330
0
100
AcDbSymbolTable
 70
     1
  0
VPORT
  5
29
330
8
100
AcDbSymbolTableRecord
100
AcDbViewportTableRecord
  2
*Active
 70
     0
 10
0.0
 20
0.0
 11
1.0
 21
1.0
 12
558.8
 22
431.8
 13
0.0
 23
0.0
 14
10.0
 24
10.0
 15
10.0
 25
10.0
 16
0.0
 26
0.0
 36
1.0
 17
0.0
 27
0.0
 37
0.0
 40
863.6
 41
1.2941176471
 42
50.0
 43
0.0
 44
0.0
 50
0.0
 51
0.0
 71
     0
 72
  2000
 73
     1
 74
     3
 75
     0
 76
     0
 77
     0
 78
     0
281
     0
 65
     1
110
0.0
120
0.0
130
0.0
111
1.0
121
0.0
131
0.0
112
0.0
122
1.0
132
0.0
 79
     0
146
0.0
  0
ENDTAB
  0
TABLE
  2
LTYPE
  5
5
330
0
100
AcDbSymbolTable
 70
     8
  0
LTYPE
  5
14
330
5
100
AcDbSymbolTableRecord
100
AcDbLinetypeTableRecord
  2
ByBlock
 70
     0
  3

 72
    65
 73
     0
 40
0.0
  0
LTYPE
  5
15
330
5
100
AcDbSymbolTableRecord
100
AcDbLinetypeTableRecord
  2
ByLayer
 70
     0
  3

 72
    65
 73
     0
 40
0.0
  0
LTYPE
  5
16
330
5
100
AcDbSymbolTableRecord
100
AcDbLinetypeTableRecord
  2
Continuous
 70
     0
  3
Solid line
 72
    65
 73
     0
 40
0.0
  0
LTYPE
  5
6E
330
5
100
AcDbSymbolTableRecord
100
AcDbLinetypeTableRecord
  2
SLD-実線
 70
     0
  3
SolidWorks Line Style
 72
    65
 73
     0
 40
0.0
  0
LTYPE
  5
6F
330
5
100
AcDbSymbolTableRecord
100
AcDbLinetypeTableRecord
  2
SLD-破線
 70
     0
  3
SolidWorks Line Style
 72
    65
 73
     2
 40
1.905
 49
1.27
 74
     0
 49
-0.635
 74
     0
  0
LTYPE
  5
70
330
5
100
AcDbSymbolTableRecord
100
AcDbLinetypeTableRecord
  2
SLD-2点鎖線
 70
     0
  3
SolidWorks Line Style
 72
    65
 73
     6
 40
12.7
 49
6.35
 74
     0
 49
-1.27
 74
     0
 49
1.27
 74
     0
 49
-1.27
 74
     0
 49
1.27
 74
     0
 49
-1.27
 74
     0
  0
LTYPE
  5
71
330
5
100
AcDbSymbolTableRecord
100
AcDbLinetypeTableRecord
  2
SLD-鎖線
 70
     0
  3
SolidWorks Line Style
 72
    65
 73
     4
 40
10.16
 49
6.35
 74
     0
 49
-1.27
 74
     0
 49
1.27
 74
     0
 49
-1.27
 74
     0
  0
LTYPE
  5
72
330
5
100
AcDbSymbolTableRecord
100
AcDbLinetypeTableRecord
  2
SLD-1点鎖線(中心線)
 70
     0
  3
SolidWorks Line Style
 72
    65
 73
     4
 40
34.29
 49
30.48
 74
     0
 49
-1.27
 74
     0
 49
1.27
 74
     0
 49
-1.27
 74
     0
  0
LTYPE
  5
73
330
5
100
AcDbSymbolTableRecord
100
AcDbLinetypeTableRecord
  2
SLD-点線
 70
     0
  3
SolidWorks Line Style
 72
    65
 73
     2
 40
0.635
 49
0.0
 74
     0
 49
-0.635
 74
     0
  0
LTYPE
  5
74
330
5
100
AcDbSymbolTableRecord
100
AcDbLinetypeTableRecord
  2
SLD-細-太鎖線(切断面)
 70
     0
  3
SolidWorks Line Style
 72
    65
 73
     4
 40
10.16
 49
6.35
 74
     0
 49
-1.27
 74
     0
 49
1.27
 74
     0
 49
-1.27
 74
     0
  0
ENDTAB
  0
TABLE
  2
LAYER
  5
2
330
0
100
AcDbSymbolTable
 70
     5
  0
LAYER
  5
10
330
2
100
AcDbSymbolTableRecord
100
AcDbLayerTableRecord
  2
0
 70
     0
 62
     7
  6
Continuous
370
    -3
390
F
  0
LAYER
  5
75
330
2
100
AcDbSymbolTableRecord
100
AcDbLayerTableRecord
  2
SLD-0_0
 70
     0
 62
     7
  6
Continuous
370
    -1
390
F
  0
LAYER
  5
76
330
2
100
AcDbSymbolTableRecord
100
AcDbLayerTableRecord
  2
SLD-0
 70
     0
 62
   179
  6
SLD-実線
370
    -3
390
F
  0
LAYER
  5
77
330
2
100
AcDbSymbolTableRecord
100
AcDbLayerTableRecord
  2
100
 70
     0
 62
   179
  6
SLD-実線
370
    -3
390
F
  0
LAYER
  5
78
330
2
100
AcDbSymbolTableRecord
100
AcDbLayerTableRecord
  2
1
 70
     0
 62
   179
  6
SLD-実線
370
    -3
390
F
  0
ENDTAB
  0
TABLE
  2
STYLE
  5
3
330
0
100
AcDbSymbolTable
 70
     1
  0
STYLE
  5
11
330
3
100
AcDbSymbolTableRecord
100
AcDbTextStyleTableRecord
  2
Standard
 70
     0
 40
0.0
 41
1.0
 50
0.0
 71
     0
 42
3.5
  3
txt
  4
bigfont
  0
ENDTAB
  0
TABLE
  2
VIEW
  5
6
330
0
100
AcDbSymbolTable
 70
     0
  0
ENDTAB
  0
TABLE
  2
UCS
  5
7
330
0
100
AcDbSymbolTable
 70
     0
  0
ENDTAB
  0
TABLE
  2
APPID
  5
9
330
0
100
AcDbSymbolTable
 70
     2
  0
APPID
  5
12
330
9
100
AcDbSymbolTableRecord
100
AcDbRegAppTableRecord
  2
ACAD
 70
     0
  0
APPID
  5
1A0
330
9
100
AcDbSymbolTableRecord
100
AcDbRegAppTableRecord
  2
ACAD_MLEADERVER
 70
     0
  0
ENDTAB
  0
TABLE
  2
DIMSTYLE
  5
A
330
0
100
AcDbSymbolTable
 70
     1
100
AcDbDimStyleTable
  0
DIMSTYLE
105
27
330
A
100
AcDbSymbolTableRecord
100
AcDbDimStyleTableRecord
  2
ISO-25
 70
     0
 41
2.5
 42
0.625
 43
3.75
 44
1.25
 73
     0
 74
     0
 77
     1
 78
     8
140
2.5
141
2.5
143
0.0393700787
147
0.625
171
     3
172
     1
178
     0
271
     2
272
     2
274
     3
278
    44
283
     0
284
     8
340
11
  0
ENDTAB
  0
TABLE
  2
BLOCK_RECORD
  5
1
330
0
100
AcDbSymbolTable
 70
     1
  0
BLOCK_RECORD
  5
1F
330
1
100
AcDbSymbolTableRecord
100
AcDbBlockTableRecord
  2
*Model_Space
340
22
  0
BLOCK_RECORD
  5
1B
330
1
100
AcDbSymbolTableRecord
100
AcDbBlockTableRecord
  2
*Paper_Space
340
1E
  0
BLOCK_RECORD
  5
23
330
1
100
AcDbSymbolTableRecord
100
AcDbBlockTableRecord
  2
*Paper_Space0
340
26
  0
ENDTAB
  0
ENDSEC
  0
SECTION
  2
BLOCKS
  0
BLOCK
  5
20
330
1F
100
AcDbEntity
  8
0
100
AcDbBlockBegin
  2
*Model_Space
 70
     0
 10
0.0
 20
0.0
 30
0.0
  3
*Model_Space
  1

  0
ENDBLK
  5
21
330
1F
100
AcDbEntity
  8
0
100
AcDbBlockEnd
  0
BLOCK
  5
1C
330
1B
100
AcDbEntity
 67
     1
  8
0
100
AcDbBlockBegin
  2
*Paper_Space
 70
     0
 10
0.0
 20
0.0
 30
0.0
  3
*Paper_Space
  1

  0
ENDBLK
  5
1D
330
1B
100
AcDbEntity
 67
     1
  8
0
100
AcDbBlockEnd
  0
BLOCK
  5
24
330
23
100
AcDbEntity
  8
0
100
AcDbBlockBegin
  2
*Paper_Space0
 70
     0
 10
0.0
 20
0.0
 30
0.0
  3
*Paper_Space0
  1

  0
ENDBLK
  5
25
330
23
100
AcDbEntity
  8
0
100
AcDbBlockEnd
  0
ENDSEC
  0
SECTION
  2
ENTITIES
  0
LINE
  5
79
330
1F
100
AcDbEntity
  8
1
  6
SLD-実線
 62
     7
370
    18
100
AcDbLine
 10
533.9436360349
 20
706.8686190057
 30
0.0
 11
584.9436360489
 21
706.8686190057
 31
0.0
  0
LINE
  5
7A
330
1F
100
AcDbEntity
  8
1
  6
SLD-実線
 62
     7
370
    18
100
AcDbLine
 10
594.6436360507
 20
619.0787429818
 30
0.0
 11
594.6436360507
 21
697.1686190013
 31
0.0
  0
LINE
  5
7B
330
1F
100
AcDbEntity
  8
1
  6
SLD-実線
 62
     7
370
    18
100
AcDbLine
 10
533.9436360349
 20
609.37874298
 30
0.0
 11
584.9436360489
 21
609.37874298
 31
0.0
  0
LINE
  5
7C
330
1F
100
AcDbEntity
  8
1
  6
SLD-実線
 62
     7
370
    18
100
AcDbLine
 10
524.2436360318
 20
619.078742983
 30
0.0
 11
524.2436360318
 21
697.1686190026
 31
0.0
  0
LINE
  5
7D
330
1F
100
AcDbEntity
  8
SLD-0
  6
SLD-実線
 62
     7
370
    18
100
AcDbLine
 10
594.6436360482
 20
320.2553589102
 30
0.0
 11
594.6436360482
 21
346.605678917
 31
0.0
  0
LINE
  5
7E
330
1F
100
AcDbEntity
  8
SLD-0
  6
SLD-実線
 62
     7
370
    18
100
AcDbLine
 10
524.2436360318
 20
320.2553589089
 30
0.0
 11
524.2436360318
 21
346.6056789158
 31
0.0
  0
LINE
  5
7F
330
1F
100
AcDbEntity
  8
SLD-0
  6
SLD-1点鎖線(中心線)
 62
     7
370
    18
100
AcDbLine
 10
559.4436360406
 20
283.4711709001
 30
0.0
 11
559.4436360406
 21
720.2210270074
 31
0.0
  0
LINE
  5
80
330
1F
100
AcDbEntity
  8
SLD-0
  6
SLD-実線
 62
     7
370
    18
100
AcDbLine
 10
620.4436360572
 20
595.396282977
 30
0.0
 11
620.4436360572
 21
586.396282976
 31
0.0
  0
LINE
  5
81
330
1F
100
AcDbEntity
  8
SLD-0
  6
SLD-実線
 62
     7
370
    18
100
AcDbLine
 10
612.7926996484
 20
683.2481956542
 30
0.0
 11
609.7506564589
 21
686.0247943428
 31
0.0
  0
LINE
  5
82
330
1F
100
AcDbEntity
  8
SLD-0
  6
SLD-実線
 62
     7
370
    18
100
AcDbLine
 10
614.6815079898
 20
686.0219339526
 30
0.0
 11
618.1915441219
 21
683.2510600456
 31
0.0
  0
LINE
  5
83
330
1F
100
AcDbEntity
  8
SLD-0
  6
SLD-実線
 62
     7
370
    18
100
AcDbLine
 10
614.3011240547
 20
686.8068389998
 30
0.0
 11
614.3011240547
 21
687.396283
 31
0.0
  0
LINE
  5
84
330
1F
100
AcDbEntity
  8
SLD-0
  6
SLD-実線
 62
     7
370
    18
100
AcDbLine
 10
611.713984055
 20
687.396283
 30
0.0
 11
611.713984055
 21
684.2327870003
 31
0.0
  0
LINE
  5
85
330
1F
100
AcDbEntity
  8
SLD-0
  6
SLD-実線
 62
     7
370
    18
100
AcDbLine
 10
618.5719280565
 20
595.3962829774
 30
0.0
 11
618.5719280565
 21
682.4661549994
 31
0.0
  0
LINE
  5
86
330
1F
100
AcDbEntity
  8
SLD-0
  6
SLD-実線
 62
     7
370
    18
100
AcDbLine
 10
609.4248040537
 20
686.7633909993
 30
0.0
 11
609.4248040537
 21
687.396283
 31
0.0
  0
LINE
  5
87
330
1F
100
AcDbEntity
  8
SLD-0
  6
SLD-実線
 62
     7
370
    18
100
AcDbLine
 10
606.6958640531
 20
687.396283
 30
0.0
 11
606.6958640531
 21
595.396282977
 31
0.0
  0
LINE
  5
88
330
1F
100
AcDbEntity
  8
SLD-0
  6
SLD-実線
 62
     7
370
    18
100
AcDbLine
 10
613.1185520536
 20
682.5095989978
 30
0.0
 11
613.1185520536
 21
595.3962829758
 31
0.0
  0
LINE
  5
89
330
1F
100
AcDbEntity
  8
SLD-0
  6
SLD-実線
 62
     7
370
    18
100
AcDbLine
 10
598.3096920523
 20
706.7395390048
 30
0.0
 11
598.3096920523
 21
595.396282977
 31
0.0
  0
LINE
  5
8A
330
1F
100
AcDbEntity
  8
SLD-0
  6
SLD-実線
 62
     7
370
    18
100
AcDbLine
 10
602.2009640513
 20
706.4512950042
 30
0.0
 11
602.2009640513
 21
595.396282977
 31
0.0
  0
LINE
  5
8B
330
1F
100
AcDbEntity
  8
SLD-0
  6
SLD-実線
 62
     7
370
    18
100
AcDbLine
 10
605.0293920521
 20
706.2417830051
 30
0.0
 11
605.0293920521
 21
595.396282977
 31
0.0
  0
LINE
  5
8C
330
1F
100
AcDbEntity
  8
SLD-0
  6
SLD-実線
 62
     7
370
    18
100
AcDbLine
 10
580.3293560471
 20
609.37874298
 30
0.0
 11
580.3293560471
 21
595.396282977
 31
0.0
  0
LINE
  5
8D
330
1F
100
AcDbEntity
  8
SLD-0
  6
SLD-実線
 62
     7
370
    18
100
AcDbLine
 10
583.9109440478
 20
609.37874298
 30
0.0
 11
583.9109440478
 21
595.396282977
 31
0.0
  0
LINE
  5
8E
330
1F
100
AcDbEntity
  8
SLD-0
  6
SLD-実線
 62
     7
370
    18
100
AcDbLine
 10
594.278356051
 20
595.396282977
 30
0.0
 11
594.278356051
 21
616.4418749827
 31
0.0
  0
LINE
  5
8F
330
1F
100
AcDbEntity
  8
SLD-0
  6
SLD-実線
 62
     7
370
    18
100
AcDbLine
 10
589.6446120495
 20
595.396282977
 30
0.0
 11
589.6446120495
 21
610.5940029802
 31
0.0
  0
LINE
  5
90
330
1F
100
AcDbEntity
  8
SLD-0
  6
SLD-実線
 62
     7
370
    18
100
AcDbLine
 10
618.9436377446
 20
686.1076079738
 30
0.0
 11
622.9595577443
 21
683.789015974
 31
0.0
  0
LINE
  5
91
330
1F
100
AcDbEntity
  8
SLD-0
  6
SLD-実線
 62
     7
370
    18
100
AcDbLine
 10
577.4436360451
 20
586.396282976
 30
0.0
 11
577.4436360451
 21
609.37874298
 31
0.0
  0
LINE
  5
92
330
1F
100
AcDbEntity
  8
SLD-0
  6
SLD-実線
 62
     7
370
    18
100
AcDbLine
 10
629.3509520601
 20
598.396282979
 30
0.0
 11
625.6911960573
 21
602.653294978
 31
0.0
  0
LINE
  5
93
330
1F
100
AcDbEntity
  8
SLD-0
  6
SLD-実線
 62
     7
370
    18
100
AcDbLine
 10
629.3509520601
 20
598.396282979
 30
0.0
 11
629.3509520601
 21
586.396282976
 31
0.0
  0
LINE
  5
94
330
1F
100
AcDbEntity
  8
SLD-0
  6
SLD-実線
 62
     7
370
    18
100
AcDbLine
 10
623.4591702114
 20
682.9507802501
 30
0.0
 11
625.9270782118
 21
594.1675082285
 31
0.0
  0
LINE
  5
95
330
1F
100
AcDbEntity
  8
SLD-0
  6
SLD-実線
 62
     7
370
    18
100
AcDbLine
 10
616.9345434672
 20
687.3962831529
 30
0.0
 11
617.0224234667
 21
684.1739751525
 31
0.0
  0
LINE
  5
96
330
1F
100
AcDbEntity
  8
SLD-0
  6
SLD-実線
 62
     7
370
    18
100
AcDbLine
 10
577.4436360451
 20
595.396282977
 30
0.0
 11
620.4436360572
 21
595.396282977
 31
0.0
  0
LINE
  5
97
330
1F
100
AcDbEntity
  8
SLD-0
  6
SLD-実線
 62
     7
370
    18
100
AcDbLine
 10
529.2426600343
 20
595.396282977
 30
0.0
 11
529.2426600343
 21
610.5940029802
 31
0.0
  0
LINE
  5
98
330
1F
100
AcDbEntity
  8
SLD-0
  6
SLD-実線
 62
     7
370
    18
100
AcDbLine
 10
520.577584032
 20
706.7395390048
 30
0.0
 11
520.577584032
 21
595.396282977
 31
0.0
  0
LINE
  5
99
330
1F
100
AcDbEntity
  8
SLD-0
  6
SLD-実線
 62
     7
370
    18
100
AcDbLine
 10
513.8578840297
 20
706.2417830051
 30
0.0
 11
513.8578840297
 21
595.396282977
 31
0.0
  0
LINE
  5
9A
330
1F
100
AcDbEntity
  8
SLD-0
  6
SLD-実線
 62
     7
370
    18
100
AcDbLine
 10
516.6863120304
 20
706.4512950042
 30
0.0
 11
516.6863120304
 21
595.396282977
 31
0.0
  0
LINE
  5
9B
330
1F
100
AcDbEntity
  8
SLD-0
  6
SLD-実線
 62
     7
370
    18
100
AcDbLine
 10
524.6089200333
 20
595.396282977
 30
0.0
 11
524.6089200333
 21
616.4418749827
 31
0.0
  0
LINE
  5
9C
330
1F
100
AcDbEntity
  8
SLD-0
  6
SLD-実線
 62
     7
370
    18
100
AcDbLine
 10
500.4436351835
 20
686.9736355353
 30
0.0
 11
500.4436351835
 21
687.3962835343
 31
0.0
  0
LINE
  5
9D
330
1F
100
AcDbEntity
  8
SLD-0
  6
SLD-実線
 62
     7
370
    18
100
AcDbLine
 10
501.9527273065
 20
687.3962832754
 30
0.0
 11
499.8399193045
 21
609.9266312554
 31
0.0
  0
LINE
  5
9E
330
1F
100
AcDbEntity
  8
SLD-0
  6
SLD-実線
 62
     7
370
    18
100
AcDbLine
 10
541.4436360361
 20
586.396282976
 30
0.0
 11
541.4436360361
 21
609.37874298
 31
0.0
  0
LINE
  5
9F
330
1F
100
AcDbEntity
  8
SLD-0
  6
SLD-実線
 62
     7
370
    18
100
AcDbLine
 10
499.8399193045
 20
609.9266312554
 30
0.0
 11
490.0450033038
 21
598.9655272543
 31
0.0
  0
LINE
  5
A0
330
1F
100
AcDbEntity
  8
SLD-0
  6
SLD-実線
 62
     7
370
    18
100
AcDbLine
 10
507.1479073073
 20
610.3962832574
 30
0.0
 11
496.9333033042
 21
598.9655272543
 31
0.0
  0
LINE
  5
A1
330
1F
100
AcDbEntity
  8
SLD-0
  6
SLD-実線
 62
     7
370
    18
100
AcDbLine
 10
507.1479080288
 20
618.8457389837
 30
0.0
 11
507.1479080288
 21
586.396282976
 31
0.0
  0
LINE
  5
A2
330
1F
100
AcDbEntity
  8
SLD-0
  6
SLD-実線
 62
     7
370
    18
100
AcDbLine
 10
495.4281040262
 20
682.9507789979
 30
0.0
 11
493.1914440241
 21
602.4865829797
 31
0.0
  0
LINE
  5
A3
330
1F
100
AcDbEntity
  8
SLD-0
  6
SLD-実線
 62
     7
370
    18
100
AcDbLine
 10
499.9436334965
 20
686.1076085076
 30
0.0
 11
495.9277174948
 21
683.7890165078
 31
0.0
  0
LINE
  5
A4
330
1F
100
AcDbEntity
  8
SLD-0
  6
SLD-実線
 62
     7
370
    18
100
AcDbLine
 10
500.1986553054
 20
623.0803312598
 30
0.0
 11
499.8399193045
 21
609.9266312554
 31
0.0
  0
LINE
  5
A5
330
1F
100
AcDbEntity
  8
SLD-0
  6
SLD-実線
 62
     7
370
    18
100
AcDbLine
 10
541.4436360361
 20
595.396282977
 30
0.0
 11
507.1479080288
 21
595.396282977
 31
0.0
  0
LINE
  5
A6
330
1F
100
AcDbEntity
  8
SLD-0
  6
SLD-実線
 62
     7
370
    18
100
AcDbLine
 10
489.5363240242
 20
597.6328749782
 30
0.0
 11
489.5363240242
 21
586.396282976
 31
0.0
  0
LINE
  5
A7
330
1F
100
AcDbEntity
  8
SLD-0
  6
SLD-実線
 62
     7
370
    18
100
AcDbLine
 10
496.4246240246
 20
597.6328749782
 30
0.0
 11
496.4246240246
 21
586.396282976
 31
0.0
  0
LINE
  5
A8
330
1F
100
AcDbEntity
  8
SLD-0
  6
SLD-実線
 62
     7
370
    18
100
AcDbLine
 10
496.5760560255
 20
598.396282979
 30
0.0
 11
489.6877520246
 21
598.396282979
 31
0.0
  0
LINE
  5
A9
330
1F
100
AcDbEntity
  8
SLD-0
  6
SLD-実線
 62
     7
370
    18
100
AcDbLine
 10
616.9345434672
 20
687.3962831529
 30
0.0
 11
617.0224234667
 21
684.1739751525
 31
0.0
  0
LINE
  5
AA
330
1F
100
AcDbEntity
  8
SLD-0
  6
SLD-実線
 62
     7
370
    18
100
AcDbLine
 10
614.3011240547
 20
686.8068389998
 30
0.0
 11
614.3011240547
 21
687.396283
 31
0.0
  0
LINE
  5
AB
330
1F
100
AcDbEntity
  8
SLD-0
  6
SLD-実線
 62
     7
370
    18
100
AcDbLine
 10
611.713984055
 20
687.396283
 30
0.0
 11
611.713984055
 21
684.2327870003
 31
0.0
  0
LINE
  5
AC
330
1F
100
AcDbEntity
  8
SLD-0
  6
SLD-実線
 62
     7
370
    18
100
AcDbLine
 10
609.4248040537
 20
686.7633909993
 30
0.0
 11
609.4248040537
 21
687.396283
 31
0.0
  0
LINE
  5
AD
330
1F
100
AcDbEntity
  8
SLD-0
  6
SLD-実線
 62
     7
370
    18
100
AcDbLine
 10
614.6815079898
 20
686.0219339526
 30
0.0
 11
618.1915441219
 21
683.2510600456
 31
0.0
  0
LINE
  5
AE
330
1F
100
AcDbEntity
  8
SLD-0
  6
SLD-実線
 62
     7
370
    18
100
AcDbLine
 10
612.7926996484
 20
683.2481956542
 30
0.0
 11
609.7506564589
 21
686.0247943428
 31
0.0
  0
LINE
  5
AF
330
1F
100
AcDbEntity
  8
SLD-0
  6
SLD-実線
 62
     7
370
    18
100
AcDbLine
 10
618.9436377446
 20
686.1076079738
 30
0.0
 11
622.9595577443
 21
683.789015974
 31
0.0
  0
LINE
  5
B0
330
1F
100
AcDbEntity
  8
SLD-0
  6
SLD-実線
 62
     7
370
    18
100
AcDbLine
 10
534.9763320366
 20
609.37874298
 30
0.0
 11
534.9763320366
 21
595.396282977
 31
0.0
  0
LINE
  5
B1
330
1F
100
AcDbEntity
  8
SLD-0
  6
SLD-実線
 62
     7
370
    18
100
AcDbLine
 10
538.5579200372
 20
609.37874298
 30
0.0
 11
538.5579200372
 21
595.396282977
 31
0.0
  0
LINE
  5
B2
330
1F
100
AcDbEntity
  8
SLD-0
  6
SLD-1点鎖線(中心線)
 62
     7
370
    18
100
AcDbLine
 10
540.912588038
 20
325.3915069094
 30
0.0
 11
577.2613040451
 21
325.3915069094
 31
0.0
  0
LINE
  5
B3
330
1F
100
AcDbEntity
  8
SLD-0
  6
SLD-実線
 62
     7
370
    18
100
AcDbLine
 10
526.4436360324
 20
348.8056789163
 30
0.0
 11
559.4436360394
 21
348.8056789163
 31
0.0
  0
LINE
  5
B4
330
1F
100
AcDbEntity
  8
SLD-0
  6
SLD-実線
 62
     7
370
    18
100
AcDbLine
 10
559.4436360406
 20
350.7553589146
 30
0.0
 11
536.9436360369
 21
350.7553589146
 31
0.0
  0
LINE
  5
B5
330
1F
100
AcDbEntity
  8
SLD-0
  6
SLD-実線
 62
     7
370
    18
100
AcDbLine
 10
533.7436360361
 20
343.9199669136
 30
0.0
 11
533.7436360361
 21
320.2553589089
 31
0.0
  0
LINE
  5
B6
330
1F
100
AcDbEntity
  8
SLD-0
  6
SLD-実線
 62
     7
370
    18
100
AcDbLine
 10
533.7436360361
 20
343.9199669136
 30
0.0
 11
559.4436360406
 21
343.9199669136
 31
0.0
  0
LINE
  5
B7
330
1F
100
AcDbEntity
  8
SLD-0
  6
SLD-実線
 62
     7
370
    18
100
AcDbLine
 10
592.4436360489
 20
348.8056789163
 30
0.0
 11
559.4436360394
 21
348.8056789163
 31
0.0
  0
LINE
  5
B8
330
1F
100
AcDbEntity
  8
SLD-0
  6
SLD-実線
 62
     7
370
    18
100
AcDbLine
 10
559.4436360406
 20
350.7553589146
 30
0.0
 11
581.9436360469
 21
350.7553589146
 31
0.0
  0
LINE
  5
B9
330
1F
100
AcDbEntity
  8
SLD-0
  6
SLD-実線
 62
     7
370
    18
100
AcDbLine
 10
585.1436360477
 20
343.9199669136
 30
0.0
 11
585.1436360477
 21
320.2553589089
 31
0.0
  0
LINE
  5
BA
330
1F
100
AcDbEntity
  8
SLD-0
  6
SLD-実線
 62
     7
370
    18
100
AcDbLine
 10
585.1436360477
 20
343.9199669136
 30
0.0
 11
559.4436360406
 21
343.9199669136
 31
0.0
  0
LINE
  5
BB
330
1F
100
AcDbEntity
  8
SLD-0
  6
SLD-1点鎖線(中心線)
 62
     7
370
    18
100
AcDbLine
 10
536.0713560365
 20
699.0003110034
 30
0.0
 11
529.1940800349
 21
699.0003110034
 31
0.0
  0
LINE
  5
BC
330
1F
100
AcDbEntity
  8
SLD-0
  6
SLD-1点鎖線(中心線)
 62
     7
370
    18
100
AcDbLine
 10
532.4436360352
 20
695.0668310015
 30
0.0
 11
532.4436360352
 21
702.7071390051
 31
0.0
  0
LINE
  5
BD
330
1F
100
AcDbEntity
  8
SLD-0
  6
SLD-実線
 62
     7
370
    18
100
AcDbLine
 10
534.9436360364
 20
624.5962829843
 30
0.0
 11
534.9436360364
 21
691.6510790014
 31
0.0
  0
LINE
  5
BE
330
1F
100
AcDbEntity
  8
SLD-0
  6
SLD-実線
 62
     7
370
    18
100
AcDbLine
 10
578.9436360474
 20
696.6510790014
 30
0.0
 11
539.9436360364
 21
696.6510790014
 31
0.0
  0
LINE
  5
BF
330
1F
100
AcDbEntity
  8
SLD-0
  6
SLD-1点鎖線(中心線)
 62
     7
370
    18
100
AcDbLine
 10
590.07135605
 20
699.0003110034
 30
0.0
 11
583.1940800484
 21
699.0003110034
 31
0.0
  0
LINE
  5
C0
330
1F
100
AcDbEntity
  8
SLD-0
  6
SLD-1点鎖線(中心線)
 62
     7
370
    18
100
AcDbLine
 10
586.4436360487
 20
695.0668310015
 30
0.0
 11
586.4436360487
 21
702.7071390051
 31
0.0
  0
LINE
  5
C1
330
1F
100
AcDbEntity
  8
SLD-0
  6
SLD-実線
 62
     7
370
    18
100
AcDbLine
 10
583.9436360474
 20
624.5962829843
 30
0.0
 11
583.9436360474
 21
691.6510790014
 31
0.0
  0
LINE
  5
C2
330
1F
100
AcDbEntity
  8
SLD-0
  6
SLD-実線
 62
     7
370
    18
100
AcDbLine
 10
539.9436360364
 20
619.5962829843
 30
0.0
 11
578.9436360474
 21
619.5962829843
 31
0.0
  0
LINE
  5
C3
330
1F
100
AcDbEntity
  8
SLD-0
  6
SLD-1点鎖線(中心線)
 62
     7
370
    18
100
AcDbLine
 10
532.4436360352
 20
612.8437269822
 30
0.0
 11
532.4436360352
 21
620.4840349832
 31
0.0
  0
LINE
  5
C4
330
1F
100
AcDbEntity
  8
SLD-0
  6
SLD-1点鎖線(中心線)
 62
     7
370
    18
100
AcDbLine
 10
536.0713560365
 20
616.7772069816
 30
0.0
 11
529.1940800349
 21
616.7772069816
 31
0.0
  0
LINE
  5
C5
330
1F
100
AcDbEntity
  8
SLD-0
  6
SLD-1点鎖線(中心線)
 62
     7
370
    18
100
AcDbLine
 10
586.4436360487
 20
612.8437269822
 30
0.0
 11
586.4436360487
 21
620.4840349832
 31
0.0
  0
LINE
  5
C6
330
1F
100
AcDbEntity
  8
SLD-0
  6
SLD-1点鎖線(中心線)
 62
     7
370
    18
100
AcDbLine
 10
590.07135605
 20
616.7772069816
 30
0.0
 11
583.1940800484
 21
616.7772069816
 31
0.0
  0
LINE
  5
C7
330
1F
100
AcDbEntity
  8
SLD-0
  6
SLD-実線
 62
     7
370
    18
100
AcDbLine
 10
559.4436334495
 20
709.3962850138
 30
0.0
 11
530.4436334435
 21
709.3962850138
 31
0.0
  0
LINE
  5
C8
330
1F
100
AcDbEntity
  8
SLD-0
  6
SLD-実線
 62
     7
370
    18
100
AcDbLine
 10
529.4436334433
 20
708.324949012
 30
0.0
 11
529.4436334433
 21
708.3962850136
 31
0.0
  0
LINE
  5
C9
330
1F
100
AcDbEntity
  8
SLD-0
  6
SLD-実線
 62
     7
370
    18
100
AcDbLine
 10
559.4436360406
 20
707.396283005
 30
0.0
 11
528.814556034
 21
707.396283005
 31
0.0
  0
LINE
  5
CA
330
1F
100
AcDbEntity
  8
SLD-0
  6
SLD-実線
 62
     7
370
    18
100
AcDbLine
 10
504.2458834361
 20
705.5297831563
 30
0.0
 11
528.5175074404
 21
707.3276831571
 31
0.0
  0
LINE
  5
CB
330
1F
100
AcDbEntity
  8
SLD-0
  6
SLD-実線
 62
     7
370
    18
100
AcDbLine
 10
500.4436351835
 20
686.9736355353
 30
0.0
 11
500.4436351835
 21
693.3962835358
 31
0.0
  0
LINE
  5
CC
330
1F
100
AcDbEntity
  8
SLD-0
  6
SLD-実線
 62
     7
370
    18
100
AcDbLine
 10
502.3943666924
 20
703.5897724631
 30
0.0
 11
499.8399193045
 21
609.9266312554
 31
0.0
  0
LINE
  5
CD
330
1F
100
AcDbEntity
  8
SLD-0
  6
SLD-実線
 62
     7
370
    18
100
AcDbLine
 10
614.6413868437
 20
705.5297826661
 30
0.0
 11
590.3697594587
 21
707.3276831572
 31
0.0
  0
LINE
  5
CE
330
1F
100
AcDbEntity
  8
SLD-0
  6
SLD-実線
 62
     7
370
    18
100
AcDbLine
 10
589.443633457
 20
708.3249490133
 30
0.0
 11
589.443633457
 21
708.3962850149
 31
0.0
  0
LINE
  5
CF
330
1F
100
AcDbEntity
  8
SLD-0
  6
SLD-実線
 62
     7
370
    18
100
AcDbLine
 10
559.4436360406
 20
707.396283005
 30
0.0
 11
590.0727200503
 21
707.396283005
 31
0.0
  0
LINE
  5
D0
330
1F
100
AcDbEntity
  8
SLD-0
  6
SLD-実線
 62
     7
370
    18
100
AcDbLine
 10
559.4436334495
 20
709.3962850138
 30
0.0
 11
588.443633458
 21
709.3962850138
 31
0.0
  0
LINE
  5
D1
330
1F
100
AcDbEntity
  8
SLD-0
  6
SLD-実線
 62
     7
370
    18
100
AcDbLine
 10
611.713984055
 20
695.3775310024
 30
0.0
 11
612.3011240542
 21
695.3775310024
 31
0.0
  0
LINE
  5
D2
330
1F
100
AcDbEntity
  8
SLD-0
  6
SLD-実線
 62
     7
370
    18
100
AcDbLine
 10
614.3011240547
 20
686.8068389998
 30
0.0
 11
614.3011240547
 21
693.3775310019
 31
0.0
  0
LINE
  5
D3
330
1F
100
AcDbEntity
  8
SLD-0
  6
SLD-実線
 62
     7
370
    18
100
AcDbLine
 10
611.713984055
 20
695.3775310024
 30
0.0
 11
611.713984055
 21
684.2327870003
 31
0.0
  0
LINE
  5
D4
330
1F
100
AcDbEntity
  8
SLD-0
  6
SLD-実線
 62
     7
370
    18
100
AcDbLine
 10
618.4436360567
 20
686.973635001
 30
0.0
 11
618.4436360567
 21
693.3962830015
 31
0.0
  0
LINE
  5
D5
330
1F
100
AcDbEntity
  8
SLD-0
  6
SLD-実線
 62
     7
370
    18
100
AcDbLine
 10
616.4929000807
 20
703.5897723406
 30
0.0
 11
617.0224234667
 21
684.1739751525
 31
0.0
  0
LINE
  5
D6
330
1F
100
AcDbEntity
  8
SLD-0
  6
SLD-実線
 62
     7
370
    18
100
AcDbLine
 10
609.4248040537
 20
686.7633909993
 30
0.0
 11
609.4248040537
 21
693.3775310019
 31
0.0
  0
LINE
  5
D7
330
1F
100
AcDbEntity
  8
SLD-0
  6
SLD-実線
 62
     7
370
    18
100
AcDbLine
 10
607.4248040532
 20
695.3775310024
 30
0.0
 11
606.6958640531
 21
695.3775310024
 31
0.0
  0
LINE
  5
D8
330
1F
100
AcDbEntity
  8
SLD-0
  6
SLD-実線
 62
     7
370
    18
100
AcDbLine
 10
606.6958640531
 20
695.3775310024
 30
0.0
 11
606.6958640531
 21
595.396282977
 31
0.0
  0
LINE
  5
D9
330
1F
100
AcDbEntity
  8
SLD-0
  6
SLD-実線
 62
     7
370
    18
100
AcDbLine
 10
499.9436334965
 20
686.1076085076
 30
0.0
 11
495.9277174948
 21
683.7890165078
 31
0.0
  0
LINE
  5
DA
330
1F
100
AcDbEntity
  8
SLD-0
  6
SLD-実線
 62
     7
370
    18
100
AcDbLine
 10
612.7926996484
 20
683.2481956542
 30
0.0
 11
609.7506564589
 21
686.0247943428
 31
0.0
  0
LINE
  5
DB
330
1F
100
AcDbEntity
  8
SLD-0
  6
SLD-実線
 62
     7
370
    18
100
AcDbLine
 10
614.6815079898
 20
686.0219339526
 30
0.0
 11
618.1915441219
 21
683.2510600456
 31
0.0
  0
LINE
  5
DC
330
1F
100
AcDbEntity
  8
SLD-0
  6
SLD-実線
 62
     7
370
    18
100
AcDbLine
 10
618.9436377446
 20
686.1076079738
 30
0.0
 11
622.9595577443
 21
683.789015974
 31
0.0
  0
LINE
  5
DD
330
1F
100
AcDbEntity
  8
SLD-0
  6
SLD-実線
 62
     7
370
    18
100
AcDbLine
 10
589.6446120495
 20
595.396282977
 30
0.0
 11
589.6446120495
 21
595.6962829764
 31
0.0
  0
LINE
  5
DE
330
1F
100
AcDbEntity
  8
SLD-0
  6
SLD-実線
 62
     7
370
    18
100
AcDbLine
 10
594.278356051
 20
595.396282977
 30
0.0
 11
594.278356051
 21
595.6962829764
 31
0.0
  0
LINE
  5
DF
330
1F
100
AcDbEntity
  8
SLD-0
  6
SLD-実線
 62
     7
370
    18
100
AcDbLine
 10
524.6089200333
 20
595.396282977
 30
0.0
 11
524.6089200333
 21
595.6962829764
 31
0.0
  0
LINE
  5
E0
330
1F
100
AcDbEntity
  8
SLD-0
  6
SLD-実線
 62
     7
370
    18
100
AcDbLine
 10
520.577584032
 20
595.6962829764
 30
0.0
 11
520.577584032
 21
595.396282977
 31
0.0
  0
LINE
  5
E1
330
1F
100
AcDbEntity
  8
SLD-0
  6
SLD-実線
 62
     7
370
    18
100
AcDbLine
 10
529.2426600343
 20
595.396282977
 30
0.0
 11
529.2426600343
 21
595.6962829764
 31
0.0
  0
LINE
  5
E2
330
1F
100
AcDbEntity
  8
SLD-0
  6
SLD-実線
 62
     7
370
    18
100
AcDbLine
 10
559.4436360406
 20
586.396282976
 30
0.0
 11
489.5363240242
 21
586.396282976
 31
0.0
  0
LINE
  5
E3
330
1F
100
AcDbEntity
  8
SLD-0
  6
SLD-実線
 62
     7
370
    18
100
AcDbLine
 10
501.4436360261
 20
586.396282976
 30
0.0
 11
498.4436360267
 21
586.396282976
 31
0.0
  0
LINE
  5
E4
330
1F
100
AcDbEntity
  8
SLD-0
  6
SLD-実線
 62
     7
370
    18
100
AcDbLine
 10
559.4436360406
 20
586.396282976
 30
0.0
 11
629.3509520601
 21
586.396282976
 31
0.0
  0
LINE
  5
E5
330
1F
100
AcDbEntity
  8
SLD-0
  6
SLD-1点鎖線(中心線)
 62
     7
370
    18
100
AcDbLine
 10
607.244084054
 20
177.4636868728
 30
0.0
 11
595.1730360498
 21
194.0780588764
 31
0.0
  0
LINE
  5
E6
330
1F
100
AcDbEntity
  8
SLD-0
  6
SLD-1点鎖線(中心線)
 62
     7
370
    18
100
AcDbLine
 10
511.8215800302
 20
177.7092188735
 30
0.0
 11
524.6114920322
 21
195.3130188779
 31
0.0
  0
LINE
  5
E7
330
1F
100
AcDbEntity
  8
SLD-0
  6
SLD-1点鎖線(中心線)
 62
     7
370
    18
100
AcDbLine
 10
484.8128760238
 20
267.5043628947
 30
0.0
 11
502.4585800262
 21
261.770926894
 31
0.0
  0
LINE
  5
E8
330
1F
100
AcDbEntity
  8
SLD-0
  6
SLD-1点鎖線(中心線)
 62
     7
370
    18
100
AcDbLine
 10
617.9886240558
 20
262.2777748948
 30
0.0
 11
634.4807120597
 21
267.6363828948
 31
0.0
  0
LINE
  5
E9
330
1F
100
AcDbEntity
  8
SLD-0
  6
SLD-1点鎖線(中心線)
 62
     7
370
    18
100
AcDbLine
 10
512.9825360293
 20
289.7164588997
 30
0.0
 11
490.4581400228
 21
312.2408549062
 31
0.0
  0
LINE
  5
EA
330
1F
100
AcDbEntity
  8
SLD-0
  6
SLD-1点鎖線(中心線)
 62
     7
370
    18
100
AcDbLine
 10
633.9750040591
 20
168.7239908699
 30
0.0
 11
605.2737480518
 21
197.4252468772
 31
0.0
  0
LINE
  5
EB
330
1F
100
AcDbEntity
  8
SLD-0
  6
SLD-1点鎖線(中心線)
 62
     7
370
    18
100
AcDbLine
 10
676.7196360703
 20
243.2553588884
 30
0.0
 11
440.6432200123
 21
243.2553588884
 31
0.0
  0
LINE
  5
EC
330
1F
100
AcDbEntity
  8
SLD-0
  6
SLD-実線
 62
     7
370
    18
100
AcDbLine
 10
503.8019260031
 20
320.2553604771
 30
0.0
 11
615.0853460317
 21
320.2553604771
 31
0.0
  0
LINE
  5
ED
330
1F
100
AcDbEntity
  8
SLD-0
  6
SLD-実線
 62
     7
370
    18
100
AcDbLine
 10
503.8019253469
 20
166.2553595309
 30
0.0
 11
615.0853453755
 21
166.2553595309
 31
0.0
  0
LINE
  5
EE
330
1F
100
AcDbEntity
  8
SLD-0
  6
SLD-実線
 62
     7
370
    18
100
AcDbLine
 10
636.4436343208
 20
187.613648238
 30
0.0
 11
636.4436343208
 21
221.3823762452
 31
0.0
  0
LINE
  5
EF
330
1F
100
AcDbEntity
  8
SLD-0
  6
SLD-実線
 62
     7
370
    18
100
AcDbLine
 10
482.4436364185
 20
187.6136471817
 30
0.0
 11
482.4436364185
 21
221.3823751889
 31
0.0
  0
LINE
  5
F0
330
1F
100
AcDbEntity
  8
SLD-0
  6
SLD-実線
 62
     7
370
    18
100
AcDbLine
 10
639.4436347165
 20
225.2553599398
 30
0.0
 11
639.4436347165
 21
261.2553599488
 31
0.0
  0
LINE
  5
F1
330
1F
100
AcDbEntity
  8
SLD-0
  6
SLD-実線
 62
     7
370
    18
100
AcDbLine
 10
479.4436360206
 20
225.2553588839
 30
0.0
 11
479.4436360206
 21
261.2553588929
 31
0.0
  0
LINE
  5
F2
330
1F
100
AcDbEntity
  8
SLD-0
  6
SLD-実線
 62
     7
370
    18
100
AcDbLine
 10
636.4436359353
 20
265.1283418347
 30
0.0
 11
636.4436359353
 21
298.8970698445
 31
0.0
  0
LINE
  5
F3
330
1F
100
AcDbEntity
  8
SLD-0
  6
SLD-実線
 62
     7
370
    18
100
AcDbLine
 10
482.4436339975
 20
265.1283404626
 30
0.0
 11
482.4436339975
 21
298.8970684723
 31
0.0
  0
LINE
  5
F4
330
1F
100
AcDbEntity
  8
SLD-0
  6
SLD-実線
 62
     7
370
    18
100
AcDbLine
 10
586.9436340245
 20
166.2553604389
 30
0.0
 11
586.9436340245
 21
169.2553604383
 31
0.0
  0
LINE
  5
F5
330
1F
100
AcDbEntity
  8
SLD-0
  6
SLD-実線
 62
     7
370
    18
100
AcDbLine
 10
633.443634034
 20
270.7553604629
 30
0.0
 11
636.4436340361
 21
270.7553604629
 31
0.0
  0
LINE
  5
F6
330
1F
100
AcDbEntity
  8
SLD-0
  6
SLD-実線
 62
     7
370
    18
100
AcDbLine
 10
633.4436340342
 20
215.7553604506
 30
0.0
 11
636.4436340363
 21
215.7553604506
 31
0.0
  0
LINE
  5
F7
330
1F
100
AcDbEntity
  8
SLD-0
  6
SLD-実線
 62
     7
370
    18
100
AcDbLine
 10
588.9436340252
 20
315.2553604751
 30
0.0
 11
613.4436340294
 21
315.2553604751
 31
0.0
  0
LINE
  5
F8
330
1F
100
AcDbEntity
  8
SLD-0
  6
SLD-実線
 62
     7
370
    18
100
AcDbLine
 10
631.4436340335
 20
272.7553604634
 30
0.0
 11
631.4436337008
 21
297.2553609147
 31
0.0
  0
LINE
  5
F9
330
1F
100
AcDbEntity
  8
SLD-0
  6
SLD-実線
 62
     7
370
    18
100
AcDbLine
 10
631.4436340337
 20
189.2553604433
 30
0.0
 11
631.4436340337
 21
213.7553604501
 31
0.0
  0
LINE
  5
FA
330
1F
100
AcDbEntity
  8
SLD-0
  6
SLD-実線
 62
     7
370
    18
100
AcDbLine
 10
588.943634025
 20
171.2553604388
 30
0.0
 11
613.4436344763
 21
171.2553607741
 31
0.0
  0
LINE
  5
FB
330
1F
100
AcDbEntity
  8
SLD-0
  6
SLD-実線
 62
     7
370
    18
100
AcDbLine
 10
586.9436340247
 20
317.2553604756
 30
0.0
 11
586.9436340247
 21
320.2553604776
 31
0.0
  0
LINE
  5
FC
330
1F
100
AcDbEntity
  8
SLD-0
  6
SLD-実線
 62
     7
370
    18
100
AcDbLine
 10
487.4436339975
 20
272.7553604637
 30
0.0
 11
487.4436339975
 21
297.2553604705
 31
0.0
  0
LINE
  5
FD
330
1F
100
AcDbEntity
  8
SLD-0
  6
SLD-実線
 62
     7
370
    18
100
AcDbLine
 10
485.443633997
 20
270.7553604632
 30
0.0
 11
482.4436339976
 21
270.7553604632
 31
0.0
  0
LINE
  5
FE
330
1F
100
AcDbEntity
  8
SLD-0
  6
SLD-実線
 62
     7
370
    18
100
AcDbLine
 10
529.9436340092
 20
315.2553604746
 30
0.0
 11
505.4436335579
 21
315.2553601419
 31
0.0
  0
LINE
  5
FF
330
1F
100
AcDbEntity
  8
SLD-0
  6
SLD-実線
 62
     7
370
    18
100
AcDbLine
 10
531.9436340097
 20
317.2553604751
 30
0.0
 11
531.9436340097
 21
320.2553604772
 31
0.0
  0
LINE
  5
100
330
1F
100
AcDbEntity
  8
SLD-0
  6
SLD-実線
 62
     7
370
    18
100
AcDbLine
 10
485.4436339979
 20
215.7553604511
 30
0.0
 11
482.4436339984
 21
215.7553604511
 31
0.0
  0
LINE
  5
101
330
1F
100
AcDbEntity
  8
SLD-0
  6
SLD-実線
 62
     7
370
    18
100
AcDbLine
 10
487.4436339984
 20
189.2553604438
 30
0.0
 11
487.4436339984
 21
213.7553604506
 31
0.0
  0
LINE
  5
102
330
1F
100
AcDbEntity
  8
SLD-0
  6
SLD-実線
 62
     7
370
    18
100
AcDbLine
 10
531.943634009
 20
166.2553604383
 30
0.0
 11
531.943634009
 21
169.2553604377
 31
0.0
  0
LINE
  5
103
330
1F
100
AcDbEntity
  8
SLD-0
  6
SLD-実線
 62
     7
370
    18
100
AcDbLine
 10
529.9436340085
 20
171.2553604382
 30
0.0
 11
505.4436335573
 21
171.2553607735
 31
0.0
  0
LINE
  5
104
330
1F
100
AcDbEntity
  8
SLD-0
  6
SLD-1点鎖線(中心線)
 62
     7
370
    18
100
AcDbLine
 10
605.904736052
 20
289.7164588997
 30
0.0
 11
634.4229200594
 21
318.2346389066
 31
0.0
  0
LINE
  5
105
330
1F
100
AcDbEntity
  8
SLD-0
  6
SLD-1点鎖線(中心線)
 62
     7
370
    18
100
AcDbLine
 10
484.9122720226
 20
168.7239908699
 30
0.0
 11
513.6135280312
 21
197.4252468785
 31
0.0
  0
LINE
  5
106
330
1F
100
AcDbEntity
  8
SLD-0
  6
SLD-破線
 62
     7
370
    18
100
AcDbLine
 10
479.4436360206
 20
256.4553588917
 30
0.0
 11
494.4436360257
 21
256.4553588917
 31
0.0
  0
LINE
  5
107
330
1F
100
AcDbEntity
  8
SLD-0
  6
SLD-破線
 62
     7
370
    18
100
AcDbLine
 10
479.4436360206
 20
230.0553588851
 30
0.0
 11
494.4436360257
 21
230.0553588851
 31
0.0
  0
LINE
  5
108
330
1F
100
AcDbEntity
  8
SLD-0
  6
SLD-破線
 62
     7
370
    18
100
AcDbLine
 10
479.4436360206
 20
254.7553588906
 30
0.0
 11
494.4436360257
 21
254.7553588906
 31
0.0
  0
LINE
  5
109
330
1F
100
AcDbEntity
  8
SLD-0
  6
SLD-破線
 62
     7
370
    18
100
AcDbLine
 10
479.4436360206
 20
231.7553588861
 30
0.0
 11
494.4436360257
 21
231.7553588861
 31
0.0
  0
LINE
  5
10A
330
1F
100
AcDbEntity
  8
SLD-0
  6
SLD-破線
 62
     7
370
    18
100
AcDbLine
 10
624.4436360582
 20
256.4553588917
 30
0.0
 11
639.4436360606
 21
256.4553588917
 31
0.0
  0
LINE
  5
10B
330
1F
100
AcDbEntity
  8
SLD-0
  6
SLD-破線
 62
     7
370
    18
100
AcDbLine
 10
624.4436360582
 20
254.7553588906
 30
0.0
 11
639.4436360606
 21
254.7553588906
 31
0.0
  0
LINE
  5
10C
330
1F
100
AcDbEntity
  8
SLD-0
  6
SLD-破線
 62
     7
370
    18
100
AcDbLine
 10
624.4436360582
 20
231.7553588861
 30
0.0
 11
639.4436360606
 21
231.7553588861
 31
0.0
  0
LINE
  5
10D
330
1F
100
AcDbEntity
  8
SLD-0
  6
SLD-破線
 62
     7
370
    18
100
AcDbLine
 10
624.4436360582
 20
230.0553588851
 30
0.0
 11
639.4436360606
 21
230.0553588851
 31
0.0
  0
LINE
  5
10E
330
1F
100
AcDbEntity
  8
SLD-0
  6
SLD-実線
 62
     7
370
    18
100
AcDbLine
 10
479.4436360206
 20
490.396282952
 30
0.0
 11
639.4436360606
 21
490.396282952
 31
0.0
  0
LINE
  5
10F
330
1F
100
AcDbEntity
  8
SLD-0
  6
SLD-実線
 62
     7
370
    18
100
AcDbLine
 10
636.4436360612
 20
501.3962829535
 30
0.0
 11
636.4436360612
 21
490.396282952
 31
0.0
  0
LINE
  5
110
330
1F
100
AcDbEntity
  8
SLD-0
  6
SLD-実線
 62
     7
370
    18
100
AcDbLine
 10
482.4436360227
 20
501.3962829535
 30
0.0
 11
482.4436360227
 21
490.396282952
 31
0.0
  0
LINE
  5
111
330
1F
100
AcDbEntity
  8
SLD-0
  6
SLD-実線
 62
     7
370
    18
100
AcDbLine
 10
479.4436360206
 20
579.396282973
 30
0.0
 11
479.4436360206
 21
490.396282952
 31
0.0
  0
LINE
  5
112
330
1F
100
AcDbEntity
  8
SLD-0
  6
SLD-実線
 62
     7
370
    18
100
AcDbLine
 10
639.4436360606
 20
579.396282973
 30
0.0
 11
639.4436360606
 21
490.396282952
 31
0.0
  0
LINE
  5
113
330
1F
100
AcDbEntity
  8
SLD-0
  6
SLD-実線
 62
     7
370
    18
100
AcDbLine
 10
484.4436360232
 20
503.396282954
 30
0.0
 11
634.4436360607
 21
503.396282954
 31
0.0
  0
LINE
  5
114
330
1F
100
AcDbEntity
  8
SLD-0
  6
SLD-実線
 62
     7
370
    18
100
AcDbLine
 10
481.4436360211
 20
581.3962829735
 30
0.0
 11
489.5363240242
 21
581.3962829735
 31
0.0
  0
LINE
  5
115
330
1F
100
AcDbEntity
  8
SLD-0
  6
SLD-1点鎖線(中心線)
 62
     7
370
    18
100
AcDbLine
 10
466.4162080192
 20
561.3962829685
 30
0.0
 11
500.0897040274
 21
561.3962829685
 31
0.0
  0
LINE
  5
116
330
1F
100
AcDbEntity
  8
SLD-0
  6
SLD-破線
 62
     7
370
    18
100
AcDbLine
 10
624.4436360582
 20
549.8962829662
 30
0.0
 11
639.4436360606
 21
549.8962829662
 31
0.0
  0
LINE
  5
117
330
1F
100
AcDbEntity
  8
SLD-0
  6
SLD-破線
 62
     7
370
    18
100
AcDbLine
 10
624.4436360582
 20
548.1962829652
 30
0.0
 11
639.4436360606
 21
548.1962829652
 31
0.0
  0
LINE
  5
118
330
1F
100
AcDbEntity
  8
SLD-0
  6
SLD-破線
 62
     7
370
    18
100
AcDbLine
 10
624.4436360582
 20
572.8962829707
 30
0.0
 11
639.4436360606
 21
572.8962829707
 31
0.0
  0
LINE
  5
119
330
1F
100
AcDbEntity
  8
SLD-0
  6
SLD-破線
 62
     7
370
    18
100
AcDbLine
 10
624.4436360582
 20
574.5962829718
 30
0.0
 11
639.4436360606
 21
574.5962829718
 31
0.0
  0
LINE
  5
11A
330
1F
100
AcDbEntity
  8
SLD-0
  6
SLD-破線
 62
     7
370
    18
100
AcDbLine
 10
479.4436360206
 20
549.8962829662
 30
0.0
 11
494.4436360257
 21
549.8962829662
 31
0.0
  0
LINE
  5
11B
330
1F
100
AcDbEntity
  8
SLD-0
  6
SLD-破線
 62
     7
370
    18
100
AcDbLine
 10
479.4436360206
 20
548.1962829652
 30
0.0
 11
494.4436360257
 21
548.1962829652
 31
0.0
  0
LINE
  5
11C
330
1F
100
AcDbEntity
  8
SLD-0
  6
SLD-破線
 62
     7
370
    18
100
AcDbLine
 10
479.4436360206
 20
574.5962829718
 30
0.0
 11
494.4436360257
 21
574.5962829718
 31
0.0
  0
LINE
  5
11D
330
1F
100
AcDbEntity
  8
SLD-0
  6
SLD-破線
 62
     7
370
    18
100
AcDbLine
 10
479.4436360206
 20
572.8962829707
 30
0.0
 11
494.4436360257
 21
572.8962829707
 31
0.0
  0
LINE
  5
11E
330
1F
100
AcDbEntity
  8
SLD-0
  6
SLD-1点鎖線(中心線)
 62
     7
370
    18
100
AcDbLine
 10
615.4656600568
 20
561.3962829685
 30
0.0
 11
650.9730400655
 21
561.3962829685
 31
0.0
  0
LINE
  5
11F
330
1F
100
AcDbEntity
  8
SLD-0
  6
SLD-実線
 62
     7
370
    18
100
AcDbLine
 10
620.4436360572
 20
586.396282976
 30
0.0
 11
633.4436360591
 21
503.396282954
 31
0.0
  0
LINE
  5
120
330
1F
100
AcDbEntity
  8
SLD-0
  6
SLD-実線
 62
     7
370
    18
100
AcDbLine
 10
485.4436360221
 20
503.396282954
 30
0.0
 11
489.5363240242
 21
529.5265029616
 31
0.0
  0
LINE
  5
121
330
1F
100
AcDbEntity
  8
SLD-0
  6
SLD-実線
 62
     7
370
    18
100
AcDbLine
 10
623.7934640565
 20
581.3962829735
 30
0.0
 11
637.4436360601
 21
581.3962829735
 31
0.0
  0
LINE
  5
122
330
1F
100
AcDbEntity
  8
SLD-0
  6
SLD-実線
 62
     7
370
    18
100
AcDbLine
 10
494.1479080243
 20
503.396282954
 30
0.0
 11
506.9912800286
 21
585.3962829745
 31
0.0
  0
LINE
  5
123
330
1F
100
AcDbEntity
  8
SLD-0
  6
SLD-実線
 62
     7
370
    18
100
AcDbLine
 10
498.287012027
 20
585.3962829745
 30
0.0
 11
498.4436360267
 21
586.396282976
 31
0.0
  0
LINE
  5
124
330
1F
100
AcDbEntity
  8
SLD-0
  6
SLD-実線
 62
     7
370
    18
100
AcDbLine
 10
611.4072960552
 20
535.3193589629
 30
0.0
 11
610.8619360537
 21
535.3193589629
 31
0.0
  0
LINE
  5
125
330
1F
100
AcDbEntity
  8
SLD-0
  6
SLD-実線
 62
     7
370
    18
100
AcDbLine
 10
507.4799760286
 20
535.3193589629
 30
0.0
 11
508.0253400281
 21
535.3193589629
 31
0.0
  0
LINE
  5
126
330
1F
100
AcDbEntity
  8
SLD-0
  6
SLD-実線
 62
     7
370
    18
100
AcDbLine
 10
496.4246240246
 20
517.9322469579
 30
0.0
 11
496.4246240246
 21
585.3962829745
 31
0.0
  0
LINE
  5
127
330
1F
100
AcDbEntity
  8
SLD-0
  6
SLD-実線
 62
     7
370
    18
100
AcDbLine
 10
489.5363240242
 20
503.396282954
 30
0.0
 11
489.5363240242
 21
585.3962829745
 31
0.0
  0
LINE
  5
128
330
1F
100
AcDbEntity
  8
SLD-0
  6
SLD-実線
 62
     7
370
    18
100
AcDbLine
 10
506.9912800286
 20
585.3962829745
 30
0.0
 11
489.5363240242
 21
585.3962829745
 31
0.0
  0
LINE
  5
129
330
1F
100
AcDbEntity
  8
SLD-0
  6
SLD-実線
 62
     7
370
    18
100
AcDbLine
 10
620.6002640573
 20
585.3962829745
 30
0.0
 11
629.3509520601
 21
585.3962829745
 31
0.0
  0
LINE
  5
12A
330
1F
100
AcDbEntity
  8
SLD-0
  6
SLD-実線
 62
     7
370
    18
100
AcDbLine
 10
622.4626520572
 20
581.7076149746
 30
0.0
 11
622.4626520572
 21
585.3962829745
 31
0.0
  0
LINE
  5
12B
330
1F
100
AcDbEntity
  8
SLD-0
  6
SLD-実線
 62
     7
370
    18
100
AcDbLine
 10
629.3509520601
 20
581.3962829735
 30
0.0
 11
629.3509520601
 21
585.3962829745
 31
0.0
  0
LINE
  5
12C
330
1F
100
AcDbEntity
  8
SLD-0
  6
SLD-1点鎖線(中心線)
 62
     7
370
    18
100
AcDbLine
 10
559.4436360406
 20
553.3962829665
 30
0.0
 11
567.0366280428
 21
553.3962829665
 31
0.0
  0
LINE
  5
12D
330
1F
100
AcDbEntity
  8
SLD-0
  6
SLD-1点鎖線(中心線)
 62
     7
370
    18
100
AcDbLine
 10
559.4436360406
 20
553.3962829665
 30
0.0
 11
551.8506440384
 21
553.3962829665
 31
0.0
  0
ARC
  5
12E
330
1F
100
AcDbEntity
  8
1
  6
SLD-実線
 62
     7
370
    18
100
AcDbCircle
 10
533.9436360349
 20
697.1686190026
 30
0.0
 40
9.70000000306004
100
AcDbArc
 50
90.0
 51
180.0
  0
ARC
  5
12F
330
1F
100
AcDbEntity
  8
1
  6
SLD-実線
 62
     7
370
    18
100
AcDbCircle
 10
584.9436360489
 20
697.1686190039
 30
0.0
 40
9.700000001790045
100
AcDbArc
 50
359.999999985
 51
90.0
  0
ARC
  5
130
330
1F
100
AcDbEntity
  8
1
  6
SLD-実線
 62
     7
370
    18
100
AcDbCircle
 10
584.9436360489
 20
619.0787429818
 30
0.0
 40
9.700000001790045
100
AcDbArc
 50
270.0
 51
0.0
  0
ARC
  5
131
330
1F
100
AcDbEntity
  8
1
  6
SLD-実線
 62
     7
370
    18
100
AcDbCircle
 10
533.9436360349
 20
619.078742983
 30
0.0
 40
9.70000000306004
100
AcDbArc
 50
180.0
 51
270.0
  0
ARC
  5
132
330
1F
100
AcDbEntity
  8
SLD-0
  6
SLD-実線
 62
     7
370
    18
100
AcDbCircle
 10
559.4436360406
 20
325.3915069094
 30
0.0
 40
11.00000000274998
100
AcDbArc
 50
332.165263
 51
207.834737
  0
ARC
  5
133
330
1F
100
AcDbEntity
  8
SLD-0
  6
SLD-実線
 62
     7
370
    18
100
AcDbCircle
 10
617.5719280566
 20
682.4661549994
 30
0.0
 40
0.9999999999077855
100
AcDbArc
 50
0.0
 51
51.7118970539
  0
ARC
  5
134
330
1F
100
AcDbEntity
  8
SLD-0
  6
SLD-実線
 62
     7
370
    18
100
AcDbCircle
 10
615.3011240559
 20
686.8068389998
 30
0.0
 40
1.000000001177803
100
AcDbArc
 50
180.0
 51
231.7118970539
  0
ARC
  5
135
330
1F
100
AcDbEntity
  8
SLD-0
  6
SLD-実線
 62
     7
370
    18
100
AcDbCircle
 10
612.1185520528
 20
682.5095989978
 30
0.0
 40
1.000000000767955
100
AcDbArc
 50
0.0
 51
47.6120090002
  0
ARC
  5
136
330
1F
100
AcDbEntity
  8
SLD-0
  6
SLD-実線
 62
     7
370
    18
100
AcDbCircle
 10
610.4248040545
 20
686.7633909993
 30
0.0
 40
1.000000000767966
100
AcDbArc
 50
180.0
 51
227.6120090003
  0
ARC
  5
137
330
1F
100
AcDbEntity
  8
SLD-0
  6
SLD-実線
 62
     7
370
    18
100
AcDbCircle
 10
619.4436371804
 20
686.973635001
 30
0.0
 40
1.000001123776739
100
AcDbArc
 50
180.0
 51
240.0000744998
  0
ARC
  5
138
330
1F
100
AcDbEntity
  8
SLD-0
  6
SLD-実線
 62
     7
370
    18
100
AcDbCircle
 10
622.4595578991
 20
682.9229922427
 30
0.0
 40
0.9999984741479659
100
AcDbArc
 50
1.5923429489
 51
59.999959768
  0
ARC
  5
139
330
1F
100
AcDbEntity
  8
SLD-0
  6
SLD-実線
 62
     7
370
    18
100
AcDbCircle
 10
499.4436340578
 20
686.9736355353
 30
0.0
 40
1.000001125681725
100
AcDbArc
 50
299.9999256263
 51
0.0
  0
ARC
  5
13A
330
1F
100
AcDbEntity
  8
SLD-0
  6
SLD-実線
 62
     7
370
    18
100
AcDbCircle
 10
496.4277183391
 20
682.922991046
 30
0.0
 40
1.000000472356179
100
AcDbArc
 50
120.000040232
 51
178.4076634164
  0
ARC
  5
13B
330
1F
100
AcDbEntity
  8
SLD-0
  6
SLD-実線
 62
     7
370
    18
100
AcDbCircle
 10
498.4246236117
 20
597.6328749782
 30
0.0
 40
1.999999587160858
100
AcDbArc
 50
138.2158457459
 51
180.0
  0
ARC
  5
13C
330
1F
100
AcDbEntity
  8
SLD-0
  6
SLD-実線
 62
     7
370
    18
100
AcDbCircle
 10
491.5363236114
 20
597.6328749782
 30
0.0
 40
1.999999587160858
100
AcDbArc
 50
138.2158457459
 51
180.0
  0
ARC
  5
13D
330
1F
100
AcDbEntity
  8
SLD-0
  6
SLD-実線
 62
     7
370
    18
100
AcDbCircle
 10
615.3011240559
 20
686.8068389998
 30
0.0
 40
1.000000001177803
100
AcDbArc
 50
180.0
 51
231.7118970539
  0
ARC
  5
13E
330
1F
100
AcDbEntity
  8
SLD-0
  6
SLD-実線
 62
     7
370
    18
100
AcDbCircle
 10
610.4248040545
 20
686.7633909993
 30
0.0
 40
1.000000000767966
100
AcDbArc
 50
180.0
 51
227.6120090003
  0
ARC
  5
13F
330
1F
100
AcDbEntity
  8
SLD-0
  6
SLD-実線
 62
     7
370
    18
100
AcDbCircle
 10
612.1185520528
 20
682.5095989978
 30
0.0
 40
1.000000000767955
100
AcDbArc
 50
0.0
 51
47.6120090002
  0
ARC
  5
140
330
1F
100
AcDbEntity
  8
SLD-0
  6
SLD-実線
 62
     7
370
    18
100
AcDbCircle
 10
617.5719280566
 20
682.4661549994
 30
0.0
 40
0.9999999999077855
100
AcDbArc
 50
0.0
 51
51.7118970539
  0
ARC
  5
141
330
1F
100
AcDbEntity
  8
SLD-0
  6
SLD-実線
 62
     7
370
    18
100
AcDbCircle
 10
619.4436371804
 20
686.973635001
 30
0.0
 40
1.000001123776739
100
AcDbArc
 50
180.0
 51
240.0000744998
  0
ARC
  5
142
330
1F
100
AcDbEntity
  8
SLD-0
  6
SLD-実線
 62
     7
370
    18
100
AcDbCircle
 10
526.4436360324
 20
346.6056789158
 30
0.0
 40
2.200000000550062
100
AcDbArc
 50
90.0
 51
180.0
  0
ARC
  5
143
330
1F
100
AcDbEntity
  8
SLD-0
  6
SLD-実線
 62
     7
370
    18
100
AcDbCircle
 10
536.9436360369
 20
347.5553589138
 30
0.0
 40
3.200000000800072
100
AcDbArc
 50
90.0
 51
157.000387
  0
ARC
  5
144
330
1F
100
AcDbEntity
  8
SLD-0
  6
SLD-実線
 62
     7
370
    18
100
AcDbCircle
 10
592.4436360489
 20
346.605678917
 30
0.0
 40
2.199999999280067
100
AcDbArc
 50
0.0
 51
90.0
  0
ARC
  5
145
330
1F
100
AcDbEntity
  8
SLD-0
  6
SLD-実線
 62
     7
370
    18
100
AcDbCircle
 10
581.9436360469
 20
347.5553589138
 30
0.0
 40
3.200000000800072
100
AcDbArc
 50
22.999613
 51
90.0
  0
ARC
  5
146
330
1F
100
AcDbEntity
  8
SLD-0
  6
SLD-破線
 62
     7
370
    18
100
AcDbCircle
 10
559.4436360406
 20
325.3915069094
 30
0.0
 40
11.00000000274998
100
AcDbArc
 50
207.834737
 51
332.165263
  0
ARC
  5
147
330
1F
100
AcDbEntity
  8
SLD-0
  6
SLD-実線
 62
     7
370
    18
100
AcDbCircle
 10
539.9436360364
 20
691.6510790014
 30
0.0
 40
4.999999999979991
100
AcDbArc
 50
90.0
 51
180.0
  0
ARC
  5
148
330
1F
100
AcDbEntity
  8
SLD-0
  6
SLD-実線
 62
     7
370
    18
100
AcDbCircle
 10
578.9436360474
 20
691.6510790014
 30
0.0
 40
4.999999999980105
100
AcDbArc
 50
0.0
 51
90.0
  0
ARC
  5
149
330
1F
100
AcDbEntity
  8
SLD-0
  6
SLD-実線
 62
     7
370
    18
100
AcDbCircle
 10
539.9436360364
 20
624.5962829843
 30
0.0
 40
4.999999999979991
100
AcDbArc
 50
180.0
 51
270.0
  0
ARC
  5
14A
330
1F
100
AcDbEntity
  8
SLD-0
  6
SLD-実線
 62
     7
370
    18
100
AcDbCircle
 10
578.9436360474
 20
624.5962829843
 30
0.0
 40
4.999999999980105
100
AcDbArc
 50
270.0
 51
0.0
  0
ARC
  5
14B
330
1F
100
AcDbEntity
  8
SLD-0
  6
SLD-実線
 62
     7
370
    18
100
AcDbCircle
 10
530.4436334435
 20
708.3962850136
 30
0.0
 40
1.000000000249997
100
AcDbArc
 50
90.0
 51
180.0
  0
ARC
  5
14C
330
1F
100
AcDbEntity
  8
SLD-0
  6
SLD-実線
 62
     7
370
    18
100
AcDbCircle
 10
528.4436353044
 20
708.324949012
 30
0.0
 40
0.9999981388936021
100
AcDbArc
 50
274.2364285777
 51
0.0
  0
ARC
  5
14D
330
1F
100
AcDbEntity
  8
SLD-0
  6
SLD-実線
 62
     7
370
    18
100
AcDbCircle
 10
504.3936234264
 20
703.5352472755
 30
0.0
 40
2.000000121063575
100
AcDbArc
 50
94.2362974251
 51
178.4377749701
  0
ARC
  5
14E
330
1F
100
AcDbEntity
  8
SLD-0
  6
SLD-実線
 62
     7
370
    18
100
AcDbCircle
 10
502.443635184
 20
693.3962835358
 30
0.0
 40
2.000000000500052
100
AcDbArc
 50
97.85227
 51
180.0
  0
ARC
  5
14F
330
1F
100
AcDbEntity
  8
SLD-0
  6
SLD-実線
 62
     7
370
    18
100
AcDbCircle
 10
614.4936434664
 20
703.5352471563
 30
0.0
 40
2.000000001398459
100
AcDbArc
 50
1.5622250299
 51
85.7636050236
  0
ARC
  5
150
330
1F
100
AcDbEntity
  8
SLD-0
  6
SLD-実線
 62
     7
370
    18
100
AcDbCircle
 10
590.4436315973
 20
708.3249490133
 30
0.0
 40
0.9999981402573672
100
AcDbArc
 50
180.0
 51
265.7635712772
  0
ARC
  5
151
330
1F
100
AcDbEntity
  8
SLD-0
  6
SLD-実線
 62
     7
370
    18
100
AcDbCircle
 10
588.443633458
 20
708.3962850149
 30
0.0
 40
0.9999999989801154
100
AcDbArc
 50
0.0
 51
90.0
  0
ARC
  5
152
330
1F
100
AcDbEntity
  8
SLD-0
  6
SLD-実線
 62
     7
370
    18
100
AcDbCircle
 10
612.3011240542
 20
693.3775310019
 30
0.0
 40
2.000000000499995
100
AcDbArc
 50
0.0
 51
90.0
  0
ARC
  5
153
330
1F
100
AcDbEntity
  8
SLD-0
  6
SLD-実線
 62
     7
370
    18
100
AcDbCircle
 10
616.4436360562
 20
693.3962830015
 30
0.0
 40
2.000000000500108
100
AcDbArc
 50
0.0
 51
82.14773
  0
ARC
  5
154
330
1F
100
AcDbEntity
  8
SLD-0
  6
SLD-実線
 62
     7
370
    18
100
AcDbCircle
 10
607.4248040532
 20
693.3775310019
 30
0.0
 40
2.000000000499995
100
AcDbArc
 50
0.0
 51
90.0
  0
ARC
  5
155
330
1F
100
AcDbEntity
  8
SLD-0
  6
SLD-実線
 62
     7
370
    18
100
AcDbCircle
 10
499.4436340578
 20
686.9736355353
 30
0.0
 40
1.000001125681725
100
AcDbArc
 50
299.9999256263
 51
0.0
  0
ARC
  5
156
330
1F
100
AcDbEntity
  8
SLD-0
  6
SLD-実線
 62
     7
370
    18
100
AcDbCircle
 10
615.3011240559
 20
686.8068389998
 30
0.0
 40
1.000000001177803
100
AcDbArc
 50
180.0
 51
231.7118970539
  0
ARC
  5
157
330
1F
100
AcDbEntity
  8
SLD-0
  6
SLD-実線
 62
     7
370
    18
100
AcDbCircle
 10
610.4248040545
 20
686.7633909993
 30
0.0
 40
1.000000000767966
100
AcDbArc
 50
180.0
 51
227.6120090003
  0
ARC
  5
158
330
1F
100
AcDbEntity
  8
SLD-0
  6
SLD-実線
 62
     7
370
    18
100
AcDbCircle
 10
619.4436371804
 20
686.973635001
 30
0.0
 40
1.000001123776739
100
AcDbArc
 50
180.0
 51
240.0000744998
  0
ARC
  5
159
330
1F
100
AcDbEntity
  8
SLD-0
  6
SLD-実線
 62
     7
370
    18
100
AcDbCircle
 10
622.4595578991
 20
682.9229922427
 30
0.0
 40
0.9999984741479659
100
AcDbArc
 50
1.5923429489
 51
59.999959768
  0
ARC
  5
15A
330
1F
100
AcDbEntity
  8
SLD-0
  6
SLD-実線
 62
     7
370
    18
100
AcDbCircle
 10
617.5719280566
 20
682.4661549994
 30
0.0
 40
0.9999999999077855
100
AcDbArc
 50
0.0
 51
51.7118970539
  0
ARC
  5
15B
330
1F
100
AcDbEntity
  8
SLD-0
  6
SLD-実線
 62
     7
370
    18
100
AcDbCircle
 10
612.1185520528
 20
682.5095989978
 30
0.0
 40
1.000000000767955
100
AcDbArc
 50
0.0
 51
47.6120090002
  0
ARC
  5
15C
330
1F
100
AcDbEntity
  8
SLD-0
  6
SLD-実線
 62
     7
370
    18
100
AcDbCircle
 10
496.4277183391
 20
682.922991046
 30
0.0
 40
1.000000472356179
100
AcDbArc
 50
120.000040232
 51
178.4076634164
  0
ARC
  5
15D
330
1F
100
AcDbEntity
  8
SLD-0
  6
SLD-実線
 62
     7
370
    18
100
AcDbCircle
 10
559.4436340157
 20
243.2553604568
 30
0.0
 40
50.00000001249995
100
AcDbArc
 50
153.925155
 51
45.258778
  0
ARC
  5
15E
330
1F
100
AcDbEntity
  8
SLD-0
  6
SLD-実線
 62
     7
370
    18
100
AcDbCircle
 10
559.4436340157
 20
243.2553604568
 30
0.0
 40
37.50000000937496
100
AcDbArc
 50
155.13534
 51
45.258778
  0
ARC
  5
15F
330
1F
100
AcDbEntity
  8
SLD-0
  6
SLD-1点鎖線(中心線)
 62
     7
370
    18
100
AcDbCircle
 10
559.4436340157
 20
243.2553604568
 30
0.0
 40
69.00000001724996
100
AcDbArc
 50
7.925346
 51
27.451767
  0
ARC
  5
160
330
1F
100
AcDbEntity
  8
SLD-0
  6
SLD-1点鎖線(中心線)
 62
     7
370
    18
100
AcDbCircle
 10
559.4436340157
 20
243.2553604568
 30
0.0
 40
69.00000001724996
100
AcDbArc
 50
81.172733
 51
99.831934
  0
ARC
  5
161
330
1F
100
AcDbEntity
  8
SLD-0
  6
SLD-1点鎖線(中心線)
 62
     7
370
    18
100
AcDbCircle
 10
559.4436340157
 20
243.2553604568
 30
0.0
 40
69.00000001725006
100
AcDbArc
 50
152.629309
 51
172.683716
  0
ARC
  5
162
330
1F
100
AcDbEntity
  8
SLD-0
  6
SLD-1点鎖線(中心線)
 62
     7
370
    18
100
AcDbCircle
 10
559.4436340157
 20
243.2553604568
 30
0.0
 40
69.00000001725006
100
AcDbArc
 50
223.689215
 51
244.339546
  0
CIRCLE
  5
163
330
1F
100
AcDbEntity
  8
SLD-0
  6
SLD-実線
 62
     7
370
    18
100
AcDbCircle
 10
600.0008200518
 20
187.4331828748
 30
0.0
 40
4.800000001200033
  0
CIRCLE
  5
164
330
1F
100
AcDbEntity
  8
SLD-0
  6
SLD-実線
 62
     7
370
    18
100
AcDbCircle
 10
518.8864560325
 20
187.4331828748
 30
0.0
 40
4.800000001199919
  0
CIRCLE
  5
165
330
1F
100
AcDbEntity
  8
SLD-0
  6
SLD-実線
 62
     7
370
    18
100
AcDbCircle
 10
493.8207360243
 20
264.5775308947
 30
0.0
 40
4.80000000120009
  0
CIRCLE
  5
166
330
1F
100
AcDbEntity
  8
SLD-0
  6
SLD-実線
 62
     7
370
    18
100
AcDbCircle
 10
559.4436360406
 20
312.2553589069
 30
0.0
 40
4.800000001200033
  0
CIRCLE
  5
167
330
1F
100
AcDbEntity
  8
SLD-0
  6
SLD-実線
 62
     7
370
    18
100
AcDbCircle
 10
625.066536057
 20
264.5775308947
 30
0.0
 40
4.800000001199919
  0
ARC
  5
168
330
1F
100
AcDbEntity
  8
SLD-0
  6
SLD-実線
 62
     7
370
    18
100
AcDbCircle
 10
559.4436340157
 20
243.2553604568
 30
0.0
 40
50.00000001249994
100
AcDbArc
 50
73.17105
 51
119.052803
  0
ARC
  5
169
330
1F
100
AcDbEntity
  8
SLD-0
  6
SLD-実線
 62
     7
370
    18
100
AcDbCircle
 10
559.4436340157
 20
243.2553604568
 30
0.0
 40
37.50000000937505
100
AcDbArc
 50
73.721663
 51
113.361269
  0
CIRCLE
  5
16A
330
1F
100
AcDbEntity
  8
SLD-0
  6
SLD-実線
 62
     7
370
    18
100
AcDbCircle
 10
559.4436340157
 20
243.2553604568
 30
0.0
 40
74.00000001849989
  0
ARC
  5
16B
330
1F
100
AcDbEntity
  8
SLD-0
  6
SLD-1点鎖線(中心線)
 62
     7
370
    18
100
AcDbCircle
 10
559.4436340157
 20
243.2553604568
 30
0.0
 40
69.00000001725007
100
AcDbArc
 50
296.634723
 51
315.593124
  0
CIRCLE
  5
16C
330
1F
100
AcDbEntity
  8
SLD-0
  6
SLD-実線
 62
     7
370
    18
100
AcDbCircle
 10
559.4436340157
 20
243.2553604568
 30
0.0
 40
12.50000000312506
  0
ARC
  5
16D
330
1F
100
AcDbEntity
  8
SLD-0
  6
SLD-実線
 62
     7
370
    18
100
AcDbCircle
 10
559.4436340157
 20
243.2553604568
 30
0.0
 40
95.00000062733957
100
AcDbArc
 50
35.8526127396
 51
54.1473853046
  0
ARC
  5
16E
330
1F
100
AcDbEntity
  8
SLD-0
  6
SLD-実線
 62
     7
370
    18
100
AcDbCircle
 10
559.4436340157
 20
243.2553604568
 30
0.0
 40
95.00000097699954
100
AcDbArc
 50
305.8526140547
 51
324.147385306
  0
ARC
  5
16F
330
1F
100
AcDbEntity
  8
SLD-0
  6
SLD-実線
 62
     7
370
    18
100
AcDbCircle
 10
559.4436340157
 20
243.2553604568
 30
0.0
 40
94.99999940095495
100
AcDbArc
 50
215.8526161668
 51
234.1473872607
  0
ARC
  5
170
330
1F
100
AcDbEntity
  8
SLD-0
  6
SLD-実線
 62
     7
370
    18
100
AcDbCircle
 10
559.4436340157
 20
243.2553604568
 30
0.0
 40
94.99999828255412
100
AcDbArc
 50
125.8526127384
 51
144.1473872595
  0
ARC
  5
171
330
1F
100
AcDbEntity
  8
SLD-0
  6
SLD-実線
 62
     7
370
    18
100
AcDbCircle
 10
637.443634716
 20
261.2553599488
 30
0.0
 40
2.000000000499995
100
AcDbArc
 50
0.0
 51
75.522488
  0
ARC
  5
172
330
1F
100
AcDbEntity
  8
SLD-0
  6
SLD-実線
 62
     7
370
    18
100
AcDbCircle
 10
638.4436343161
 20
265.1283417264
 30
0.0
 40
1.999998380718014
100
AcDbArc
 50
179.9999968987
 51
255.5224874869
  0
ARC
  5
173
330
1F
100
AcDbEntity
  8
SLD-0
  6
SLD-実線
 62
     7
370
    18
100
AcDbCircle
 10
637.443634716
 20
225.2553599398
 30
0.0
 40
2.000000000499995
100
AcDbArc
 50
284.477512
 51
0.0
  0
ARC
  5
174
330
1F
100
AcDbEntity
  8
SLD-0
  6
SLD-実線
 62
     7
370
    18
100
AcDbCircle
 10
638.4436346383
 20
221.3823762452
 30
0.0
 40
2.000000317451622
100
AcDbArc
 50
104.4775077205
 51
180.0
  0
ARC
  5
175
330
1F
100
AcDbEntity
  8
SLD-0
  6
SLD-実線
 62
     7
370
    18
100
AcDbCircle
 10
481.4436360211
 20
261.2553588929
 30
0.0
 40
2.000000000499998
100
AcDbArc
 50
104.477512
 51
180.0
  0
ARC
  5
176
330
1F
100
AcDbEntity
  8
SLD-0
  6
SLD-実線
 62
     7
370
    18
100
AcDbCircle
 10
481.4436360211
 20
225.2553588839
 30
0.0
 40
2.000000000499998
100
AcDbArc
 50
180.0
 51
255.522488
  0
ARC
  5
177
330
1F
100
AcDbEntity
  8
SLD-0
  6
SLD-実線
 62
     7
370
    18
100
AcDbCircle
 10
480.4436361013
 20
221.3823751889
 30
0.0
 40
2.000000317133991
100
AcDbArc
 50
0.0
 51
75.5224923499
  0
ARC
  5
178
330
1F
100
AcDbEntity
  8
SLD-0
  6
SLD-実線
 62
     7
370
    18
100
AcDbCircle
 10
480.4436356171
 20
265.1283404626
 30
0.0
 40
1.999998380400427
100
AcDbArc
 50
284.4775363016
 51
0.0
  0
ARC
  5
179
330
1F
100
AcDbEntity
  8
SLD-0
  6
SLD-実線
 62
     7
370
    18
100
AcDbCircle
 10
559.4436340157
 20
243.2553604568
 30
0.0
 40
90.0000000227541
100
AcDbArc
 50
36.8698979993
 51
53.1301023542
  0
ARC
  5
17A
330
1F
100
AcDbEntity
  8
SLD-0
  6
SLD-実線
 62
     7
370
    18
100
AcDbCircle
 10
559.4436340157
 20
243.2553604568
 30
0.0
 40
90.00000002249996
100
AcDbArc
 50
306.8698980016
 51
323.1301023542
  0
ARC
  5
17B
330
1F
100
AcDbEntity
  8
SLD-0
  6
SLD-実線
 62
     7
370
    18
100
AcDbCircle
 10
588.943634025
 20
169.2553604383
 30
0.0
 40
2.000000000499938
100
AcDbArc
 50
90.0
 51
180.0
  0
ARC
  5
17C
330
1F
100
AcDbEntity
  8
SLD-0
  6
SLD-実線
 62
     7
370
    18
100
AcDbCircle
 10
633.4436340342
 20
213.7553604501
 30
0.0
 40
2.000000000500108
100
AcDbArc
 50
90.0
 51
180.0
  0
ARC
  5
17D
330
1F
100
AcDbEntity
  8
SLD-0
  6
SLD-実線
 62
     7
370
    18
100
AcDbCircle
 10
633.443634034
 20
272.7553604634
 30
0.0
 40
2.000000000500108
100
AcDbArc
 50
180.0
 51
270.0
  0
ARC
  5
17E
330
1F
100
AcDbEntity
  8
SLD-0
  6
SLD-実線
 62
     7
370
    18
100
AcDbCircle
 10
588.9436340252
 20
317.2553604756
 30
0.0
 40
2.000000000499881
100
AcDbArc
 50
180.0
 51
270.0
  0
ARC
  5
17F
330
1F
100
AcDbEntity
  8
SLD-0
  6
SLD-実線
 62
     7
370
    18
100
AcDbCircle
 10
485.443633997
 20
272.7553604637
 30
0.0
 40
2.000000000499995
100
AcDbArc
 50
270.0
 51
0.0
  0
ARC
  5
180
330
1F
100
AcDbEntity
  8
SLD-0
  6
SLD-実線
 62
     7
370
    18
100
AcDbCircle
 10
559.4436340157
 20
243.2553604568
 30
0.0
 40
90.00000002275405
100
AcDbArc
 50
126.8698979993
 51
143.1301023542
  0
ARC
  5
181
330
1F
100
AcDbEntity
  8
SLD-0
  6
SLD-実線
 62
     7
370
    18
100
AcDbCircle
 10
529.9436340092
 20
317.2553604751
 30
0.0
 40
2.000000000499995
100
AcDbArc
 50
270.0
 51
0.0
  0
ARC
  5
182
330
1F
100
AcDbEntity
  8
SLD-0
  6
SLD-実線
 62
     7
370
    18
100
AcDbCircle
 10
485.4436339979
 20
213.7553604506
 30
0.0
 40
2.000000000500052
100
AcDbArc
 50
0.0
 51
90.0
  0
ARC
  5
183
330
1F
100
AcDbEntity
  8
SLD-0
  6
SLD-実線
 62
     7
370
    18
100
AcDbCircle
 10
559.4436340157
 20
243.2553604568
 30
0.0
 40
90.00000002173803
100
AcDbArc
 50
216.8698976458
 51
233.1301019997
  0
ARC
  5
184
330
1F
100
AcDbEntity
  8
SLD-0
  6
SLD-実線
 62
     7
370
    18
100
AcDbCircle
 10
529.9436340085
 20
169.2553604377
 30
0.0
 40
2.000000000500108
100
AcDbArc
 50
0.0
 51
90.0
  0
CIRCLE
  5
185
330
1F
100
AcDbEntity
  8
SLD-0
  6
SLD-実線
 62
     7
370
    18
100
AcDbCircle
 10
619.5477120578
 20
303.359434903
 30
0.0
 40
5.000000001249987
  0
CIRCLE
  5
186
330
1F
100
AcDbEntity
  8
SLD-0
  6
SLD-実線
 62
     7
370
    18
100
AcDbCircle
 10
499.339560026
 20
183.1512828737
 30
0.0
 40
5.000000001250044
  0
CIRCLE
  5
187
330
1F
100
AcDbEntity
  8
SLD-0
  6
SLD-実線
 62
     7
370
    18
100
AcDbCircle
 10
502.8750960283
 20
299.8238989032
 30
0.0
 40
5.00000000124993
  0
CIRCLE
  5
188
330
1F
100
AcDbEntity
  8
SLD-0
  6
SLD-実線
 62
     7
370
    18
100
AcDbCircle
 10
616.012180056
 20
186.6868148756
 30
0.0
 40
5.000000001249987
  0
ARC
  5
189
330
1F
100
AcDbEntity
  8
SLD-0
  6
SLD-1点鎖線(中心線)
 62
     7
370
    18
100
AcDbCircle
 10
559.4436340157
 20
243.2553604568
 30
0.0
 40
80.00000001999996
100
AcDbArc
 50
125.46502
 51
142.54371
  0
ARC
  5
18A
330
1F
100
AcDbEntity
  8
SLD-0
  6
SLD-1点鎖線(中心線)
 62
     7
370
    18
100
AcDbCircle
 10
559.4436340157
 20
243.2553604568
 30
0.0
 40
85.00000002124996
100
AcDbArc
 50
38.30879
 51
51.608
  0
ARC
  5
18B
330
1F
100
AcDbEntity
  8
SLD-0
  6
SLD-1点鎖線(中心線)
 62
     7
370
    18
100
AcDbCircle
 10
559.4436340157
 20
243.2553604568
 30
0.0
 40
80.00000002000004
100
AcDbArc
 50
305.598024
 51
322.998913
  0
ARC
  5
18C
330
1F
100
AcDbEntity
  8
SLD-0
  6
SLD-1点鎖線(中心線)
 62
     7
370
    18
100
AcDbCircle
 10
559.4436340157
 20
243.2553604568
 30
0.0
 40
85.0000000212501
100
AcDbArc
 50
218.002234
 51
232.029228
  0
ARC
  5
18D
330
1F
100
AcDbEntity
  8
SLD-0
  6
SLD-実線
 62
     7
370
    18
100
AcDbCircle
 10
634.4436360607
 20
501.3962829535
 30
0.0
 40
2.000000000500108
100
AcDbArc
 50
0.0
 51
90.0
  0
ARC
  5
18E
330
1F
100
AcDbEntity
  8
SLD-0
  6
SLD-実線
 62
     7
370
    18
100
AcDbCircle
 10
484.4436360232
 20
501.3962829535
 30
0.0
 40
2.000000000500052
100
AcDbArc
 50
90.0
 51
180.0
  0
ARC
  5
18F
330
1F
100
AcDbEntity
  8
SLD-0
  6
SLD-実線
 62
     7
370
    18
100
AcDbCircle
 10
637.4436360601
 20
579.396282973
 30
0.0
 40
2.000000000500108
100
AcDbArc
 50
0.0
 51
90.0
  0
ARC
  5
190
330
1F
100
AcDbEntity
  8
SLD-0
  6
SLD-実線
 62
     7
370
    18
100
AcDbCircle
 10
481.4436360211
 20
579.396282973
 30
0.0
 40
2.000000000500108
100
AcDbArc
 50
90.0
 51
180.0
  0
ARC
  5
191
330
1F
100
AcDbEntity
  8
SLD-0
  6
SLD-実線
 62
     7
370
    18
100
AcDbCircle
 10
623.7934640565
 20
584.3962829748
 30
0.0
 40
3.000000001384942
100
AcDbArc
 50
188.901716
 51
270.0
  0
ARC
  5
192
330
1F
100
AcDbEntity
  8
SLD-0
  6
SLD-実線
 62
     7
370
    18
100
AcDbCircle
 10
611.4072960552
 20
534.319358962
 30
0.0
 40
1.00000000088506
100
AcDbArc
 50
17.636423
 51
90.0
  0
ARC
  5
193
330
1F
100
AcDbEntity
  8
SLD-0
  6
SLD-実線
 62
     7
370
    18
100
AcDbCircle
 10
490.9877064102
 20
496.0357464384
 30
0.0
 40
127.3586663365783
100
AcDbArc
 50
3.313186
 51
17.6364219482
  0
ARC
  5
194
330
1F
100
AcDbEntity
  8
SLD-0
  6
SLD-実線
 62
     7
370
    18
100
AcDbCircle
 10
610.8619360537
 20
534.319358962
 30
0.0
 40
1.000000000885052
100
AcDbArc
 50
90.0
 51
162.088043
  0
ARC
  5
195
330
1F
100
AcDbEntity
  8
SLD-0
  6
SLD-実線
 62
     7
370
    18
100
AcDbCircle
 10
726.643395071
 20
496.8962832794
 30
0.0
 40
122.6792210935222
100
AcDbArc
 50
162.0880436394
 51
176.962835
  0
ARC
  5
196
330
1F
100
AcDbEntity
  8
SLD-0
  6
SLD-実線
 62
     7
370
    18
100
AcDbCircle
 10
507.4799760286
 20
534.319358962
 30
0.0
 40
1.000000000885005
100
AcDbArc
 50
90.0
 51
162.363577
  0
ARC
  5
197
330
1F
100
AcDbEntity
  8
SLD-0
  6
SLD-実線
 62
     7
370
    18
100
AcDbCircle
 10
627.8995678575
 20
496.0357470159
 30
0.0
 40
127.3586682428132
100
AcDbArc
 50
162.3635785971
 51
176.686814
  0
ARC
  5
198
330
1F
100
AcDbEntity
  8
SLD-0
  6
SLD-実線
 62
     7
370
    18
100
AcDbCircle
 10
508.0253400281
 20
534.319358962
 30
0.0
 40
1.000000000885052
100
AcDbArc
 50
17.911957
 51
90.0
  0
ARC
  5
199
330
1F
100
AcDbEntity
  8
SLD-0
  6
SLD-実線
 62
     7
370
    18
100
AcDbCircle
 10
392.2438810108
 20
496.8962832794
 30
0.0
 40
122.6792210935224
100
AcDbArc
 50
3.037165
 51
17.9119563606
  0
CIRCLE
  5
19A
330
1F
100
AcDbEntity
  8
SLD-0
  6
SLD-破線
 62
     7
370
    18
100
AcDbCircle
 10
559.4436360406
 20
553.3962829665
 30
0.0
 40
4.000000000999989
  0
ENDSEC
  0
SECTION
  2
OBJECTS
  0
DICTIONARY
  5
C
330
0
100
AcDbDictionary
281
     1
  3
ACAD_DETAILVIEWSTYLE
350
1A4
  3
ACAD_GROUP
350
D
  3
ACAD_LAYOUT
350
1A
  3
ACAD_MATERIAL
350
43
  3
ACAD_MLEADERSTYLE
350
6B
  3
ACAD_MLINESTYLE
350
17
  3
ACAD_PLOTSETTINGS
350
19
  3
ACAD_PLOTSTYLENAME
350
E
  3
ACAD_SCALELIST
350
47
  3
ACAD_SECTIONVIEWSTYLE
350
1A5
  3
ACAD_TABLESTYLE
350
69
  3
ACDB_RECOMPOSE_DATA
350
1A1
  3
AcDbVariableDictionary
350
19B
  0
DICTIONARY
  5
1A4
102
{ACAD_REACTORS
330
C
102
}
330
C
100
AcDbDictionary
281
     1
  0
DICTIONARY
  5
D
102
{ACAD_REACTORS
330
C
102
}
330
C
100
AcDbDictionary
281
     1
  0
DICTIONARY
  5
1A
102
{ACAD_REACTORS
330
C
102
}
330
C
100
AcDbDictionary
281
     1
  3
Layout1
350
1E
  3
Layout2
350
26
  3
Model
350
22
  0
DICTIONARY
  5
43
102
{ACAD_REACTORS
330
C
102
}
330
C
100
AcDbDictionary
281
     1
  3
ByBlock
350
45
  3
ByLayer
350
44
  3
Global
350
46
  0
DICTIONARY
  5
6B
102
{ACAD_REACTORS
330
C
102
}
330
C
100
AcDbDictionary
281
     1
  3
Standard
350
6C
  0
DICTIONARY
  5
17
102
{ACAD_REACTORS
330
C
102
}
330
C
100
AcDbDictionary
281
     1
  3
Standard
350
18
  0
DICTIONARY
  5
19
102
{ACAD_REACTORS
330
C
102
}
330
C
100
AcDbDictionary
281
     1
  0
ACDBDICTIONARYWDFLT
  5
E
102
{ACAD_REACTORS
330
C
102
}
330
C
100
AcDbDictionary
281
     1
  3
Normal
350
F
100
AcDbDictionaryWithDefault
340
F
  0
DICTIONARY
  5
47
102
{ACAD_REACTORS
330
C
102
}
330
C
100
AcDbDictionary
281
     1
  3
A0
350
48
  3
A1
350
49
  3
A2
350
4A
  3
A3
350
4B
  3
A4
350
4C
  3
A5
350
4D
  3
A6
350
4E
  3
A7
350
4F
  3
A8
350
50
  3
A9
350
51
  3
B0
350
52
  3
B1
350
53
  3
B2
350
54
  3
B3
350
55
  3
B4
350
56
  3
B5
350
57
  3
B6
350
58
  3
B7
350
59
  3
B8
350
5A
  3
B9
350
5B
  3
C0
350
5C
  3
C1
350
5D
  3
C2
350
5E
  3
C3
350
5F
  3
C4
350
60
  3
C5
350
61
  3
C6
350
62
  3
C7
350
63
  3
C8
350
64
  3
C9
350
65
  3
D0
350
66
  3
D1
350
67
  3
D2
350
68
  0
DICTIONARY
  5
1A5
102
{ACAD_REACTORS
330
C
102
}
330
C
100
AcDbDictionary
281
     1
  0
DICTIONARY
  5
69
102
{ACAD_REACTORS
330
C
102
}
330
C
100
AcDbDictionary
281
     1
  3
Standard
350
6A
  0
XRECORD
  5
1A1
102
{ACAD_REACTORS
330
C
102
}
330
C
100
AcDbXrecord
280
     1
 90
        1
330
6A
  0
DICTIONARY
  5
19B
102
{ACAD_REACTORS
330
C
102
}
330
C
100
AcDbDictionary
281
     1
  3
CANNOSCALE
350
19C
  3
CENTEREXE
350
1A6
  3
CENTERLTYPEFILE
350
1A7
  3
CMLEADERSTYLE
350
1A3
  3
CTABLESTYLE
350
1A2
  0
LAYOUT
  5
1E
102
{ACAD_REACTORS
330
1A
102
}
330
1A
100
AcDbPlotSettings
  1

  2
none_device
  4

  6

 40
0.0
 41
0.0
 42
0.0
 43
0.0
 44
0.0
 45
0.0
 46
0.0
 47
0.0
 48
0.0
 49
0.0
140
0.0
141
0.0
142
1.0
143
1.0
 70
   688
 72
     1
 73
     0
 74
     5
  7

 75
    16
 76
     0
 77
     2
 78
   300
147
1.0
148
0.0
149
0.0
100
AcDbLayout
  1
Layout1
 70
     1
 71
     1
 10
0.0
 20
0.0
 11
420.0
 21
297.0
 12
0.0
 22
0.0
 32
0.0
 14
1.0000000000E+20
 24
1.0000000000E+20
 34
1.0000000000E+20
 15
-1.0000000000E+20
 25
-1.0000000000E+20
 35
-1.0000000000E+20
146
0.0
 13
0.0
 23
0.0
 33
0.0
 16
1.0
 26
0.0
 36
0.0
 17
0.0
 27
1.0
 37
0.0
 76
     0
330
1B
  0
LAYOUT
  5
26
102
{ACAD_REACTORS
330
1A
102
}
330
1A
100
AcDbPlotSettings
  1

  2
none_device
  4

  6

 40
0.0
 41
0.0
 42
0.0
 43
0.0
 44
0.0
 45
0.0
 46
0.0
 47
0.0
 48
0.0
 49
0.0
140
0.0
141
0.0
142
1.0
143
1.0
 70
   688
 72
     1
 73
     0
 74
     5
  7

 75
    16
 76
     0
 77
     2
 78
   300
147
1.0
148
0.0
149
0.0
100
AcDbLayout
  1
Layout2
 70
     1
 71
     2
 10
0.0
 20
0.0
 11
0.0
 21
0.0
 12
0.0
 22
0.0
 32
0.0
 14
0.0
 24
0.0
 34
0.0
 15
0.0
 25
0.0
 35
0.0
146
0.0
 13
0.0
 23
0.0
 33
0.0
 16
1.0
 26
0.0
 36
0.0
 17
0.0
 27
1.0
 37
0.0
 76
     0
330
23
  0
LAYOUT
  5
22
102
{ACAD_REACTORS
330
1A
102
}
330
1A
100
AcDbPlotSettings
  1

  2
none_device
  4
Letter_(8.50_x_11.00_Inches)
  6

 40
6.35
 41
6.35
 42
6.35000508
 43
6.35000508
 44
215.9
 45
279.4
 46
0.0
 47
0.0
 48
0.0
 49
0.0
140
0.0
141
0.0
142
1.0
143
1.0
 70
  1712
 72
     1
 73
     0
 74
     0
  7

 75
     0
 76
     0
 77
     2
 78
   300
147
1.0
148
0.0
149
0.0
100
AcDbLayout
  1
Model
 70
     1
 71
     0
 10
0.0
 20
0.0
 11
1117.6
 21
863.6
 12
0.0
 22
0.0
 32
0.0
 14
0.0
 24
0.0
 34
0.0
 15
1117.6
 25
863.6
 35
0.0
146
0.0
 13
0.0
 23
0.0
 33
0.0
 16
1.0
 26
0.0
 36
0.0
 17
0.0
 27
1.0
 37
0.0
 76
     0
330
1F
331
29
  0
MATERIAL
  5
45
102
{ACAD_REACTORS
330
43
102
}
330
43
100
AcDbMaterial
  1
ByBlock
  0
MATERIAL
  5
44
102
{ACAD_REACTORS
330
43
102
}
330
43
100
AcDbMaterial
  1
ByLayer
  0
MATERIAL
  5
46
102
{ACAD_REACTORS
330
43
102
}
330
43
100
AcDbMaterial
  1
Global
  0
MLEADERSTYLE
  5
6C
102
{ACAD_REACTORS
330
6B
102
}
330
6B
100
AcDbMLeaderStyle
170
     2
171
     1
172
     0
 90
        2
 40
0.0
 41
0.0
173
     1
 91
-1056964608
340
14
 92
       -2
290
     1
 42
2.0
291
     1
 43
8.0
  3
Standard
341
0
 44
4.0
300

342
11
174
     1
178
     6
175
     1
176
     0
 93
-1056964608
 45
4.0
292
     0
297
     0
 46
4.0
343
0
 94
-1056964608
 47
1.0
 49
1.0
140
1.0
293
     1
141
0.0
294
     1
177
     0
142
1.0
295
     0
296
     0
143
3.75
1001
ACAD_MLEADERVER
1070
     2
  0
MLINESTYLE
  5
18
102
{ACAD_REACTORS
330
17
102
}
330
17
100
AcDbMlineStyle
  2
Standard
 70
     0
  3

 62
   256
 51
90.0
 52
90.0
 71
     2
 49
0.5
 62
   256
  6
BYLAYER
 49
-0.5
 62
   256
  6
BYLAYER
  0
ACDBPLACEHOLDER
  5
F
102
{ACAD_REACTORS
330
E
102
}
330
E
  0
SCALE
  5
48
102
{ACAD_REACTORS
330
47
102
}
330
47
100
AcDbScale
 70
     0
300
1:1
140
1.0
141
1.0
290
     1
  0
SCALE
  5
49
102
{ACAD_REACTORS
330
47
102
}
330
47
100
AcDbScale
 70
     0
300
1:2
140
1.0
141
2.0
290
     0
  0
SCALE
  5
4A
102
{ACAD_REACTORS
330
47
102
}
330
47
100
AcDbScale
 70
     0
300
1:4
140
1.0
141
4.0
290
     0
  0
SCALE
  5
4B
102
{ACAD_REACTORS
330
47
102
}
330
47
100
AcDbScale
 70
     0
300
1:5
140
1.0
141
5.0
290
     0
  0
SCALE
  5
4C
102
{ACAD_REACTORS
330
47
102
}
330
47
100
AcDbScale
 70
     0
300
1:8
140
1.0
141
8.0
290
     0
  0
SCALE
  5
4D
102
{ACAD_REACTORS
330
47
102
}
330
47
100
AcDbScale
 70
     0
300
1:10
140
1.0
141
10.0
290
     0
  0
SCALE
  5
4E
102
{ACAD_REACTORS
330
47
102
}
330
47
100
AcDbScale
 70
     0
300
1:16
140
1.0
141
16.0
290
     0
  0
SCALE
  5
4F
102
{ACAD_REACTORS
330
47
102
}
330
47
100
AcDbScale
 70
     0
300
1:20
140
1.0
141
20.0
290
     0
  0
SCALE
  5
50
102
{ACAD_REACTORS
330
47
102
}
330
47
100
AcDbScale
 70
     0
300
1:30
140
1.0
141
30.0
290
     0
  0
SCALE
  5
51
102
{ACAD_REACTORS
330
47
102
}
330
47
100
AcDbScale
 70
     0
300
1:40
140
1.0
141
40.0
290
     0
  0
SCALE
  5
52
102
{ACAD_REACTORS
330
47
102
}
330
47
100
AcDbScale
 70
     0
300
1:50
140
1.0
141
50.0
290
     0
  0
SCALE
  5
53
102
{ACAD_REACTORS
330
47
102
}
330
47
100
AcDbScale
 70
     0
300
1:100
140
1.0
141
100.0
290
     0
  0
SCALE
  5
54
102
{ACAD_REACTORS
330
47
102
}
330
47
100
AcDbScale
 70
     0
300
2:1
140
2.0
141
1.0
290
     0
  0
SCALE
  5
55
102
{ACAD_REACTORS
330
47
102
}
330
47
100
AcDbScale
 70
     0
300
4:1
140
4.0
141
1.0
290
     0
  0
SCALE
  5
56
102
{ACAD_REACTORS
330
47
102
}
330
47
100
AcDbScale
 70
     0
300
8:1
140
8.0
141
1.0
290
     0
  0
SCALE
  5
57
102
{ACAD_REACTORS
330
47
102
}
330
47
100
AcDbScale
 70
     0
300
10:1
140
10.0
141
1.0
290
     0
  0
SCALE
  5
58
102
{ACAD_REACTORS
330
47
102
}
330
47
100
AcDbScale
 70
     0
300
100:1
140
100.0
141
1.0
290
     0
  0
SCALE
  5
59
102
{ACAD_REACTORS
330
47
102
}
330
47
100
AcDbScale
 70
     0
300
1/128" = 1'-0"
140
0.0078125
141
12.0
290
     0
  0
SCALE
  5
5A
102
{ACAD_REACTORS
330
47
102
}
330
47
100
AcDbScale
 70
     0
300
1/64" = 1'-0"
140
0.015625
141
12.0
290
     0
  0
SCALE
  5
5B
102
{ACAD_REACTORS
330
47
102
}
330
47
100
AcDbScale
 70
     0
300
1/32" = 1'-0"
140
0.03125
141
12.0
290
     0
  0
SCALE
  5
5C
102
{ACAD_REACTORS
330
47
102
}
330
47
100
AcDbScale
 70
     0
300
1/16" = 1'-0"
140
0.0625
141
12.0
290
     0
  0
SCALE
  5
5D
102
{ACAD_REACTORS
330
47
102
}
330
47
100
AcDbScale
 70
     0
300
3/32" = 1'-0"
140
0.09375
141
12.0
290
     0
  0
SCALE
  5
5E
102
{ACAD_REACTORS
330
47
102
}
330
47
100
AcDbScale
 70
     0
300
1/8" = 1'-0"
140
0.125
141
12.0
290
     0
  0
SCALE
  5
5F
102
{ACAD_REACTORS
330
47
102
}
330
47
100
AcDbScale
 70
     0
300
3/16" = 1'-0"
140
0.1875
141
12.0
290
     0
  0
SCALE
  5
60
102
{ACAD_REACTORS
330
47
102
}
330
47
100
AcDbScale
 70
     0
300
1/4" = 1'-0"
140
0.25
141
12.0
290
     0
  0
SCALE
  5
61
102
{ACAD_REACTORS
330
47
102
}
330
47
100
AcDbScale
 70
     0
300
3/8" = 1'-0"
140
0.375
141
12.0
290
     0
  0
SCALE
  5
62
102
{ACAD_REACTORS
330
47
102
}
330
47
100
AcDbScale
 70
     0
300
1/2" = 1'-0"
140
0.5
141
12.0
290
     0
  0
SCALE
  5
63
102
{ACAD_REACTORS
330
47
102
}
330
47
100
AcDbScale
 70
     0
300
3/4" = 1'-0"
140
0.75
141
12.0
290
     0
  0
SCALE
  5
64
102
{ACAD_REACTORS
330
47
102
}
330
47
100
AcDbScale
 70
     0
300
1" = 1'-0"
140
1.0
141
12.0
290
     0
  0
SCALE
  5
65
102
{ACAD_REACTORS
330
47
102
}
330
47
100
AcDbScale
 70
     0
300
1-1/2" = 1'-0"
140
1.5
141
12.0
290
     0
  0
SCALE
  5
66
102
{ACAD_REACTORS
330
47
102
}
330
47
100
AcDbScale
 70
     0
300
3" = 1'-0"
140
3.0
141
12.0
290
     0
  0
SCALE
  5
67
102
{ACAD_REACTORS
330
47
102
}
330
47
100
AcDbScale
 70
     0
300
6" = 1'-0"
140
6.0
141
12.0
290
     0
  0
SCALE
  5
68
102
{ACAD_REACTORS
330
47
102
}
330
47
100
AcDbScale
 70
     0
300
1'-0" = 1'-0"
140
12.0
141
12.0
290
     0
  0
TABLESTYLE
  5
6A
102
{ACAD_REACTORS
330
69
102
}
102
{ACAD_XDICTIONARY
360
19D
102
}
330
69
100
AcDbTableStyle
  3
Standard
 70
     0
 71
     0
 40
0.06
 41
0.06
280
     0
281
     0
  7
Standard
140
4.5
170
     2
 62
     0
 63
   257
283
     0
274
    -2
284
     1
 64
     0
275
    -2
285
     1
 65
     0
276
    -2
286
     1
 66
     0
277
    -2
287
     1
 67
     0
278
    -2
288
     1
 68
     0
279
    -2
289
     1
 69
     0
  7
Standard
140
6.0
170
     5
 62
     0
 63
   257
283
     0
274
    -2
284
     1
 64
     0
275
    -2
285
     1
 65
     0
276
    -2
286
     1
 66
     0
277
    -2
287
     1
 67
     0
278
    -2
288
     1
 68
     0
279
    -2
289
     1
 69
     0
  7
Standard
140
4.5
170
     5
 62
     0
 63
   257
283
     0
274
    -2
284
     1
 64
     0
275
    -2
285
     1
 65
     0
276
    -2
286
     1
 66
     0
277
    -2
287
     1
 67
     0
278
    -2
288
     1
 68
     0
279
    -2
289
     1
 69
     0
  0
DICTIONARYVAR
  5
19C
102
{ACAD_REACTORS
330
19B
102
}
330
19B
100
DictionaryVariables
280
     0
  1
1:1
  0
DICTIONARYVAR
  5
1A6
102
{ACAD_REACTORS
330
19B
102
}
330
19B
100
DictionaryVariables
280
     0
  1
3.500000
  0
DICTIONARYVAR
  5
1A7
102
{ACAD_REACTORS
330
19B
102
}
330
19B
100
DictionaryVariables
280
     0
  1
acadiso.lin
  0
DICTIONARYVAR
  5
1A3
102
{ACAD_REACTORS
330
19B
102
}
330
19B
100
DictionaryVariables
280
     0
  1
Standard
  0
DICTIONARYVAR
  5
1A2
102
{ACAD_REACTORS
330
19B
102
}
330
19B
100
DictionaryVariables
280
     0
  1
Standard
  0
DICTIONARY
  5
19D
330
6A
100
AcDbDictionary
280
     1
281
     1
  3
ACAD_ROUNDTRIP_2008_TABLESTYLE_CELLSTYLEMAP
360
19F
  3
ACAD_XREC_ROUNDTRIP
360
19E
  0
CELLSTYLEMAP
  5
19F
102
{ACAD_REACTORS
330
19D
102
}
330
19D
100
AcDbCellStyleMap
 90
        3
300
CELLSTYLE
  1
TABLEFORMAT_BEGIN
 90
        5
170
     1
 91
        0
 92
    32768
 62
   257
 93
        1
300
CONTENTFORMAT
  1
CONTENTFORMAT_BEGIN
 90
        0
 91
        0
 92
        4
 93
        0
300

 40
0.0
140
1.0
 94
        5
 62
     0
340
11
144
6.0
309
CONTENTFORMAT_END
171
     1
301
MARGIN
  1
CELLMARGIN_BEGIN
 40
1.5
 40
1.5
 40
1.5
 40
1.5
 40
1.5
 40
1.5
309
CELLMARGIN_END
 94
        6
 95
        1
302
GRIDFORMAT
  1
GRIDFORMAT_BEGIN
 90
        0
 91
        1
 62
     0
 92
       -2
340
14
 93
        0
 40
0.045
309
GRIDFORMAT_END
 95
        2
302
GRIDFORMAT
  1
GRIDFORMAT_BEGIN
 90
        0
 91
        1
 62
     0
 92
       -2
340
14
 93
        0
 40
0.045
309
GRIDFORMAT_END
 95
        4
302
GRIDFORMAT
  1
GRIDFORMAT_BEGIN
 90
        0
 91
        1
 62
     0
 92
       -2
340
14
 93
        0
 40
0.045
309
GRIDFORMAT_END
 95
        8
302
GRIDFORMAT
  1
GRIDFORMAT_BEGIN
 90
        0
 91
        1
 62
     0
 92
       -2
340
14
 93
        0
 40
0.045
309
GRIDFORMAT_END
 95
       16
302
GRIDFORMAT
  1
GRIDFORMAT_BEGIN
 90
        0
 91
        1
 62
     0
 92
       -2
340
14
 93
        0
 40
0.045
309
GRIDFORMAT_END
 95
       32
302
GRIDFORMAT
  1
GRIDFORMAT_BEGIN
 90
        0
 91
        1
 62
     0
 92
       -2
340
14
 93
        0
 40
0.045
309
GRIDFORMAT_END
309
TABLEFORMAT_END
  1
CELLSTYLE_BEGIN
 90
        1
 91
        1
300
_TITLE
309
CELLSTYLE_END
300
CELLSTYLE
  1
TABLEFORMAT_BEGIN
 90
        5
170
     1
 91
        0
 92
        0
 62
   257
 93
        1
300
CONTENTFORMAT
  1
CONTENTFORMAT_BEGIN
 90
        0
 91
        0
 92
        4
 93
        0
300

 40
0.0
140
1.0
 94
        5
 62
     0
340
11
144
4.5
309
CONTENTFORMAT_END
171
     1
301
MARGIN
  1
CELLMARGIN_BEGIN
 40
1.5
 40
1.5
 40
1.5
 40
1.5
 40
1.5
 40
1.5
309
CELLMARGIN_END
 94
        6
 95
        1
302
GRIDFORMAT
  1
GRIDFORMAT_BEGIN
 90
        0
 91
        1
 62
     0
 92
       -2
340
14
 93
        0
 40
0.045
309
GRIDFORMAT_END
 95
        2
302
GRIDFORMAT
  1
GRIDFORMAT_BEGIN
 90
        0
 91
        1
 62
     0
 92
       -2
340
14
 93
        0
 40
0.045
309
GRIDFORMAT_END
 95
        4
302
GRIDFORMAT
  1
GRIDFORMAT_BEGIN
 90
        0
 91
        1
 62
     0
 92
       -2
340
14
 93
        0
 40
0.045
309
GRIDFORMAT_END
 95
        8
302
GRIDFORMAT
  1
GRIDFORMAT_BEGIN
 90
        0
 91
        1
 62
     0
 92
       -2
340
14
 93
        0
 40
0.045
309
GRIDFORMAT_END
 95
       16
302
GRIDFORMAT
  1
GRIDFORMAT_BEGIN
 90
        0
 91
        1
 62
     0
 92
       -2
340
14
 93
        0
 40
0.045
309
GRIDFORMAT_END
 95
       32
302
GRIDFORMAT
  1
GRIDFORMAT_BEGIN
 90
        0
 91
        1
 62
     0
 92
       -2
340
14
 93
        0
 40
0.045
309
GRIDFORMAT_END
309
TABLEFORMAT_END
  1
CELLSTYLE_BEGIN
 90
        2
 91
        1
300
_HEADER
309
CELLSTYLE_END
300
CELLSTYLE
  1
TABLEFORMAT_BEGIN
 90
        5
170
     1
 91
        0
 92
        0
 62
   257
 93
        1
300
CONTENTFORMAT
  1
CONTENTFORMAT_BEGIN
 90
        0
 91
        0
 92
        4
 93
        0
300

 40
0.0
140
1.0
 94
        2
 62
     0
340
11
144
4.5
309
CONTENTFORMAT_END
171
     1
301
MARGIN
  1
CELLMARGIN_BEGIN
 40
1.5
 40
1.5
 40
1.5
 40
1.5
 40
1.5
 40
1.5
309
CELLMARGIN_END
 94
        6
 95
        1
302
GRIDFORMAT
  1
GRIDFORMAT_BEGIN
 90
        0
 91
        1
 62
     0
 92
       -2
340
14
 93
        0
 40
0.045
309
GRIDFORMAT_END
 95
        2
302
GRIDFORMAT
  1
GRIDFORMAT_BEGIN
 90
        0
 91
        1
 62
     0
 92
       -2
340
14
 93
        0
 40
0.045
309
GRIDFORMAT_END
 95
        4
302
GRIDFORMAT
  1
GRIDFORMAT_BEGIN
 90
        0
 91
        1
 62
     0
 92
       -2
340
14
 93
        0
 40
0.045
309
GRIDFORMAT_END
 95
        8
302
GRIDFORMAT
  1
GRIDFORMAT_BEGIN
 90
        0
 91
        1
 62
     0
 92
       -2
340
14
 93
        0
 40
0.045
309
GRIDFORMAT_END
 95
       16
302
GRIDFORMAT
  1
GRIDFORMAT_BEGIN
 90
        0
 91
        1
 62
     0
 92
       -2
340
14
 93
        0
 40
0.045
309
GRIDFORMAT_END
 95
       32
302
GRIDFORMAT
  1
GRIDFORMAT_BEGIN
 90
        0
 91
        1
 62
     0
 92
       -2
340
14
 93
        0
 40
0.045
309
GRIDFORMAT_END
309
TABLEFORMAT_END
  1
CELLSTYLE_BEGIN
 90
        3
 91
        2
300
_DATA
309
CELLSTYLE_END
  0
XRECORD
  5
19E
102
{ACAD_REACTORS
330
19D
102
}
330
19D
100
AcDbXrecord
280
     1
102
ACAD_ROUNDTRIP_PRE2007_TABLESTYLE
 90
        4
 91
        0
  1

 92
        4
 93
        0
  2

 94
        4
 95
        0
  3

  0
ENDSEC
  0
EOF
