  0
SECTION
  2
HEADER
  9
$ACADVER
  1
AC1018
  9
$ACADMAINTVER
 70
     0
  9
$DWGCODEPAGE
  3
DOS932
  9
$INSBASE
 10
0.0
 20
0.0
 30
0.0
  9
$EXTMIN
 10
0.0
 20
0.0
 30
0.0
  9
$EXTMAX
 10
1117.6
 20
863.6
 30
0.0
  9
$LIMMIN
 10
0.0
 20
0.0
  9
$LIMMAX
 10
1117.6
 20
863.6
  9
$ORTHOMODE
 70
     0
  9
$REGENMODE
 70
     1
  9
$FILLMODE
 70
     1
  9
$QTEXTMODE
 70
     0
  9
$MIRRTEXT
 70
     1
  9
$LTSCALE
 40
1.0
  9
$ATTMODE
 70
     1
  9
$TEXTSIZE
 40
3.5
  9
$TRACEWID
 40
1.0
  9
$TEXTSTYLE
  7
Standard
  9
$CLAYER
  8
0
  9
$CELTYPE
  6
ByLayer
  9
$CECOLOR
 62
   256
  9
$CELTSCALE
 40
1.0
  9
$DISPSILH
 70
     0
  9
$DIMSCALE
 40
1.0
  9
$DIMASZ
 40
3.302
  9
$DIMEXO
 40
1.0
  9
$DIMDLI
 40
3.75
  9
$DIMRND
 40
0.0
  9
$DIMDLE
 40
0.0
  9
$DIMEXE
 40
1.0
  9
$DIMTP
 40
0.0
  9
$DIMTM
 40
0.0
  9
$DIMTXT
 40
3.5
  9
$DIMCEN
 40
2.5
  9
$DIMTSZ
 40
0.0
  9
$DIMTOL
 70
     0
  9
$DIMLIM
 70
     0
  9
$DIMTIH
 70
     1
  9
$DIMTOH
 70
     1
  9
$DIMSE1
 70
     0
  9
$DIMSE2
 70
     0
  9
$DIMTAD
 70
     1
  9
$DIMZIN
 70
     1
  9
$DIMBLK
  1

  9
$DIMASO
 70
     1
  9
$DIMSHO
 70
     1
  9
$DIMPOST
  1

  9
$DIMAPOST
  1

  9
$DIMALT
 70
     0
  9
$DIMALTD
 70
     3
  9
$DIMALTF
 40
0.0393700787
  9
$DIMLFAC
 40
1.0
  9
$DIMTOFL
 70
     1
  9
$DIMTVP
 40
0.0
  9
$DIMTIX
 70
     0
  9
$DIMSOXD
 70
     0
  9
$DIMSAH
 70
     0
  9
$DIMBLK1
  1

  9
$DIMBLK2
  1

  9
$DIMSTYLE
  2
ISO-25
  9
$DIMCLRD
 70
     0
  9
$DIMCLRE
 70
     0
  9
$DIMCLRT
 70
     0
  9
$DIMTFAC
 40
1.0
  9
$DIMGAP
 40
1.524
  9
$DIMJUST
 70
     0
  9
$DIMSD1
 70
     0
  9
$DIMSD2
 70
     0
  9
$DIMTOLJ
 70
     0
  9
$DIMTZIN
 70
     1
  9
$DIMALTZ
 70
     0
  9
$DIMALTTZ
 70
     0
  9
$DIMUPT
 70
     0
  9
$DIMDEC
 70
     0
  9
$DIMTDEC
 70
     4
  9
$DIMALTU
 70
     2
  9
$DIMALTTD
 70
     3
  9
$DIMTXSTY
  7
Standard
  9
$DIMAUNIT
 70
     0
  9
$DIMADEC
 70
     0
  9
$DIMALTRND
 40
0.0
  9
$DIMAZIN
 70
     0
  9
$DIMDSEP
 70
    44
  9
$DIMATFIT
 70
     3
  9
$DIMFRAC
 70
     0
  9
$DIMLDRBLK
  1

  9
$DIMLUNIT
 70
     2
  9
$DIMLWD
 70
    -2
  9
$DIMLWE
 70
    -2
  9
$DIMTMOVE
 70
     0
  9
$LUNITS
 70
     2
  9
$LUPREC
 70
     3
  9
$SKETCHINC
 40
1.0
  9
$FILLETRAD
 40
10.0
  9
$AUNITS
 70
     0
  9
$AUPREC
 70
     0
  9
$MENU
  1
.
  9
$ELEVATION
 40
0.0
  9
$PELEVATION
 40
0.0
  9
$THICKNESS
 40
0.0
  9
$LIMCHECK
 70
     0
  9
$CHAMFERA
 40
0.0
  9
$CHAMFERB
 40
0.0
  9
$CHAMFERC
 40
0.0
  9
$CHAMFERD
 40
0.0
  9
$SKPOLY
 70
     0
  9
$TDCREATE
 40
2460409.449598102
  9
$TDUCREATE
 40
2460409.074598102
  9
$TDUPDATE
 40
2460409.449598287
  9
$TDUUPDATE
 40
2460409.074598287
  9
$TDINDWG
 40
0.0000000116
  9
$TDUSRTIMER
 40
0.0000000116
  9
$USRTIMER
 70
     1
  9
$ANGBASE
 50
0.0
  9
$ANGDIR
 70
     0
  9
$PDMODE
 70
     0
  9
$PDSIZE
 40
-1.0
  9
$PLINEWID
 40
0.0
  9
$SPLFRAME
 70
     0
  9
$SPLINETYPE
 70
     6
  9
$SPLINESEGS
 70
     8
  9
$HANDSEED
  5
1CC
  9
$SURFTAB1
 70
     6
  9
$SURFTAB2
 70
     6
  9
$SURFTYPE
 70
     6
  9
$SURFU
 70
     6
  9
$SURFV
 70
     6
  9
$UCSBASE
  2

  9
$UCSNAME
  2

  9
$UCSORG
 10
0.0
 20
0.0
 30
0.0
  9
$UCSXDIR
 10
1.0
 20
0.0
 30
0.0
  9
$UCSYDIR
 10
0.0
 20
1.0
 30
0.0
  9
$UCSORTHOREF
  2

  9
$UCSORTHOVIEW
 70
     0
  9
$UCSORGTOP
 10
0.0
 20
0.0
 30
0.0
  9
$UCSORGBOTTOM
 10
0.0
 20
0.0
 30
0.0
  9
$UCSORGLEFT
 10
0.0
 20
0.0
 30
0.0
  9
$UCSORGRIGHT
 10
0.0
 20
0.0
 30
0.0
  9
$UCSORGFRONT
 10
0.0
 20
0.0
 30
0.0
  9
$UCSORGBACK
 10
0.0
 20
0.0
 30
0.0
  9
$PUCSBASE
  2

  9
$PUCSNAME
  2

  9
$PUCSORG
 10
0.0
 20
0.0
 30
0.0
  9
$PUCSXDIR
 10
1.0
 20
0.0
 30
0.0
  9
$PUCSYDIR
 10
0.0
 20
1.0
 30
0.0
  9
$PUCSORTHOREF
  2

  9
$PUCSORTHOVIEW
 70
     0
  9
$PUCSORGTOP
 10
0.0
 20
0.0
 30
0.0
  9
$PUCSORGBOTTOM
 10
0.0
 20
0.0
 30
0.0
  9
$PUCSORGLEFT
 10
0.0
 20
0.0
 30
0.0
  9
$PUCSORGRIGHT
 10
0.0
 20
0.0
 30
0.0
  9
$PUCSORGFRONT
 10
0.0
 20
0.0
 30
0.0
  9
$PUCSORGBACK
 10
0.0
 20
0.0
 30
0.0
  9
$USERI1
 70
     0
  9
$USERI2
 70
     0
  9
$USERI3
 70
     0
  9
$USERI4
 70
     0
  9
$USERI5
 70
     0
  9
$USERR1
 40
0.0
  9
$USERR2
 40
0.0
  9
$USERR3
 40
0.0
  9
$USERR4
 40
0.0
  9
$USERR5
 40
0.0
  9
$WORLDVIEW
 70
     1
  9
$SHADEDGE
 70
     3
  9
$SHADEDIF
 70
    70
  9
$TILEMODE
 70
     1
  9
$MAXACTVP
 70
    64
  9
$PINSBASE
 10
0.0
 20
0.0
 30
0.0
  9
$PLIMCHECK
 70
     0
  9
$PEXTMIN
 10
1.0000000000E+20
 20
1.0000000000E+20
 30
1.0000000000E+20
  9
$PEXTMAX
 10
-1.0000000000E+20
 20
-1.0000000000E+20
 30
-1.0000000000E+20
  9
$PLIMMIN
 10
0.0
 20
0.0
  9
$PLIMMAX
 10
420.0
 20
297.0
  9
$UNITMODE
 70
     0
  9
$VISRETAIN
 70
     1
  9
$PLINEGEN
 70
     0
  9
$PSLTSCALE
 70
     1
  9
$TREEDEPTH
 70
  3020
  9
$CMLSTYLE
  2
Standard
  9
$CMLJUST
 70
     0
  9
$CMLSCALE
 40
20.0
  9
$PROXYGRAPHICS
 70
     1
  9
$MEASUREMENT
 70
     1
  9
$CELWEIGHT
370
    -1
  9
$ENDCAPS
280
     0
  9
$JOINSTYLE
280
     0
  9
$LWDISPLAY
290
     1
  9
$INSUNITS
 70
     4
  9
$HYPERLINKBASE
  1

  9
$STYLESHEET
  1

  9
$XEDIT
290
     1
  9
$CEPSNTYPE
380
     0
  9
$PSTYLEMODE
290
     1
  9
$FINGERPRINTGUID
  2
{2a6a6c1e-8cd7-4241-9426-bff0ec827110}
  9
$VERSIONGUID
  2
{FAEB1C32-E019-11D5-929B-00C0DF256EC4}
  9
$EXTNAMES
290
     1
  9
$PSVPSCALE
 40
0.0
  9
$OLESTARTUP
290
     0
  9
$SORTENTS
280
   127
  9
$INDEXCTL
280
     0
  9
$HIDETEXT
280
     1
  9
$XCLIPFRAME
290
     0
  9
$HALOGAP
280
     0
  9
$OBSCOLOR
 70
   257
  9
$OBSLTYPE
280
     0
  9
$INTERSECTIONDISPLAY
280
     0
  9
$INTERSECTIONCOLOR
 70
   257
  9
$DIMASSOC
280
     2
  9
$PROJECTNAME
  1

  0
ENDSEC
  0
SECTION
  2
CLASSES
  0
CLASS
  1
ACDBDICTIONARYWDFLT
  2
AcDbDictionaryWithDefault
  3
ObjectDBX Classes
 90
        0
 91
        3
280
     0
281
     0
  0
CLASS
  1
VISUALSTYLE
  2
AcDbVisualStyle
  3
ObjectDBX Classes
 90
     4095
 91
        3
280
     0
281
     0
  0
CLASS
  1
MATERIAL
  2
AcDbMaterial
  3
ObjectDBX Classes
 90
     1153
 91
        3
280
     0
281
     0
  0
CLASS
  1
SCALE
  2
AcDbScale
  3
ObjectDBX Classes
 90
     1153
 91
        3
280
     0
281
     0
  0
CLASS
  1
TABLESTYLE
  2
AcDbTableStyle
  3
ObjectDBX Classes
 90
     4095
 91
        3
280
     0
281
     0
  0
CLASS
  1
MLEADERSTYLE
  2
AcDbMLeaderStyle
  3
ACDB_MLEADERSTYLE_CLASS
 90
     4095
 91
        3
280
     0
281
     0
  0
CLASS
  1
SUN
  2
AcDbSun
  3
SCENEOE
 90
     1153
 91
        3
280
     0
281
     0
  0
CLASS
  1
DICTIONARYVAR
  2
AcDbDictionaryVar
  3
ObjectDBX Classes
 90
        0
 91
        3
280
     0
281
     0
  0
CLASS
  1
CELLSTYLEMAP
  2
AcDbCellStyleMap
  3
ObjectDBX Classes
 90
     1152
 91
        3
280
     0
281
     0
  0
ENDSEC
  0
SECTION
  2
TABLES
  0
TABLE
  2
VPORT
  5
8
330
0
100
AcDbSymbolTable
 70
     1
  0
VPORT
  5
29
330
8
100
AcDbSymbolTableRecord
100
AcDbViewportTableRecord
  2
*Active
 70
     0
 10
0.0
 20
0.0
 11
1.0
 21
1.0
 12
558.8
 22
431.8
 13
0.0
 23
0.0
 14
10.0
 24
10.0
 15
10.0
 25
10.0
 16
0.0
 26
0.0
 36
1.0
 17
0.0
 27
0.0
 37
0.0
 40
863.6
 41
1.2941176471
 42
50.0
 43
0.0
 44
0.0
 50
0.0
 51
0.0
 71
     0
 72
  2000
 73
     1
 74
     3
 75
     0
 76
     0
 77
     0
 78
     0
281
     0
 65
     1
110
0.0
120
0.0
130
0.0
111
1.0
121
0.0
131
0.0
112
0.0
122
1.0
132
0.0
 79
     0
146
0.0
  0
ENDTAB
  0
TABLE
  2
LTYPE
  5
5
330
0
100
AcDbSymbolTable
 70
     8
  0
LTYPE
  5
14
330
5
100
AcDbSymbolTableRecord
100
AcDbLinetypeTableRecord
  2
ByBlock
 70
     0
  3

 72
    65
 73
     0
 40
0.0
  0
LTYPE
  5
15
330
5
100
AcDbSymbolTableRecord
100
AcDbLinetypeTableRecord
  2
ByLayer
 70
     0
  3

 72
    65
 73
     0
 40
0.0
  0
LTYPE
  5
16
330
5
100
AcDbSymbolTableRecord
100
AcDbLinetypeTableRecord
  2
Continuous
 70
     0
  3
Solid line
 72
    65
 73
     0
 40
0.0
  0
LTYPE
  5
6E
330
5
100
AcDbSymbolTableRecord
100
AcDbLinetypeTableRecord
  2
SLD-実線
 70
     0
  3
SolidWorks Line Style
 72
    65
 73
     0
 40
0.0
  0
LTYPE
  5
6F
330
5
100
AcDbSymbolTableRecord
100
AcDbLinetypeTableRecord
  2
SLD-破線
 70
     0
  3
SolidWorks Line Style
 72
    65
 73
     2
 40
1.905
 49
1.27
 74
     0
 49
-0.635
 74
     0
  0
LTYPE
  5
70
330
5
100
AcDbSymbolTableRecord
100
AcDbLinetypeTableRecord
  2
SLD-2点鎖線
 70
     0
  3
SolidWorks Line Style
 72
    65
 73
     6
 40
12.7
 49
6.35
 74
     0
 49
-1.27
 74
     0
 49
1.27
 74
     0
 49
-1.27
 74
     0
 49
1.27
 74
     0
 49
-1.27
 74
     0
  0
LTYPE
  5
71
330
5
100
AcDbSymbolTableRecord
100
AcDbLinetypeTableRecord
  2
SLD-鎖線
 70
     0
  3
SolidWorks Line Style
 72
    65
 73
     4
 40
10.16
 49
6.35
 74
     0
 49
-1.27
 74
     0
 49
1.27
 74
     0
 49
-1.27
 74
     0
  0
LTYPE
  5
72
330
5
100
AcDbSymbolTableRecord
100
AcDbLinetypeTableRecord
  2
SLD-1点鎖線(中心線)
 70
     0
  3
SolidWorks Line Style
 72
    65
 73
     4
 40
34.29
 49
30.48
 74
     0
 49
-1.27
 74
     0
 49
1.27
 74
     0
 49
-1.27
 74
     0
  0
LTYPE
  5
73
330
5
100
AcDbSymbolTableRecord
100
AcDbLinetypeTableRecord
  2
SLD-点線
 70
     0
  3
SolidWorks Line Style
 72
    65
 73
     2
 40
0.635
 49
0.0
 74
     0
 49
-0.635
 74
     0
  0
LTYPE
  5
74
330
5
100
AcDbSymbolTableRecord
100
AcDbLinetypeTableRecord
  2
SLD-細-太鎖線(切断面)
 70
     0
  3
SolidWorks Line Style
 72
    65
 73
     4
 40
10.16
 49
6.35
 74
     0
 49
-1.27
 74
     0
 49
1.27
 74
     0
 49
-1.27
 74
     0
  0
ENDTAB
  0
TABLE
  2
LAYER
  5
2
330
0
100
AcDbSymbolTable
 70
     5
  0
LAYER
  5
10
330
2
100
AcDbSymbolTableRecord
100
AcDbLayerTableRecord
  2
0
 70
     0
 62
     7
  6
Continuous
370
    -3
390
F
  0
LAYER
  5
75
330
2
100
AcDbSymbolTableRecord
100
AcDbLayerTableRecord
  2
SLD-0_0
 70
     0
 62
     7
  6
Continuous
370
    -1
390
F
  0
LAYER
  5
76
330
2
100
AcDbSymbolTableRecord
100
AcDbLayerTableRecord
  2
SLD-0
 70
     0
 62
   179
  6
SLD-実線
370
    -3
390
F
  0
LAYER
  5
77
330
2
100
AcDbSymbolTableRecord
100
AcDbLayerTableRecord
  2
100
 70
     0
 62
   179
  6
SLD-実線
370
    -3
390
F
  0
LAYER
  5
78
330
2
100
AcDbSymbolTableRecord
100
AcDbLayerTableRecord
  2
1
 70
     0
 62
   179
  6
SLD-実線
370
    -3
390
F
  0
ENDTAB
  0
TABLE
  2
STYLE
  5
3
330
0
100
AcDbSymbolTable
 70
     1
  0
STYLE
  5
11
330
3
100
AcDbSymbolTableRecord
100
AcDbTextStyleTableRecord
  2
Standard
 70
     0
 40
0.0
 41
1.0
 50
0.0
 71
     0
 42
3.5
  3
txt
  4
bigfont
  0
ENDTAB
  0
TABLE
  2
VIEW
  5
6
330
0
100
AcDbSymbolTable
 70
     0
  0
ENDTAB
  0
TABLE
  2
UCS
  5
7
330
0
100
AcDbSymbolTable
 70
     0
  0
ENDTAB
  0
TABLE
  2
APPID
  5
9
330
0
100
AcDbSymbolTable
 70
     2
  0
APPID
  5
12
330
9
100
AcDbSymbolTableRecord
100
AcDbRegAppTableRecord
  2
ACAD
 70
     0
  0
APPID
  5
1C4
330
9
100
AcDbSymbolTableRecord
100
AcDbRegAppTableRecord
  2
ACAD_MLEADERVER
 70
     0
  0
ENDTAB
  0
TABLE
  2
DIMSTYLE
  5
A
330
0
100
AcDbSymbolTable
 70
     1
100
AcDbDimStyleTable
  0
DIMSTYLE
105
27
330
A
100
AcDbSymbolTableRecord
100
AcDbDimStyleTableRecord
  2
ISO-25
 70
     0
 41
2.5
 42
0.625
 43
3.75
 44
1.25
 73
     0
 74
     0
 77
     1
 78
     8
140
2.5
141
2.5
143
0.0393700787
147
0.625
171
     3
172
     1
178
     0
271
     2
272
     2
274
     3
278
    44
283
     0
284
     8
340
11
  0
ENDTAB
  0
TABLE
  2
BLOCK_RECORD
  5
1
330
0
100
AcDbSymbolTable
 70
     1
  0
BLOCK_RECORD
  5
1F
330
1
100
AcDbSymbolTableRecord
100
AcDbBlockTableRecord
  2
*Model_Space
340
22
  0
BLOCK_RECORD
  5
1B
330
1
100
AcDbSymbolTableRecord
100
AcDbBlockTableRecord
  2
*Paper_Space
340
1E
  0
BLOCK_RECORD
  5
23
330
1
100
AcDbSymbolTableRecord
100
AcDbBlockTableRecord
  2
*Paper_Space0
340
26
  0
ENDTAB
  0
ENDSEC
  0
SECTION
  2
BLOCKS
  0
BLOCK
  5
20
330
1F
100
AcDbEntity
  8
0
100
AcDbBlockBegin
  2
*Model_Space
 70
     0
 10
0.0
 20
0.0
 30
0.0
  3
*Model_Space
  1

  0
ENDBLK
  5
21
330
1F
100
AcDbEntity
  8
0
100
AcDbBlockEnd
  0
BLOCK
  5
1C
330
1B
100
AcDbEntity
 67
     1
  8
0
100
AcDbBlockBegin
  2
*Paper_Space
 70
     0
 10
0.0
 20
0.0
 30
0.0
  3
*Paper_Space
  1

  0
ENDBLK
  5
1D
330
1B
100
AcDbEntity
 67
     1
  8
0
100
AcDbBlockEnd
  0
BLOCK
  5
24
330
23
100
AcDbEntity
  8
0
100
AcDbBlockBegin
  2
*Paper_Space0
 70
     0
 10
0.0
 20
0.0
 30
0.0
  3
*Paper_Space0
  1

  0
ENDBLK
  5
25
330
23
100
AcDbEntity
  8
0
100
AcDbBlockEnd
  0
ENDSEC
  0
SECTION
  2
ENTITIES
  0
LINE
  5
79
330
1F
100
AcDbEntity
  8
1
  6
SLD-実線
 62
     7
370
    18
100
AcDbLine
 10
503.5887755865
 20
702.6067176743
 30
0.0
 11
503.5887755865
 21
780.6965934805
 31
0.0
  0
LINE
  5
7A
330
1F
100
AcDbEntity
  8
1
  6
SLD-実線
 62
     7
370
    18
100
AcDbLine
 10
513.2887754041
 20
790.3965932981
 30
0.0
 11
564.2887744453
 21
790.3965932981
 31
0.0
  0
LINE
  5
7B
330
1F
100
AcDbEntity
  8
1
  6
SLD-実線
 62
     7
370
    18
100
AcDbLine
 10
573.988774263
 20
702.6067176743
 30
0.0
 11
573.988774263
 21
780.6965934805
 31
0.0
  0
LINE
  5
7C
330
1F
100
AcDbEntity
  8
1
  6
SLD-実線
 62
     7
370
    18
100
AcDbLine
 10
513.2887754041
 20
692.9067178566
 30
0.0
 11
564.2887744453
 21
692.9067178566
 31
0.0
  0
LINE
  5
7D
330
1F
100
AcDbEntity
  8
SLD-0
  6
SLD-1点鎖線(中心線)
 62
     7
370
    18
100
AcDbLine
 10
439.6393676994
 20
117.882374123
 30
0.0
 11
626.5506232742
 21
117.882374123
 31
0.0
  0
LINE
  5
7E
330
1F
100
AcDbEntity
  8
SLD-0
  6
SLD-1点鎖線(中心線)
 62
     7
370
    18
100
AcDbLine
 10
538.7887749247
 20
366.999151258
 30
0.0
 11
538.7887749247
 21
803.7490021381
 31
0.0
  0
LINE
  5
7F
330
1F
100
AcDbEntity
  8
SLD-0
  6
SLD-実線
 62
     7
370
    18
100
AcDbLine
 10
599.7887737779
 20
678.9242590296
 30
0.0
 11
599.7887737779
 21
669.9242591988
 31
0.0
  0
LINE
  5
80
330
1F
100
AcDbEntity
  8
SLD-0
  6
SLD-実線
 62
     7
370
    18
100
AcDbLine
 10
592.1378381721
 20
766.7761712848
 30
0.0
 11
589.0957927754
 21
769.5527712333
 31
0.0
  0
LINE
  5
81
330
1F
100
AcDbEntity
  8
SLD-0
  6
SLD-実線
 62
     7
370
    18
100
AcDbLine
 10
594.0266450762
 20
769.5499065812
 30
0.0
 11
597.5366768293
 21
766.7790293594
 31
0.0
  0
LINE
  5
82
330
1F
100
AcDbEntity
  8
SLD-0
  6
SLD-実線
 62
     7
370
    18
100
AcDbLine
 10
593.6462602565
 20
770.3348118571
 30
0.0
 11
593.6462602565
 21
770.9242573
 31
0.0
  0
LINE
  5
83
330
1F
100
AcDbEntity
  8
SLD-0
  6
SLD-実線
 62
     7
370
    18
100
AcDbLine
 10
591.0591193983
 20
770.9242573
 30
0.0
 11
591.0591193983
 21
767.7607619049
 31
0.0
  0
LINE
  5
84
330
1F
100
AcDbEntity
  8
SLD-0
  6
SLD-実線
 62
     7
370
    18
100
AcDbLine
 10
597.9170616474
 20
678.9242575395
 30
0.0
 11
597.9170616474
 21
765.9941240852
 31
0.0
  0
LINE
  5
85
330
1F
100
AcDbEntity
  8
SLD-0
  6
SLD-実線
 62
     7
370
    18
100
AcDbLine
 10
588.7699421682
 20
770.2913664017
 30
0.0
 11
588.7699421682
 21
770.9242573
 31
0.0
  0
LINE
  5
86
330
1F
100
AcDbEntity
  8
SLD-0
  6
SLD-実線
 62
     7
370
    18
100
AcDbLine
 10
586.0410013091
 20
770.9242573
 30
0.0
 11
586.0410013091
 21
678.9242590296
 31
0.0
  0
LINE
  5
87
330
1F
100
AcDbEntity
  8
SLD-0
  6
SLD-実線
 62
     7
370
    18
100
AcDbLine
 10
592.4636935712
 20
766.037571678
 30
0.0
 11
592.4636935712
 21
678.9242596794
 31
0.0
  0
LINE
  5
88
330
1F
100
AcDbEntity
  8
SLD-0
  6
SLD-実線
 62
     7
370
    18
100
AcDbLine
 10
577.6548287393
 20
790.2675114811
 30
0.0
 11
577.6548287393
 21
678.9242590296
 31
0.0
  0
LINE
  5
89
330
1F
100
AcDbEntity
  8
SLD-0
  6
SLD-実線
 62
     7
370
    18
100
AcDbLine
 10
581.5461013937
 20
789.9792705768
 30
0.0
 11
581.5461013937
 21
678.9242590296
 31
0.0
  0
LINE
  5
8A
330
1F
100
AcDbEntity
  8
SLD-0
  6
SLD-実線
 62
     7
370
    18
100
AcDbLine
 10
584.3745286146
 20
789.7697569445
 30
0.0
 11
584.3745286146
 21
678.9242590296
 31
0.0
  0
LINE
  5
8B
330
1F
100
AcDbEntity
  8
SLD-0
  6
SLD-実線
 62
     7
370
    18
100
AcDbLine
 10
559.6744927138
 20
692.9067178566
 30
0.0
 11
559.6744927138
 21
678.9242590296
 31
0.0
  0
LINE
  5
8C
330
1F
100
AcDbEntity
  8
SLD-0
  6
SLD-実線
 62
     7
370
    18
100
AcDbLine
 10
563.2560790101
 20
692.9067178566
 30
0.0
 11
563.2560790101
 21
678.9242590296
 31
0.0
  0
LINE
  5
8D
330
1F
100
AcDbEntity
  8
SLD-0
  6
SLD-実線
 62
     7
370
    18
100
AcDbLine
 10
573.623492451
 20
678.9242590296
 30
0.0
 11
573.623492451
 21
699.9698495419
 31
0.0
  0
LINE
  5
8E
330
1F
100
AcDbEntity
  8
SLD-0
  6
SLD-実線
 62
     7
370
    18
100
AcDbLine
 10
568.9897516296
 20
678.9242590296
 30
0.0
 11
568.9897516296
 21
694.1219769247
 31
0.0
  0
LINE
  5
8F
330
1F
100
AcDbEntity
  8
SLD-0
  6
SLD-実線
 62
     7
370
    18
100
AcDbLine
 10
556.7887745863
 20
669.9242591988
 30
0.0
 11
556.7887745863
 21
692.9067178566
 31
0.0
  0
LINE
  5
90
330
1F
100
AcDbEntity
  8
SLD-0
  6
SLD-実線
 62
     7
370
    18
100
AcDbLine
 10
608.6960872485
 20
681.9242589732
 30
0.0
 11
605.0363327697
 21
686.1812725293
 31
0.0
  0
LINE
  5
91
330
1F
100
AcDbEntity
  8
SLD-0
  6
SLD-実線
 62
     7
370
    18
100
AcDbLine
 10
608.6960872485
 20
681.9242589732
 30
0.0
 11
608.6960872485
 21
669.9242591988
 31
0.0
  0
LINE
  5
92
330
1F
100
AcDbEntity
  8
SLD-0
  6
SLD-実線
 62
     7
370
    18
100
AcDbLine
 10
602.8043052674
 20
766.4787523942
 30
0.0
 11
605.2722143117
 21
677.6954813353
 31
0.0
  0
LINE
  5
93
330
1F
100
AcDbEntity
  8
SLD-0
  6
SLD-実線
 62
     7
370
    18
100
AcDbLine
 10
596.2796858373
 20
770.9242573412
 30
0.0
 11
596.3675676554
 21
767.7019483096
 31
0.0
  0
LINE
  5
94
330
1F
100
AcDbEntity
  8
SLD-0
  6
SLD-実線
 62
     7
370
    18
100
AcDbLine
 10
556.7887745863
 20
678.9242590296
 30
0.0
 11
599.7887737779
 21
678.9242590296
 31
0.0
  0
LINE
  5
95
330
1F
100
AcDbEntity
  8
SLD-0
  6
SLD-実線
 62
     7
370
    18
100
AcDbLine
 10
599.7887749922
 20
673.9242578174
 30
0.0
 11
604.7726021721
 21
676.8016713996
 31
0.0
  0
LINE
  5
96
330
1F
100
AcDbEntity
  8
SLD-0
  6
SLD-実線
 62
     7
370
    18
100
AcDbLine
 10
538.7887749247
 20
669.9242591988
 30
0.0
 11
608.6960872485
 21
669.9242591988
 31
0.0
  0
LINE
  5
97
330
1F
100
AcDbEntity
  8
SLD-0
  6
SLD-実線
 62
     7
370
    18
100
AcDbLine
 10
508.5877982199
 20
678.9242590296
 30
0.0
 11
508.5877982199
 21
694.1219769247
 31
0.0
  0
LINE
  5
98
330
1F
100
AcDbEntity
  8
SLD-0
  6
SLD-実線
 62
     7
370
    18
100
AcDbLine
 10
499.9227211101
 20
790.2675114811
 30
0.0
 11
499.9227211101
 21
678.9242590296
 31
0.0
  0
LINE
  5
99
330
1F
100
AcDbEntity
  8
SLD-0
  6
SLD-実線
 62
     7
370
    18
100
AcDbLine
 10
493.2030212374
 20
789.7697569445
 30
0.0
 11
493.2030212374
 21
678.9242590296
 31
0.0
  0
LINE
  5
9A
330
1F
100
AcDbEntity
  8
SLD-0
  6
SLD-実線
 62
     7
370
    18
100
AcDbLine
 10
496.0314484558
 20
789.9792705768
 30
0.0
 11
496.0314484558
 21
678.9242590296
 31
0.0
  0
LINE
  5
9B
330
1F
100
AcDbEntity
  8
SLD-0
  6
SLD-実線
 62
     7
370
    18
100
AcDbLine
 10
503.9540573985
 20
678.9242590296
 30
0.0
 11
503.9540573985
 21
699.9698495419
 31
0.0
  0
LINE
  5
9C
330
1F
100
AcDbEntity
  8
SLD-0
  6
SLD-実線
 62
     7
370
    18
100
AcDbLine
 10
479.7887756488
 20
770.5016075594
 30
0.0
 11
479.7887756488
 21
770.9242575523
 31
0.0
  0
LINE
  5
9D
330
1F
100
AcDbEntity
  8
SLD-0
  6
SLD-実線
 62
     7
370
    18
100
AcDbLine
 10
481.2978668063
 20
770.9242573414
 30
0.0
 11
479.1850577553
 21
693.4546042521
 31
0.0
  0
LINE
  5
9E
330
1F
100
AcDbEntity
  8
SLD-0
  6
SLD-実線
 62
     7
370
    18
100
AcDbLine
 10
520.7887752631
 20
669.9242591988
 30
0.0
 11
520.7887752631
 21
692.9067178566
 31
0.0
  0
LINE
  5
9F
330
1F
100
AcDbEntity
  8
SLD-0
  6
SLD-実線
 62
     7
370
    18
100
AcDbLine
 10
479.1850577553
 20
693.4546042521
 30
0.0
 11
469.3901397582
 21
682.4934999132
 31
0.0
  0
LINE
  5
A0
330
1F
100
AcDbEntity
  8
SLD-0
  6
SLD-実線
 62
     7
370
    18
100
AcDbLine
 10
486.4930410251
 20
693.9242599179
 30
0.0
 11
476.2784412156
 21
682.4935010421
 31
0.0
  0
LINE
  5
A1
330
1F
100
AcDbEntity
  8
SLD-0
  6
SLD-実線
 62
     7
370
    18
100
AcDbLine
 10
486.493044091
 20
702.3737131339
 30
0.0
 11
486.493044091
 21
669.9242591988
 31
0.0
  0
LINE
  5
A2
330
1F
100
AcDbEntity
  8
SLD-0
  6
SLD-実線
 62
     7
370
    18
100
AcDbLine
 10
474.7732442489
 20
766.4787528408
 30
0.0
 11
472.5365851993
 21
686.0145588978
 31
0.0
  0
LINE
  5
A3
330
1F
100
AcDbEntity
  8
SLD-0
  6
SLD-実線
 62
     7
370
    18
100
AcDbLine
 10
479.2887744439
 20
769.6355810034
 30
0.0
 11
475.2728563391
 21
767.316990139
 31
0.0
  0
LINE
  5
A4
330
1F
100
AcDbEntity
  8
SLD-0
  6
SLD-実線
 62
     7
370
    18
100
AcDbLine
 10
479.5437941117
 20
706.6083040051
 30
0.0
 11
479.1850577553
 21
693.4546042521
 31
0.0
  0
LINE
  5
A5
330
1F
100
AcDbEntity
  8
SLD-0
  6
SLD-実線
 62
     7
370
    18
100
AcDbLine
 10
538.7887749247
 20
669.9242591988
 30
0.0
 11
468.8814626035
 21
669.9242591988
 31
0.0
  0
LINE
  5
A6
330
1F
100
AcDbEntity
  8
SLD-0
  6
SLD-実線
 62
     7
370
    18
100
AcDbLine
 10
520.7887752631
 20
678.9242590296
 30
0.0
 11
486.493044091
 21
678.9242590296
 31
0.0
  0
LINE
  5
A7
330
1F
100
AcDbEntity
  8
SLD-0
  6
SLD-実線
 62
     7
370
    18
100
AcDbLine
 10
468.8814626035
 20
681.1608498955
 30
0.0
 11
468.8814626035
 21
669.9242591988
 31
0.0
  0
LINE
  5
A8
330
1F
100
AcDbEntity
  8
SLD-0
  6
SLD-実線
 62
     7
370
    18
100
AcDbLine
 10
475.7697624743
 20
681.1608498955
 30
0.0
 11
475.7697624743
 21
669.9242591988
 31
0.0
  0
LINE
  5
A9
330
1F
100
AcDbEntity
  8
SLD-0
  6
SLD-実線
 62
     7
370
    18
100
AcDbLine
 10
475.9211942898
 20
681.9242589732
 30
0.0
 11
469.032894419
 21
681.9242589732
 31
0.0
  0
LINE
  5
AA
330
1F
100
AcDbEntity
  8
SLD-0
  6
SLD-実線
 62
     7
370
    18
100
AcDbLine
 10
503.2887755921
 20
404.0242641978
 30
0.0
 11
503.2887755921
 21
613.9242602516
 31
0.0
  0
LINE
  5
AB
330
1F
100
AcDbEntity
  8
SLD-0
  6
SLD-実線
 62
     7
370
    18
100
AcDbLine
 10
574.2887742573
 20
404.0242641978
 30
0.0
 11
574.2887742573
 21
613.9242602516
 31
0.0
  0
LINE
  5
AC
330
1F
100
AcDbEntity
  8
SLD-0
  6
SLD-実線
 62
     7
370
    18
100
AcDbLine
 10
547.2887747649
 20
399.0242642918
 30
0.0
 11
547.2887747649
 21
610.924260308
 31
0.0
  0
LINE
  5
AD
330
1F
100
AcDbEntity
  8
SLD-0
  6
SLD-実線
 62
     7
370
    18
100
AcDbLine
 10
530.2887750845
 20
399.0242642918
 30
0.0
 11
530.2887750845
 21
610.924260308
 31
0.0
  0
LINE
  5
AE
330
1F
100
AcDbEntity
  8
SLD-0
  6
SLD-1点鎖線(中心線)
 62
     7
370
    18
100
AcDbLine
 10
460.8847082084
 20
44.2684209601
 30
0.0
 11
483.5435441467
 21
66.9272568983
 31
0.0
  0
LINE
  5
AF
330
1F
100
AcDbEntity
  8
SLD-0
  6
SLD-破線
 62
     7
370
    18
100
AcDbLine
 10
467.7131808075
 20
637.9242598004
 30
0.0
 11
453.7887765227
 21
637.9242598004
 31
0.0
  0
LINE
  5
B0
330
1F
100
AcDbEntity
  8
SLD-0
  6
SLD-破線
 62
     7
370
    18
100
AcDbLine
 10
467.7131808075
 20
655.924259462
 30
0.0
 11
453.7887765227
 21
655.924259462
 31
0.0
  0
LINE
  5
B1
330
1F
100
AcDbEntity
  8
SLD-0
  6
SLD-破線
 62
     7
370
    18
100
AcDbLine
 10
449.4986584228
 20
126.8823739538
 30
0.0
 11
464.4986581408
 21
126.8823739538
 31
0.0
  0
LINE
  5
B2
330
1F
100
AcDbEntity
  8
SLD-0
  6
SLD-破線
 62
     7
370
    18
100
AcDbLine
 10
449.4986584228
 20
108.8823742922
 30
0.0
 11
464.4986581408
 21
108.8823742922
 31
0.0
  0
LINE
  5
B3
330
1F
100
AcDbEntity
  8
SLD-0
  6
SLD-破線
 62
     7
370
    18
100
AcDbLine
 10
449.4986584228
 20
107.882374311
 30
0.0
 11
464.4986581408
 21
107.882374311
 31
0.0
  0
LINE
  5
B4
330
1F
100
AcDbEntity
  8
SLD-0
  6
SLD-破線
 62
     7
370
    18
100
AcDbLine
 10
449.4986584228
 20
127.882373935
 30
0.0
 11
464.4986581408
 21
127.882373935
 31
0.0
  0
LINE
  5
B5
330
1F
100
AcDbEntity
  8
SLD-0
  6
SLD-実線
 62
     7
370
    18
100
AcDbLine
 10
486.8230986302
 20
372.2242647956
 30
0.0
 11
486.8230986302
 21
376.724264711
 31
0.0
  0
LINE
  5
B6
330
1F
100
AcDbEntity
  8
SLD-0
  6
SLD-実線
 62
     7
370
    18
100
AcDbLine
 10
479.8230987618
 20
372.2242647956
 30
0.0
 11
486.8230986302
 21
372.2242647956
 31
0.0
  0
LINE
  5
B7
330
1F
100
AcDbEntity
  8
SLD-0
  6
SLD-実線
 62
     7
370
    18
100
AcDbLine
 10
479.8230987618
 20
372.2242647956
 30
0.0
 11
479.8230987618
 21
376.724264711
 31
0.0
  0
LINE
  5
B8
330
1F
100
AcDbEntity
  8
SLD-0
  6
SLD-1点鎖線(中心線)
 62
     7
370
    18
100
AcDbLine
 10
483.323098696
 20
370.0585875623
 30
0.0
 11
483.323098696
 21
381.1292191726
 31
0.0
  0
LINE
  5
B9
330
1F
100
AcDbEntity
  8
SLD-0
  6
SLD-1点鎖線(中心線)
 62
     7
370
    18
100
AcDbLine
 10
594.254451156
 20
370.0585875623
 30
0.0
 11
594.254451156
 21
381.1292191726
 31
0.0
  0
LINE
  5
BA
330
1F
100
AcDbEntity
  8
SLD-0
  6
SLD-実線
 62
     7
370
    18
100
AcDbLine
 10
590.7544512218
 20
372.2242647956
 30
0.0
 11
590.7544512218
 21
376.724264711
 31
0.0
  0
LINE
  5
BB
330
1F
100
AcDbEntity
  8
SLD-0
  6
SLD-実線
 62
     7
370
    18
100
AcDbLine
 10
597.7544510902
 20
372.2242647956
 30
0.0
 11
597.7544510902
 21
376.724264711
 31
0.0
  0
LINE
  5
BC
330
1F
100
AcDbEntity
  8
SLD-0
  6
SLD-実線
 62
     7
370
    18
100
AcDbLine
 10
590.7544512218
 20
372.2242647956
 30
0.0
 11
597.7544510902
 21
372.2242647956
 31
0.0
  0
LINE
  5
BD
330
1F
100
AcDbEntity
  8
SLD-0
  6
SLD-実線
 62
     7
370
    18
100
AcDbLine
 10
599.7887737779
 20
656.9242594432
 30
0.0
 11
606.6960872861
 21
656.9242594432
 31
0.0
  0
LINE
  5
BE
330
1F
100
AcDbEntity
  8
SLD-0
  6
SLD-実線
 62
     7
370
    18
100
AcDbLine
 10
486.493044091
 20
656.9242594432
 30
0.0
 11
470.8814625659
 21
656.9242594432
 31
0.0
  0
LINE
  5
BF
330
1F
100
AcDbEntity
  8
SLD-0
  6
SLD-実線
 62
     7
370
    18
100
AcDbLine
 10
608.6960872485
 20
669.9242591988
 30
0.0
 11
608.6960872485
 21
658.9242594056
 31
0.0
  0
LINE
  5
C0
330
1F
100
AcDbEntity
  8
SLD-0
  6
SLD-実線
 62
     7
370
    18
100
AcDbLine
 10
468.8814626035
 20
669.9242591988
 30
0.0
 11
468.8814626035
 21
658.9242594056
 31
0.0
  0
LINE
  5
C1
330
1F
100
AcDbEntity
  8
SLD-0
  6
SLD-実線
 62
     7
370
    18
100
AcDbLine
 10
475.7697624743
 20
669.9242591988
 30
0.0
 11
475.7697624743
 21
656.9242594432
 31
0.0
  0
LINE
  5
C2
330
1F
100
AcDbEntity
  8
SLD-0
  6
SLD-実線
 62
     7
370
    18
100
AcDbLine
 10
486.493044091
 20
669.9242591988
 30
0.0
 11
486.493044091
 21
656.9242594432
 31
0.0
  0
LINE
  5
C3
330
1F
100
AcDbEntity
  8
SLD-0
  6
SLD-1点鎖線(中心線)
 62
     7
370
    18
100
AcDbLine
 10
473.4016216099
 20
99.2031335644
 30
0.0
 11
483.9601532284
 21
102.4312016853
 31
0.0
  0
LINE
  5
C4
330
1F
100
AcDbEntity
  8
SLD-0
  6
SLD-1点鎖線(中心線)
 62
     7
370
    18
100
AcDbLine
 10
553.3032201071
 20
56.3754298245
 30
0.0
 11
549.2819020004
 21
69.5285568507
 31
0.0
  0
LINE
  5
C5
330
1F
100
AcDbEntity
  8
SLD-0
  6
SLD-1点鎖線(中心線)
 62
     7
370
    18
100
AcDbLine
 10
586.0763285816
 20
133.6512510993
 30
0.0
 11
595.4616829503
 21
136.5206419544
 31
0.0
  0
LINE
  5
C6
330
1F
100
AcDbEntity
  8
SLD-0
  6
SLD-1点鎖線(中心線)
 62
     7
370
    18
100
AcDbLine
 10
518.7193571211
 20
169.4941413336
 30
0.0
 11
515.9791571709
 21
178.4569320745
 31
0.0
  0
LINE
  5
C7
330
1F
100
AcDbEntity
  8
SLD-0
  6
SLD-1点鎖線(中心線)
 62
     7
370
    18
100
AcDbLine
 10
586.1330331266
 20
169.5167458782
 30
0.0
 11
606.2134145659
 21
189.5971318642
 31
0.0
  0
LINE
  5
C8
330
1F
100
AcDbEntity
  8
SLD-0
  6
SLD-1点鎖線(中心線)
 62
     7
370
    18
100
AcDbLine
 10
486.2931713665
 20
166.0878595788
 30
0.0
 11
464.1756854187
 21
188.2053455266
 31
0.0
  0
LINE
  5
C9
330
1F
100
AcDbEntity
  8
SLD-0
  6
SLD-1点鎖線(中心線)
 62
     7
370
    18
100
AcDbLine
 10
604.9351282274
 20
47.4459027204
 30
0.0
 11
583.173187728
 21
69.2078477639
 31
0.0
  0
LINE
  5
CA
330
1F
100
AcDbEntity
  8
SLD-0
  6
SLD-実線
 62
     7
370
    18
100
AcDbLine
 10
451.4986583852
 20
97.882374499
 30
0.0
 11
464.4986581408
 21
97.882374499
 31
0.0
  0
LINE
  5
CB
330
1F
100
AcDbEntity
  8
SLD-0
  6
SLD-実線
 62
     7
370
    18
100
AcDbLine
 10
451.4986583852
 20
137.882373747
 30
0.0
 11
464.4986581408
 21
137.882373747
 31
0.0
  0
LINE
  5
CC
330
1F
100
AcDbEntity
  8
SLD-0
  6
SLD-実線
 62
     7
370
    18
100
AcDbLine
 10
449.4986584228
 20
99.8823744614
 30
0.0
 11
449.4986584228
 21
135.8823737846
 31
0.0
  0
LINE
  5
CD
330
1F
100
AcDbEntity
  8
SLD-0
  6
SLD-実線
 62
     7
370
    18
100
AcDbLine
 10
598.7248180572
 20
47.8823746518
 30
0.0
 11
470.2724976097
 21
47.8823731723
 31
0.0
  0
LINE
  5
CE
330
1F
100
AcDbEntity
  8
SLD-0
  6
SLD-実線
 62
     7
370
    18
100
AcDbLine
 10
470.2724972106
 20
187.8823747089
 30
0.0
 11
598.7248180836
 21
187.8823728233
 31
0.0
  0
LINE
  5
CF
330
1F
100
AcDbEntity
  8
SLD-0
  6
SLD-実線
 62
     7
370
    18
100
AcDbLine
 10
464.4986577344
 20
53.6562128804
 30
0.0
 11
464.4986577344
 21
182.1085353656
 31
0.0
  0
LINE
  5
D0
330
1F
100
AcDbEntity
  8
SLD-0
  6
SLD-実線
 62
     7
370
    18
100
AcDbLine
 10
604.4986559152
 20
53.656212474
 30
0.0
 11
604.4986559152
 21
182.1085349567
 31
0.0
  0
LINE
  5
D1
330
1F
100
AcDbEntity
  8
SLD-0
  6
SLD-実線
 62
     7
370
    18
100
AcDbLine
 10
476.2887760997
 20
376.724264711
 30
0.0
 11
476.2887760997
 21
385.024264555
 31
0.0
  0
LINE
  5
D2
330
1F
100
AcDbEntity
  8
SLD-0
  6
SLD-実線
 62
     7
370
    18
100
AcDbLine
 10
527.0360842366
 20
372.7242647862
 30
0.0
 11
538.7887749247
 21
372.7242647862
 31
0.0
  0
LINE
  5
D3
330
1F
100
AcDbEntity
  8
SLD-0
  6
SLD-実線
 62
     7
370
    18
100
AcDbLine
 10
527.0360842366
 20
372.7242647862
 30
0.0
 11
523.0360843118
 21
376.724264711
 31
0.0
  0
LINE
  5
D4
330
1F
100
AcDbEntity
  8
SLD-0
  6
SLD-実線
 62
     7
370
    18
100
AcDbLine
 10
538.7887749247
 20
376.724264711
 30
0.0
 11
476.2887760997
 21
376.724264711
 31
0.0
  0
LINE
  5
D5
330
1F
100
AcDbEntity
  8
SLD-0
  6
SLD-実線
 62
     7
370
    18
100
AcDbLine
 10
538.7887749247
 20
379.0242646678
 30
0.0
 11
476.2887760997
 21
379.0242646678
 31
0.0
  0
LINE
  5
D6
330
1F
100
AcDbEntity
  8
SLD-0
  6
SLD-実線
 62
     7
370
    18
100
AcDbLine
 10
538.7887749247
 20
387.0242645174
 30
0.0
 11
478.2887760621
 21
387.0242645174
 31
0.0
  0
LINE
  5
D7
330
1F
100
AcDbEntity
  8
SLD-0
  6
SLD-実線
 62
     7
370
    18
100
AcDbLine
 10
520.2887752725
 20
399.0242642918
 30
0.0
 11
520.2887752725
 21
402.0242642354
 31
0.0
  0
LINE
  5
D8
330
1F
100
AcDbEntity
  8
SLD-0
  6
SLD-実線
 62
     7
370
    18
100
AcDbLine
 10
520.2887752725
 20
402.0242642354
 30
0.0
 11
515.2887753665
 21
402.0242642354
 31
0.0
  0
LINE
  5
D9
330
1F
100
AcDbEntity
  8
SLD-0
  6
SLD-実線
 62
     7
370
    18
100
AcDbLine
 10
515.2887753665
 20
400.024264273
 30
0.0
 11
515.2887753665
 21
402.0242642354
 31
0.0
  0
LINE
  5
DA
330
1F
100
AcDbEntity
  8
SLD-0
  6
SLD-実線
 62
     7
370
    18
100
AcDbLine
 10
538.7887749247
 20
399.0242642918
 30
0.0
 11
484.2887759493
 21
399.0242642918
 31
0.0
  0
LINE
  5
DB
330
1F
100
AcDbEntity
  8
SLD-0
  6
SLD-実線
 62
     7
370
    18
100
AcDbLine
 10
508.7887754887
 20
400.024264273
 30
0.0
 11
508.7887754887
 21
411.0242640662
 31
0.0
  0
LINE
  5
DC
330
1F
100
AcDbEntity
  8
SLD-0
  6
SLD-実線
 62
     7
370
    18
100
AcDbLine
 10
521.7887752443
 20
417.0242639534
 30
0.0
 11
521.7887752443
 21
419.0242639158
 31
0.0
  0
LINE
  5
DD
330
1F
100
AcDbEntity
  8
SLD-0
  6
SLD-実線
 62
     7
370
    18
100
AcDbLine
 10
520.7887752631
 20
416.0242639722
 30
0.0
 11
513.7887753947
 21
416.0242639722
 31
0.0
  0
LINE
  5
DE
330
1F
100
AcDbEntity
  8
SLD-0
  6
SLD-破線
 62
     7
370
    18
100
AcDbLine
 10
521.7887752443
 20
420.024263897
 30
0.0
 11
513.7887753947
 21
428.0242637466
 31
0.0
  0
LINE
  5
DF
330
1F
100
AcDbEntity
  8
SLD-0
  6
SLD-破線
 62
     7
370
    18
100
AcDbLine
 10
513.7887753947
 20
428.0242637466
 30
0.0
 11
503.2887755921
 21
428.0242637466
 31
0.0
  0
LINE
  5
E0
330
1F
100
AcDbEntity
  8
SLD-0
  6
SLD-実線
 62
     7
370
    18
100
AcDbLine
 10
476.2887760997
 20
379.0242646678
 30
0.0
 11
476.2887760997
 21
617.9242601764
 31
0.0
  0
LINE
  5
E1
330
1F
100
AcDbEntity
  8
SLD-0
  6
SLD-実線
 62
     7
370
    18
100
AcDbLine
 10
495.2887757425
 20
404.0242641978
 30
0.0
 11
495.2887757425
 21
613.9242602516
 31
0.0
  0
LINE
  5
E2
330
1F
100
AcDbEntity
  8
SLD-0
  6
SLD-実線
 62
     7
370
    18
100
AcDbLine
 10
593.2887739001
 20
390.024264461
 30
0.0
 11
593.2887739001
 21
391.0242644422
 31
0.0
  0
LINE
  5
E3
330
1F
100
AcDbEntity
  8
SLD-0
  6
SLD-実線
 62
     7
370
    18
100
AcDbLine
 10
601.2887737497
 20
376.724264711
 30
0.0
 11
601.2887740444
 21
385.024264555
 31
0.0
  0
LINE
  5
E4
330
1F
100
AcDbEntity
  8
SLD-0
  6
SLD-実線
 62
     7
370
    18
100
AcDbLine
 10
596.2887736573
 20
391.7324688333
 30
0.0
 11
596.2887736573
 21
613.9242601105
 31
0.0
  0
LINE
  5
E5
330
1F
100
AcDbEntity
  8
SLD-0
  6
SLD-実線
 62
     7
370
    18
100
AcDbLine
 10
582.2887741069
 20
404.0242641978
 30
0.0
 11
582.2887741069
 21
613.9242602516
 31
0.0
  0
LINE
  5
E6
330
1F
100
AcDbEntity
  8
SLD-0
  6
SLD-実線
 62
     7
370
    18
100
AcDbLine
 10
538.7887749247
 20
379.0242646678
 30
0.0
 11
601.2887737497
 21
379.0242646678
 31
0.0
  0
LINE
  5
E7
330
1F
100
AcDbEntity
  8
SLD-0
  6
SLD-破線
 62
     7
370
    18
100
AcDbLine
 10
467.7131808075
 20
636.9242598192
 30
0.0
 11
453.7887765227
 21
636.9242598192
 31
0.0
  0
LINE
  5
E8
330
1F
100
AcDbEntity
  8
SLD-0
  6
SLD-破線
 62
     7
370
    18
100
AcDbLine
 10
467.7131808075
 20
656.9242594432
 30
0.0
 11
453.7887765227
 21
656.9242594432
 31
0.0
  0
LINE
  5
E9
330
1F
100
AcDbEntity
  8
SLD-0
  6
SLD-実線
 62
     7
370
    18
100
AcDbLine
 10
602.7887737215
 20
618.9242601576
 30
0.0
 11
602.7887737215
 21
621.9242601012
 31
0.0
  0
LINE
  5
EA
330
1F
100
AcDbEntity
  8
SLD-0
  6
SLD-実線
 62
     7
370
    18
100
AcDbLine
 10
608.7887736087
 20
621.9242601012
 30
0.0
 11
608.7887736087
 21
629.9242599508
 31
0.0
  0
LINE
  5
EB
330
1F
100
AcDbEntity
  8
SLD-0
  6
SLD-実線
 62
     7
370
    18
100
AcDbLine
 10
538.7887749247
 20
621.9242601012
 30
0.0
 11
608.7887736087
 21
621.9242601012
 31
0.0
  0
LINE
  5
EC
330
1F
100
AcDbEntity
  8
SLD-0
  6
SLD-実線
 62
     7
370
    18
100
AcDbLine
 10
538.7887749247
 20
629.9242599508
 30
0.0
 11
608.7887736087
 21
629.9242599508
 31
0.0
  0
LINE
  5
ED
330
1F
100
AcDbEntity
  8
SLD-0
  6
SLD-実線
 62
     7
370
    18
100
AcDbLine
 10
538.7887749247
 20
618.9242601576
 30
0.0
 11
602.7887737215
 21
618.9242601576
 31
0.0
  0
LINE
  5
EE
330
1F
100
AcDbEntity
  8
SLD-0
  6
SLD-実線
 62
     7
370
    18
100
AcDbLine
 10
477.7887760715
 20
629.9242599508
 30
0.0
 11
477.7887760715
 21
656.9242594432
 31
0.0
  0
LINE
  5
EF
330
1F
100
AcDbEntity
  8
SLD-0
  6
SLD-実線
 62
     7
370
    18
100
AcDbLine
 10
474.7887761279
 20
618.9242601576
 30
0.0
 11
474.7887761279
 21
621.9242601012
 31
0.0
  0
LINE
  5
F0
330
1F
100
AcDbEntity
  8
SLD-0
  6
SLD-実線
 62
     7
370
    18
100
AcDbLine
 10
538.7887749247
 20
629.9242599508
 30
0.0
 11
468.7887762407
 21
629.9242599508
 31
0.0
  0
LINE
  5
F1
330
1F
100
AcDbEntity
  8
SLD-0
  6
SLD-実線
 62
     7
370
    18
100
AcDbLine
 10
538.7887749247
 20
618.9242601576
 30
0.0
 11
474.7887761279
 21
618.9242601576
 31
0.0
  0
LINE
  5
F2
330
1F
100
AcDbEntity
  8
SLD-0
  6
SLD-実線
 62
     7
370
    18
100
AcDbLine
 10
468.7887762407
 20
621.9242601012
 30
0.0
 11
468.7887762407
 21
629.9242599508
 31
0.0
  0
LINE
  5
F3
330
1F
100
AcDbEntity
  8
SLD-0
  6
SLD-1点鎖線(中心線)
 62
     7
370
    18
100
AcDbLine
 10
467.7131808075
 20
646.9242596312
 30
0.0
 11
444.0657176148
 21
646.9242596312
 31
0.0
  0
LINE
  5
F4
330
1F
100
AcDbEntity
  8
SLD-0
  6
SLD-実線
 62
     7
370
    18
100
AcDbLine
 10
453.7887765227
 20
628.9242599696
 30
0.0
 11
453.7887765227
 21
664.9242592928
 31
0.0
  0
LINE
  5
F5
330
1F
100
AcDbEntity
  8
SLD-0
  6
SLD-実線
 62
     7
370
    18
100
AcDbLine
 10
468.8814626035
 20
666.9242592552
 30
0.0
 11
455.7887764851
 21
666.9242592552
 31
0.0
  0
LINE
  5
F6
330
1F
100
AcDbEntity
  8
SLD-0
  6
SLD-実線
 62
     7
370
    18
100
AcDbLine
 10
468.7887762407
 20
626.9242600072
 30
0.0
 11
455.7887764851
 21
626.9242600072
 31
0.0
  0
LINE
  5
F7
330
1F
100
AcDbEntity
  8
SLD-0
  6
SLD-実線
 62
     7
370
    18
100
AcDbLine
 10
538.7887749247
 20
621.9242601012
 30
0.0
 11
468.7887762407
 21
621.9242601012
 31
0.0
  0
LINE
  5
F8
330
1F
100
AcDbEntity
  8
SLD-0
  6
SLD-実線
 62
     7
370
    18
100
AcDbLine
 10
530.5387750798
 20
610.924260308
 30
0.0
 11
530.5387750798
 21
611.9242602892
 31
0.0
  0
LINE
  5
F9
330
1F
100
AcDbEntity
  8
SLD-0
  6
SLD-実線
 62
     7
370
    18
100
AcDbLine
 10
530.2887750845
 20
616.9242601952
 30
0.0
 11
530.2887750845
 21
618.9242601576
 31
0.0
  0
LINE
  5
FA
330
1F
100
AcDbEntity
  8
SLD-0
  6
SLD-実線
 62
     7
370
    18
100
AcDbLine
 10
530.2887750845
 20
616.9242601952
 30
0.0
 11
538.7887749247
 21
616.9242601952
 31
0.0
  0
LINE
  5
FB
330
1F
100
AcDbEntity
  8
SLD-0
  6
SLD-実線
 62
     7
370
    18
100
AcDbLine
 10
527.2887751409
 20
611.9242602892
 30
0.0
 11
527.2887751409
 21
614.4242602422
 31
0.0
  0
LINE
  5
FC
330
1F
100
AcDbEntity
  8
SLD-0
  6
SLD-実線
 62
     7
370
    18
100
AcDbLine
 10
527.2887751409
 20
611.9242602892
 30
0.0
 11
538.7887749247
 21
611.9242602892
 31
0.0
  0
LINE
  5
FD
330
1F
100
AcDbEntity
  8
SLD-0
  6
SLD-実線
 62
     7
370
    18
100
AcDbLine
 10
523.7887752067
 20
614.4242602422
 30
0.0
 11
523.7887752067
 21
615.924260214
 31
0.0
  0
LINE
  5
FE
330
1F
100
AcDbEntity
  8
SLD-0
  6
SLD-実線
 62
     7
370
    18
100
AcDbLine
 10
523.7887752067
 20
614.4242602422
 30
0.0
 11
538.7887749247
 21
614.4242602422
 31
0.0
  0
LINE
  5
FF
330
1F
100
AcDbEntity
  8
SLD-0
  6
SLD-実線
 62
     7
370
    18
100
AcDbLine
 10
523.7887752067
 20
615.924260214
 30
0.0
 11
538.7887749247
 21
615.924260214
 31
0.0
  0
LINE
  5
100
330
1F
100
AcDbEntity
  8
SLD-0
  6
SLD-実線
 62
     7
370
    18
100
AcDbLine
 10
530.5387750798
 20
615.924260214
 30
0.0
 11
530.5387750798
 21
616.9242601952
 31
0.0
  0
LINE
  5
101
330
1F
100
AcDbEntity
  8
SLD-0
  6
SLD-実線
 62
     7
370
    18
100
AcDbLine
 10
538.7887749247
 20
669.9242591988
 30
0.0
 11
468.8814626035
 21
669.9242591988
 31
0.0
  0
LINE
  5
102
330
1F
100
AcDbEntity
  8
SLD-0
  6
SLD-実線
 62
     7
370
    18
100
AcDbLine
 10
550.5414656129
 20
372.7242647862
 30
0.0
 11
554.5414655377
 21
376.724264711
 31
0.0
  0
LINE
  5
103
330
1F
100
AcDbEntity
  8
SLD-0
  6
SLD-実線
 62
     7
370
    18
100
AcDbLine
 10
550.5414656129
 20
372.7242647862
 30
0.0
 11
538.7887749247
 21
372.7242647862
 31
0.0
  0
LINE
  5
104
330
1F
100
AcDbEntity
  8
SLD-0
  6
SLD-実線
 62
     7
370
    18
100
AcDbLine
 10
538.7887749247
 20
376.724264711
 30
0.0
 11
601.2887737497
 21
376.724264711
 31
0.0
  0
LINE
  5
105
330
1F
100
AcDbEntity
  8
SLD-0
  6
SLD-実線
 62
     7
370
    18
100
AcDbLine
 10
547.0387747696
 20
615.924260214
 30
0.0
 11
547.0387747696
 21
616.9242601952
 31
0.0
  0
LINE
  5
106
330
1F
100
AcDbEntity
  8
SLD-0
  6
SLD-実線
 62
     7
370
    18
100
AcDbLine
 10
553.7887746427
 20
615.924260214
 30
0.0
 11
538.7887749247
 21
615.924260214
 31
0.0
  0
LINE
  5
107
330
1F
100
AcDbEntity
  8
SLD-0
  6
SLD-実線
 62
     7
370
    18
100
AcDbLine
 10
553.7887746427
 20
614.4242602422
 30
0.0
 11
538.7887749247
 21
614.4242602422
 31
0.0
  0
LINE
  5
108
330
1F
100
AcDbEntity
  8
SLD-0
  6
SLD-実線
 62
     7
370
    18
100
AcDbLine
 10
553.7887746427
 20
614.4242602422
 30
0.0
 11
553.7887746427
 21
615.924260214
 31
0.0
  0
LINE
  5
109
330
1F
100
AcDbEntity
  8
SLD-0
  6
SLD-実線
 62
     7
370
    18
100
AcDbLine
 10
550.2887747085
 20
611.9242602892
 30
0.0
 11
538.7887749247
 21
611.9242602892
 31
0.0
  0
LINE
  5
10A
330
1F
100
AcDbEntity
  8
SLD-0
  6
SLD-実線
 62
     7
370
    18
100
AcDbLine
 10
550.2887747085
 20
611.9242602892
 30
0.0
 11
550.2887747085
 21
614.4242602422
 31
0.0
  0
LINE
  5
10B
330
1F
100
AcDbEntity
  8
SLD-0
  6
SLD-実線
 62
     7
370
    18
100
AcDbLine
 10
562.2887744829
 20
400.024264273
 30
0.0
 11
562.2887744829
 21
402.0242642354
 31
0.0
  0
LINE
  5
10C
330
1F
100
AcDbEntity
  8
SLD-0
  6
SLD-実線
 62
     7
370
    18
100
AcDbLine
 10
557.2887745769
 20
402.0242642354
 30
0.0
 11
562.2887744829
 21
402.0242642354
 31
0.0
  0
LINE
  5
10D
330
1F
100
AcDbEntity
  8
SLD-0
  6
SLD-実線
 62
     7
370
    18
100
AcDbLine
 10
557.2887745769
 20
399.0242642918
 30
0.0
 11
557.2887745769
 21
402.0242642354
 31
0.0
  0
LINE
  5
10E
330
1F
100
AcDbEntity
  8
SLD-0
  6
SLD-破線
 62
     7
370
    18
100
AcDbLine
 10
555.7887746051
 20
420.024263897
 30
0.0
 11
563.7887744547
 21
428.0242637466
 31
0.0
  0
LINE
  5
10F
330
1F
100
AcDbEntity
  8
SLD-0
  6
SLD-破線
 62
     7
370
    18
100
AcDbLine
 10
563.7887744547
 20
428.0242637466
 30
0.0
 11
574.2887742573
 21
428.0242637466
 31
0.0
  0
LINE
  5
110
330
1F
100
AcDbEntity
  8
SLD-0
  6
SLD-実線
 62
     7
370
    18
100
AcDbLine
 10
568.7887743607
 20
400.024264273
 30
0.0
 11
568.7887743607
 21
411.0242640662
 31
0.0
  0
LINE
  5
111
330
1F
100
AcDbEntity
  8
SLD-0
  6
SLD-実線
 62
     7
370
    18
100
AcDbLine
 10
556.7887745863
 20
416.0242639722
 30
0.0
 11
563.7887744547
 21
416.0242639722
 31
0.0
  0
LINE
  5
112
330
1F
100
AcDbEntity
  8
SLD-0
  6
SLD-実線
 62
     7
370
    18
100
AcDbLine
 10
555.7887746051
 20
417.0242639534
 30
0.0
 11
555.7887746051
 21
419.0242639158
 31
0.0
  0
LINE
  5
113
330
1F
100
AcDbEntity
  8
SLD-0
  6
SLD-実線
 62
     7
370
    18
100
AcDbLine
 10
547.2887747649
 20
610.924260308
 30
0.0
 11
538.7887749247
 21
610.924260308
 31
0.0
  0
LINE
  5
114
330
1F
100
AcDbEntity
  8
SLD-0
  6
SLD-実線
 62
     7
370
    18
100
AcDbLine
 10
547.2887747649
 20
616.9242601952
 30
0.0
 11
538.7887749247
 21
616.9242601952
 31
0.0
  0
LINE
  5
115
330
1F
100
AcDbEntity
  8
SLD-0
  6
SLD-実線
 62
     7
370
    18
100
AcDbLine
 10
547.2887747649
 20
616.9242601952
 30
0.0
 11
547.2887747649
 21
618.9242601576
 31
0.0
  0
LINE
  5
116
330
1F
100
AcDbEntity
  8
SLD-0
  6
SLD-実線
 62
     7
370
    18
100
AcDbLine
 10
547.0387747696
 20
610.924260308
 30
0.0
 11
547.0387747696
 21
611.9242602892
 31
0.0
  0
LINE
  5
117
330
1F
100
AcDbEntity
  8
SLD-0
  6
SLD-実線
 62
     7
370
    18
100
AcDbLine
 10
538.7887749247
 20
399.0242642918
 30
0.0
 11
585.2887740505
 21
399.0242642918
 31
0.0
  0
LINE
  5
118
330
1F
100
AcDbEntity
  8
SLD-0
  6
SLD-実線
 62
     7
370
    18
100
AcDbLine
 10
530.2887750845
 20
610.924260308
 30
0.0
 11
538.7887749247
 21
610.924260308
 31
0.0
  0
LINE
  5
119
330
1F
100
AcDbEntity
  8
SLD-0
  6
SLD-実線
 62
     7
370
    18
100
AcDbLine
 10
538.7887749247
 20
387.0242645174
 30
0.0
 11
599.2887737873
 21
387.0242645174
 31
0.0
  0
LINE
  5
11A
330
1F
100
AcDbEntity
  8
SLD-0
  6
SLD-実線
 62
     7
370
    18
100
AcDbLine
 10
480.7887760151
 20
669.9242591988
 30
0.0
 11
477.7887760715
 21
669.9242591988
 31
0.0
  0
LINE
  5
11B
330
1F
100
AcDbEntity
  8
SLD-0
  6
SLD-実線
 62
     7
370
    18
100
AcDbLine
 10
538.7887749247
 20
669.9242591988
 30
0.0
 11
608.6960872485
 21
669.9242591988
 31
0.0
  0
LINE
  5
11C
330
1F
100
AcDbEntity
  8
SLD-0
  6
SLD-実線
 62
     7
370
    18
100
AcDbLine
 10
599.7887737779
 20
669.9242591988
 30
0.0
 11
599.7887737779
 21
629.9242599508
 31
0.0
  0
LINE
  5
11D
330
1F
100
AcDbEntity
  8
SLD-0
  6
SLD-実線
 62
     7
370
    18
100
AcDbLine
 10
596.2796858373
 20
770.9242573412
 30
0.0
 11
596.3675676554
 21
767.7019483096
 31
0.0
  0
LINE
  5
11E
330
1F
100
AcDbEntity
  8
SLD-0
  6
SLD-実線
 62
     7
370
    18
100
AcDbLine
 10
593.6462602565
 20
770.3348118571
 30
0.0
 11
593.6462602565
 21
770.9242573
 31
0.0
  0
LINE
  5
11F
330
1F
100
AcDbEntity
  8
SLD-0
  6
SLD-実線
 62
     7
370
    18
100
AcDbLine
 10
591.0591193983
 20
770.9242573
 30
0.0
 11
591.0591193983
 21
767.7607619049
 31
0.0
  0
LINE
  5
120
330
1F
100
AcDbEntity
  8
SLD-0
  6
SLD-実線
 62
     7
370
    18
100
AcDbLine
 10
588.7699421682
 20
770.2913664017
 30
0.0
 11
588.7699421682
 21
770.9242573
 31
0.0
  0
LINE
  5
121
330
1F
100
AcDbEntity
  8
SLD-0
  6
SLD-実線
 62
     7
370
    18
100
AcDbLine
 10
594.0266450762
 20
769.5499065812
 30
0.0
 11
597.5366768293
 21
766.7790293594
 31
0.0
  0
LINE
  5
122
330
1F
100
AcDbEntity
  8
SLD-0
  6
SLD-実線
 62
     7
370
    18
100
AcDbLine
 10
592.1378381721
 20
766.7761712848
 30
0.0
 11
589.0957927754
 21
769.5527712333
 31
0.0
  0
LINE
  5
123
330
1F
100
AcDbEntity
  8
SLD-0
  6
SLD-実線
 62
     7
370
    18
100
AcDbLine
 10
598.2887750204
 20
769.6355807512
 30
0.0
 11
602.3046931278
 21
767.3169898867
 31
0.0
  0
LINE
  5
124
330
1F
100
AcDbEntity
  8
SLD-0
  6
SLD-実線
 62
     7
370
    18
100
AcDbLine
 10
514.3214708394
 20
692.9067178566
 30
0.0
 11
514.3214708394
 21
678.9242590296
 31
0.0
  0
LINE
  5
125
330
1F
100
AcDbEntity
  8
SLD-0
  6
SLD-実線
 62
     7
370
    18
100
AcDbLine
 10
517.9030571357
 20
692.9067178566
 30
0.0
 11
517.9030571357
 21
678.9242590296
 31
0.0
  0
LINE
  5
126
330
1F
100
AcDbEntity
  8
SLD-0
  6
SLD-破線
 62
     7
370
    18
100
AcDbLine
 10
521.7887752443
 20
419.0242639158
 30
0.0
 11
521.7887752443
 21
420.024263897
 31
0.0
  0
LINE
  5
127
330
1F
100
AcDbEntity
  8
SLD-0
  6
SLD-破線
 62
     7
370
    18
100
AcDbLine
 10
555.7887746051
 20
419.0242639158
 30
0.0
 11
555.7887746051
 21
420.024263897
 31
0.0
  0
LINE
  5
128
330
1F
100
AcDbEntity
  8
SLD-0
  6
SLD-1点鎖線(中心線)
 62
     7
370
    18
100
AcDbLine
 10
530.3210705394
 20
639.9242597628
 30
0.0
 11
548.2136656584
 21
639.9242597628
 31
0.0
  0
LINE
  5
129
330
1F
100
AcDbEntity
  8
SLD-0
  6
SLD-1点鎖線(中心線)
 62
     7
370
    18
100
AcDbLine
 10
534.4986568248
 20
35.4651438524
 30
0.0
 11
534.4986568248
 21
232.0484401567
 31
0.0
  0
LINE
  5
12A
330
1F
100
AcDbEntity
  8
SLD-0
  6
SLD-1点鎖線(中心線)
 62
     7
370
    18
100
AcDbLine
 10
515.9676117178
 20
200.0185225784
 30
0.0
 11
552.3163246717
 21
200.0185225784
 31
0.0
  0
LINE
  5
12B
330
1F
100
AcDbEntity
  8
SLD-0
  6
SLD-実線
 62
     7
370
    18
100
AcDbLine
 10
499.2986574865
 20
192.7185227156
 30
0.0
 11
499.2986574865
 21
221.2326903608
 31
0.0
  0
LINE
  5
12C
330
1F
100
AcDbEntity
  8
SLD-0
  6
SLD-実線
 62
     7
370
    18
100
AcDbLine
 10
501.4986574452
 20
223.4326903194
 30
0.0
 11
534.4986568248
 21
223.4326903194
 31
0.0
  0
LINE
  5
12D
330
1F
100
AcDbEntity
  8
SLD-0
  6
SLD-実線
 62
     7
370
    18
100
AcDbLine
 10
534.4986568248
 20
225.382372102
 30
0.0
 11
511.9986572478
 21
225.382372102
 31
0.0
  0
LINE
  5
12E
330
1F
100
AcDbEntity
  8
SLD-0
  6
SLD-実線
 62
     7
370
    18
100
AcDbLine
 10
508.7986573079
 20
218.5469813202
 30
0.0
 11
508.7986573079
 21
187.882372807
 31
0.0
  0
LINE
  5
12F
330
1F
100
AcDbEntity
  8
SLD-0
  6
SLD-実線
 62
     7
370
    18
100
AcDbLine
 10
508.7986573079
 20
218.5469813202
 30
0.0
 11
534.4986568248
 21
218.5469813202
 31
0.0
  0
LINE
  5
130
330
1F
100
AcDbEntity
  8
SLD-0
  6
SLD-実線
 62
     7
370
    18
100
AcDbLine
 10
569.698656163
 20
192.7185227156
 30
0.0
 11
569.698656163
 21
221.2326903608
 31
0.0
  0
LINE
  5
131
330
1F
100
AcDbEntity
  8
SLD-0
  6
SLD-実線
 62
     7
370
    18
100
AcDbLine
 10
567.4986562044
 20
223.4326903194
 30
0.0
 11
534.4986568248
 21
223.4326903194
 31
0.0
  0
LINE
  5
132
330
1F
100
AcDbEntity
  8
SLD-0
  6
SLD-実線
 62
     7
370
    18
100
AcDbLine
 10
534.4986568248
 20
225.382372102
 30
0.0
 11
556.9986564018
 21
225.382372102
 31
0.0
  0
LINE
  5
133
330
1F
100
AcDbEntity
  8
SLD-0
  6
SLD-実線
 62
     7
370
    18
100
AcDbLine
 10
560.1986563416
 20
218.5469813202
 30
0.0
 11
560.1986563416
 21
187.882372807
 31
0.0
  0
LINE
  5
134
330
1F
100
AcDbEntity
  8
SLD-0
  6
SLD-実線
 62
     7
370
    18
100
AcDbLine
 10
560.1986563416
 20
218.5469813202
 30
0.0
 11
534.4986568248
 21
218.5469813202
 31
0.0
  0
LINE
  5
135
330
1F
100
AcDbEntity
  8
SLD-0
  6
SLD-1点鎖線(中心線)
 62
     7
370
    18
100
AcDbLine
 10
515.4164980931
 20
782.5282843536
 30
0.0
 11
508.5392164019
 21
782.5282843536
 31
0.0
  0
LINE
  5
136
330
1F
100
AcDbEntity
  8
SLD-0
  6
SLD-1点鎖線(中心線)
 62
     7
370
    18
100
AcDbLine
 10
511.7887754323
 20
778.5948026092
 30
0.0
 11
511.7887754323
 21
786.2351115576
 31
0.0
  0
LINE
  5
137
330
1F
100
AcDbEntity
  8
SLD-0
  6
SLD-実線
 62
     7
370
    18
100
AcDbLine
 10
514.2887753853
 20
708.1242584807
 30
0.0
 11
514.2887753853
 21
775.1790526741
 31
0.0
  0
LINE
  5
138
330
1F
100
AcDbEntity
  8
SLD-0
  6
SLD-実線
 62
     7
370
    18
100
AcDbLine
 10
558.2887745581
 20
780.1790525801
 30
0.0
 11
519.2887752913
 21
780.1790525801
 31
0.0
  0
LINE
  5
139
330
1F
100
AcDbEntity
  8
SLD-0
  6
SLD-1点鎖線(中心線)
 62
     7
370
    18
100
AcDbLine
 10
569.4164970779
 20
782.5282843536
 30
0.0
 11
562.5392153867
 21
782.5282843536
 31
0.0
  0
LINE
  5
13A
330
1F
100
AcDbEntity
  8
SLD-0
  6
SLD-1点鎖線(中心線)
 62
     7
370
    18
100
AcDbLine
 10
565.7887744171
 20
778.5948026092
 30
0.0
 11
565.7887744171
 21
786.2351115576
 31
0.0
  0
LINE
  5
13B
330
1F
100
AcDbEntity
  8
SLD-0
  6
SLD-実線
 62
     7
370
    18
100
AcDbLine
 10
563.2887744641
 20
708.1242584807
 30
0.0
 11
563.2887744641
 21
775.1790526741
 31
0.0
  0
LINE
  5
13C
330
1F
100
AcDbEntity
  8
SLD-0
  6
SLD-実線
 62
     7
370
    18
100
AcDbLine
 10
519.2887752913
 20
703.1242585747
 30
0.0
 11
558.2887745581
 21
703.1242585747
 31
0.0
  0
LINE
  5
13D
330
1F
100
AcDbEntity
  8
SLD-0
  6
SLD-1点鎖線(中心線)
 62
     7
370
    18
100
AcDbLine
 10
511.7887754323
 20
696.3716996109
 30
0.0
 11
511.7887754323
 21
704.0120085569
 31
0.0
  0
LINE
  5
13E
330
1F
100
AcDbEntity
  8
SLD-0
  6
SLD-1点鎖線(中心線)
 62
     7
370
    18
100
AcDbLine
 10
515.4164980931
 20
700.3051813553
 30
0.0
 11
508.5392164019
 21
700.3051813553
 31
0.0
  0
LINE
  5
13F
330
1F
100
AcDbEntity
  8
SLD-0
  6
SLD-1点鎖線(中心線)
 62
     7
370
    18
100
AcDbLine
 10
565.7887744171
 20
696.3716996109
 30
0.0
 11
565.7887744171
 21
704.0120085569
 31
0.0
  0
LINE
  5
140
330
1F
100
AcDbEntity
  8
SLD-0
  6
SLD-1点鎖線(中心線)
 62
     7
370
    18
100
AcDbLine
 10
569.4164970779
 20
700.3051813553
 30
0.0
 11
562.5392153867
 21
700.3051813553
 31
0.0
  0
LINE
  5
141
330
1F
100
AcDbEntity
  8
SLD-0
  6
SLD-実線
 62
     7
370
    18
100
AcDbLine
 10
538.7887763219
 20
792.924255491
 30
0.0
 11
509.7887768671
 21
792.924255491
 31
0.0
  0
LINE
  5
142
330
1F
100
AcDbEntity
  8
SLD-0
  6
SLD-実線
 62
     7
370
    18
100
AcDbLine
 10
508.7887768859
 20
791.8529191475
 30
0.0
 11
508.7887768859
 21
791.9242555098
 31
0.0
  0
LINE
  5
143
330
1F
100
AcDbEntity
  8
SLD-0
  6
SLD-実線
 62
     7
370
    18
100
AcDbLine
 10
538.7887749247
 20
790.924256924
 30
0.0
 11
508.1596936837
 21
790.924256924
 31
0.0
  0
LINE
  5
144
330
1F
100
AcDbEntity
  8
SLD-0
  6
SLD-実線
 62
     7
370
    18
100
AcDbLine
 10
483.5910228132
 20
789.0577555638
 30
0.0
 11
507.8626485929
 21
790.8556514117
 31
0.0
  0
LINE
  5
145
330
1F
100
AcDbEntity
  8
SLD-0
  6
SLD-実線
 62
     7
370
    18
100
AcDbLine
 10
479.7887756488
 20
770.5016075594
 30
0.0
 11
479.7887756488
 21
776.9242574395
 31
0.0
  0
LINE
  5
146
330
1F
100
AcDbEntity
  8
SLD-0
  6
SLD-実線
 62
     7
370
    18
100
AcDbLine
 10
481.7395077086
 20
787.1177433999
 30
0.0
 11
479.1850577553
 21
693.4546042521
 31
0.0
  0
LINE
  5
147
330
1F
100
AcDbEntity
  8
SLD-0
  6
SLD-実線
 62
     7
370
    18
100
AcDbLine
 10
593.9865298305
 20
789.0577555637
 30
0.0
 11
569.7149040533
 21
790.8556514116
 31
0.0
  0
LINE
  5
148
330
1F
100
AcDbEntity
  8
SLD-0
  6
SLD-実線
 62
     7
370
    18
100
AcDbLine
 10
568.7887757579
 20
791.8529191475
 30
0.0
 11
568.7887757579
 21
791.9242555098
 31
0.0
  0
LINE
  5
149
330
1F
100
AcDbEntity
  8
SLD-0
  6
SLD-実線
 62
     7
370
    18
100
AcDbLine
 10
538.7887749247
 20
790.924256924
 30
0.0
 11
569.4178561684
 21
790.924256924
 31
0.0
  0
LINE
  5
14A
330
1F
100
AcDbEntity
  8
SLD-0
  6
SLD-実線
 62
     7
370
    18
100
AcDbLine
 10
538.7887763219
 20
792.924255491
 30
0.0
 11
567.7887757767
 21
792.924255491
 31
0.0
  0
LINE
  5
14B
330
1F
100
AcDbEntity
  8
SLD-0
  6
SLD-実線
 62
     7
370
    18
100
AcDbLine
 10
591.0591193983
 20
778.905502605
 30
0.0
 11
591.6462602941
 21
778.905502605
 31
0.0
  0
LINE
  5
14C
330
1F
100
AcDbEntity
  8
SLD-0
  6
SLD-実線
 62
     7
370
    18
100
AcDbLine
 10
593.6462602565
 20
770.3348118571
 30
0.0
 11
593.6462602565
 21
776.9055026426
 31
0.0
  0
LINE
  5
14D
330
1F
100
AcDbEntity
  8
SLD-0
  6
SLD-実線
 62
     7
370
    18
100
AcDbLine
 10
591.0591193983
 20
778.905502605
 30
0.0
 11
591.0591193983
 21
767.7607619049
 31
0.0
  0
LINE
  5
14E
330
1F
100
AcDbEntity
  8
SLD-0
  6
SLD-実線
 62
     7
370
    18
100
AcDbLine
 10
597.7887738155
 20
770.5016073071
 30
0.0
 11
597.7887738155
 21
776.9242571872
 31
0.0
  0
LINE
  5
14F
330
1F
100
AcDbEntity
  8
SLD-0
  6
SLD-実線
 62
     7
370
    18
100
AcDbLine
 10
595.8380449375
 20
787.1177433997
 30
0.0
 11
596.3675676554
 21
767.7019483096
 31
0.0
  0
LINE
  5
150
330
1F
100
AcDbEntity
  8
SLD-0
  6
SLD-実線
 62
     7
370
    18
100
AcDbLine
 10
588.7699421682
 20
770.2913664017
 30
0.0
 11
588.7699421682
 21
776.9055026426
 31
0.0
  0
LINE
  5
151
330
1F
100
AcDbEntity
  8
SLD-0
  6
SLD-実線
 62
     7
370
    18
100
AcDbLine
 10
586.7699422058
 20
778.905502605
 30
0.0
 11
586.0410013091
 21
778.905502605
 31
0.0
  0
LINE
  5
152
330
1F
100
AcDbEntity
  8
SLD-0
  6
SLD-実線
 62
     7
370
    18
100
AcDbLine
 10
586.0410013091
 20
778.905502605
 30
0.0
 11
586.0410013091
 21
678.9242590296
 31
0.0
  0
LINE
  5
153
330
1F
100
AcDbEntity
  8
SLD-0
  6
SLD-実線
 62
     7
370
    18
100
AcDbLine
 10
479.2887744439
 20
769.6355810034
 30
0.0
 11
475.2728563391
 21
767.316990139
 31
0.0
  0
LINE
  5
154
330
1F
100
AcDbEntity
  8
SLD-0
  6
SLD-実線
 62
     7
370
    18
100
AcDbLine
 10
592.1378381721
 20
766.7761712848
 30
0.0
 11
589.0957927754
 21
769.5527712333
 31
0.0
  0
LINE
  5
155
330
1F
100
AcDbEntity
  8
SLD-0
  6
SLD-実線
 62
     7
370
    18
100
AcDbLine
 10
594.0266450762
 20
769.5499065812
 30
0.0
 11
597.5366768293
 21
766.7790293594
 31
0.0
  0
LINE
  5
156
330
1F
100
AcDbEntity
  8
SLD-0
  6
SLD-実線
 62
     7
370
    18
100
AcDbLine
 10
598.2887750204
 20
769.6355807512
 30
0.0
 11
602.3046931278
 21
767.3169898867
 31
0.0
  0
ARC
  5
157
330
1F
100
AcDbEntity
  8
1
  6
SLD-実線
 62
     7
370
    18
100
AcDbCircle
 10
513.2887754041
 20
780.6965934805
 30
0.0
 40
9.699999817640048
100
AcDbArc
 50
90.0
 51
180.0
  0
ARC
  5
158
330
1F
100
AcDbEntity
  8
1
  6
SLD-実線
 62
     7
370
    18
100
AcDbCircle
 10
564.2887744453
 20
780.6965934805
 30
0.0
 40
9.699999817639991
100
AcDbArc
 50
0.0
 51
90.0
  0
ARC
  5
159
330
1F
100
AcDbEntity
  8
1
  6
SLD-実線
 62
     7
370
    18
100
AcDbCircle
 10
513.2887754041
 20
702.6067176743
 30
0.0
 40
9.699999817640048
100
AcDbArc
 50
180.0
 51
270.0
  0
ARC
  5
15A
330
1F
100
AcDbEntity
  8
1
  6
SLD-実線
 62
     7
370
    18
100
AcDbCircle
 10
564.2887744453
 20
702.6067176743
 30
0.0
 40
9.699999817639991
100
AcDbArc
 50
270.0
 51
0.0
  0
ARC
  5
15B
330
1F
100
AcDbEntity
  8
SLD-0
  6
SLD-実線
 62
     7
370
    18
100
AcDbCircle
 10
596.917062616
 20
765.9941240852
 30
0.0
 40
0.9999990314424849
100
AcDbArc
 50
0.0
 51
51.711988432
  0
ARC
  5
15C
330
1F
100
AcDbEntity
  8
SLD-0
  6
SLD-実線
 62
     7
370
    18
100
AcDbCircle
 10
594.646259289
 20
770.3348118571
 30
0.0
 40
0.9999990324392911
100
AcDbArc
 50
180.0
 51
231.7119885222
  0
ARC
  5
15D
330
1F
100
AcDbEntity
  8
SLD-0
  6
SLD-実線
 62
     7
370
    18
100
AcDbCircle
 10
591.4636930769
 20
766.037571678
 30
0.0
 40
1.00000049432288
100
AcDbArc
 50
0.0
 51
47.6122287723
  0
ARC
  5
15E
330
1F
100
AcDbEntity
  8
SLD-0
  6
SLD-実線
 62
     7
370
    18
100
AcDbCircle
 10
589.769942516
 20
770.2913664017
 30
0.0
 40
1.000000347808873
100
AcDbArc
 50
180.0
 51
227.6118607513
  0
ARC
  5
15F
330
1F
100
AcDbEntity
  8
SLD-0
  6
SLD-実線
 62
     7
370
    18
100
AcDbCircle
 10
598.7887746063
 20
770.5016073071
 30
0.0
 40
1.000000790724926
100
AcDbArc
 50
180.0
 51
240.0000535576
  0
ARC
  5
160
330
1F
100
AcDbEntity
  8
SLD-0
  6
SLD-実線
 62
     7
370
    18
100
AcDbCircle
 10
604.2726016021
 20
677.6676951137
 30
0.0
 40
0.9999988217287735
100
AcDbArc
 50
300.000076693
 51
1.5922400352
  0
ARC
  5
161
330
1F
100
AcDbEntity
  8
SLD-0
  6
SLD-実線
 62
     7
370
    18
100
AcDbCircle
 10
601.8046925577
 20
766.4509661726
 30
0.0
 40
0.9999988217290842
100
AcDbArc
 50
1.5922400352
 51
59.999923307
  0
ARC
  5
162
330
1F
100
AcDbEntity
  8
SLD-0
  6
SLD-実線
 62
     7
370
    18
100
AcDbCircle
 10
478.7887748581
 20
770.5016075594
 30
0.0
 40
1.000000790724851
100
AcDbArc
 50
299.9999464424
 51
0.0
  0
ARC
  5
163
330
1F
100
AcDbEntity
  8
SLD-0
  6
SLD-実線
 62
     7
370
    18
100
AcDbCircle
 10
475.772856863
 20
766.4509665049
 30
0.0
 40
0.9999987293380882
100
AcDbArc
 50
120.000076693
 51
178.4077532647
  0
ARC
  5
164
330
1F
100
AcDbEntity
  8
SLD-0
  6
SLD-実線
 62
     7
370
    18
100
AcDbCircle
 10
477.7697606805
 20
681.1608498955
 30
0.0
 40
1.999998206148417
100
AcDbArc
 50
138.2158537894
 51
180.0
  0
ARC
  5
165
330
1F
100
AcDbEntity
  8
SLD-0
  6
SLD-実線
 62
     7
370
    18
100
AcDbCircle
 10
470.8814625038
 20
681.1608498955
 30
0.0
 40
1.999999900312389
100
AcDbArc
 50
138.2159405302
 51
180.0
  0
ARC
  5
166
330
1F
100
AcDbEntity
  8
SLD-0
  6
SLD-実線
 62
     7
370
    18
100
AcDbCircle
 10
534.4986568248
 20
116.6973605088
 30
0.0
 40
29.4999994454001
100
AcDbArc
 50
159.755652
 51
40.279667
  0
ARC
  5
167
330
1F
100
AcDbEntity
  8
SLD-0
  6
SLD-実線
 62
     7
370
    18
100
AcDbCircle
 10
534.4986568332
 20
117.8823741308
 30
0.0
 40
42.4999992010001
100
AcDbArc
 50
155.967734
 51
40.633466
  0
ARC
  5
168
330
1F
100
AcDbEntity
  8
SLD-0
  6
SLD-実線
 62
     7
370
    18
100
AcDbCircle
 10
606.6960872861
 20
658.9242594056
 30
0.0
 40
1.999999962400011
100
AcDbArc
 50
270.0
 51
0.0
  0
ARC
  5
169
330
1F
100
AcDbEntity
  8
SLD-0
  6
SLD-実線
 62
     7
370
    18
100
AcDbCircle
 10
470.8814625659
 20
658.9242594056
 30
0.0
 40
1.999999962400011
100
AcDbArc
 50
180.0
 51
270.0
  0
CIRCLE
  5
16A
330
1F
100
AcDbEntity
  8
SLD-0
  6
SLD-実線
 62
     7
370
    18
100
AcDbCircle
 10
534.4986568332
 20
117.8823741308
 30
0.0
 40
12.49999975653262
  0
CIRCLE
  5
16B
330
1F
100
AcDbEntity
  8
SLD-0
  6
SLD-実線
 62
     7
370
    18
100
AcDbCircle
 10
517.5411025967
 20
173.3480503517
 30
0.0
 40
2.749999948300115
  0
CIRCLE
  5
16C
330
1F
100
AcDbEntity
  8
SLD-0
  6
SLD-実線
 62
     7
370
    18
100
AcDbCircle
 10
479.0329851401
 20
100.9248153509
 30
0.0
 40
2.749999948300058
  0
CIRCLE
  5
16D
330
1F
100
AcDbEntity
  8
SLD-0
  6
SLD-実線
 62
     7
370
    18
100
AcDbCircle
 10
551.4562155969
 20
62.4166978918
 30
0.0
 40
2.749999948300001
  0
CIRCLE
  5
16E
330
1F
100
AcDbEntity
  8
SLD-0
  6
SLD-実線
 62
     7
370
    18
100
AcDbCircle
 10
589.9643330535
 20
134.8399328952
 30
0.0
 40
2.749999948300001
  0
ARC
  5
16F
330
1F
100
AcDbEntity
  8
SLD-0
  6
SLD-1点鎖線(中心線)
 62
     7
370
    18
100
AcDbCircle
 10
534.4986568332
 20
117.8823741308
 30
0.0
 40
57.99999890959995
100
AcDbArc
 50
191.193536
 51
201.097383
  0
ARC
  5
170
330
1F
100
AcDbEntity
  8
SLD-0
  6
SLD-1点鎖線(中心線)
 62
     7
370
    18
100
AcDbCircle
 10
534.4986568332
 20
117.8823741308
 30
0.0
 40
57.99999890959992
100
AcDbArc
 50
282.964176
 51
292.076148
  0
ARC
  5
171
330
1F
100
AcDbEntity
  8
SLD-0
  6
SLD-1点鎖線(中心線)
 62
     7
370
    18
100
AcDbCircle
 10
534.4986568332
 20
117.8823741308
 30
0.0
 40
57.99999890960017
100
AcDbArc
 50
12.473302
 51
23.024259
  0
ARC
  5
172
330
1F
100
AcDbEntity
  8
SLD-0
  6
SLD-1点鎖線(中心線)
 62
     7
370
    18
100
AcDbCircle
 10
534.4986568332
 20
117.8823741308
 30
0.0
 40
57.99999890960006
100
AcDbArc
 50
103.804241
 51
110.255042
  0
ARC
  5
173
330
1F
100
AcDbEntity
  8
SLD-0
  6
SLD-1点鎖線(中心線)
 62
     7
370
    18
100
AcDbCircle
 10
534.4986568332
 20
117.8823741308
 30
0.0
 40
84.99999840200012
100
AcDbArc
 50
38.590482
 51
51.361831
  0
ARC
  5
174
330
1F
100
AcDbEntity
  8
SLD-0
  6
SLD-1点鎖線(中心線)
 62
     7
370
    18
100
AcDbCircle
 10
534.4986568332
 20
117.8823741308
 30
0.0
 40
84.9999984020001
100
AcDbArc
 50
217.691821
 51
232.061751
  0
ARC
  5
175
330
1F
100
AcDbEntity
  8
SLD-0
  6
SLD-1点鎖線(中心線)
 62
     7
370
    18
100
AcDbCircle
 10
534.4986568332
 20
117.8823741308
 30
0.0
 40
79.99999849600007
100
AcDbArc
 50
307.209999
 51
325.119526
  0
CIRCLE
  5
176
330
1F
100
AcDbEntity
  8
SLD-0
  6
SLD-実線
 62
     7
370
    18
100
AcDbCircle
 10
534.4986568332
 20
117.8823741308
 30
0.0
 40
62.4999988165326
  0
CIRCLE
  5
177
330
1F
100
AcDbEntity
  8
SLD-0
  6
SLD-実線
 62
     7
370
    18
100
AcDbCircle
 10
594.6027329664
 20
177.9864502646
 30
0.0
 40
4.999999906000085
  0
CIRCLE
  5
178
330
1F
100
AcDbEntity
  8
SLD-0
  6
SLD-実線
 62
     7
370
    18
100
AcDbCircle
 10
474.3945852272
 20
57.7782979789
 30
0.0
 40
4.999999905999971
  0
CIRCLE
  5
179
330
1F
100
AcDbEntity
  8
SLD-0
  6
SLD-実線
 62
     7
370
    18
100
AcDbCircle
 10
591.067201216
 20
61.3138342758
 30
0.0
 40
4.999999906000085
  0
CIRCLE
  5
17A
330
1F
100
AcDbEntity
  8
SLD-0
  6
SLD-実線
 62
     7
370
    18
100
AcDbCircle
 10
477.9301169776
 20
174.4509139677
 30
0.0
 40
4.999999906000198
  0
ARC
  5
17B
330
1F
100
AcDbEntity
  8
SLD-0
  6
SLD-1点鎖線(中心線)
 62
     7
370
    18
100
AcDbCircle
 10
534.4986568332
 20
117.8823741308
 30
0.0
 40
79.999998496
100
AcDbArc
 50
125.562086
 51
141.908698
  0
ARC
  5
17C
330
1F
100
AcDbEntity
  8
SLD-0
  6
SLD-実線
 62
     7
370
    18
100
AcDbCircle
 10
534.4986568332
 20
117.8823741308
 30
0.0
 40
94.99999848755037
100
AcDbArc
 50
312.5368978336
 51
317.4631018122
  0
ARC
  5
17D
330
1F
100
AcDbEntity
  8
SLD-0
  6
SLD-実線
 62
     7
370
    18
100
AcDbCircle
 10
534.4986568332
 20
117.8823741308
 30
0.0
 40
94.99999822527566
100
AcDbArc
 50
222.5368980003
 51
227.4631036587
  0
ARC
  5
17E
330
1F
100
AcDbEntity
  8
SLD-0
  6
SLD-実線
 62
     7
370
    18
100
AcDbCircle
 10
534.4986568332
 20
117.8823741308
 30
0.0
 40
94.99999821477113
100
AcDbArc
 50
132.5368966738
 51
137.4631020066
  0
ARC
  5
17F
330
1F
100
AcDbEntity
  8
SLD-0
  6
SLD-実線
 62
     7
370
    18
100
AcDbCircle
 10
534.4986568332
 20
117.8823741308
 30
0.0
 40
94.99999792582308
100
AcDbArc
 50
42.5368978186
 51
47.463101834
  0
ARC
  5
180
330
1F
100
AcDbEntity
  8
SLD-0
  6
SLD-実線
 62
     7
370
    18
100
AcDbCircle
 10
451.4986583852
 20
99.8823744614
 30
0.0
 40
1.999999962400011
100
AcDbArc
 50
180.0
 51
270.0
  0
ARC
  5
181
330
1F
100
AcDbEntity
  8
SLD-0
  6
SLD-実線
 62
     7
370
    18
100
AcDbCircle
 10
451.4986583852
 20
135.8823737846
 30
0.0
 40
1.99999996240004
100
AcDbArc
 50
90.0
 51
180.0
  0
ARC
  5
182
330
1F
100
AcDbEntity
  8
SLD-0
  6
SLD-実線
 62
     7
370
    18
100
AcDbCircle
 10
484.2887759493
 20
391.0242644422
 30
0.0
 40
7.999999849600101
100
AcDbArc
 50
90.0
 51
180.0
  0
ARC
  5
183
330
1F
100
AcDbEntity
  8
SLD-0
  6
SLD-実線
 62
     7
370
    18
100
AcDbCircle
 10
478.2887760621
 20
385.024264555
 30
0.0
 40
1.999999962400011
100
AcDbArc
 50
90.0
 51
180.0
  0
ARC
  5
184
330
1F
100
AcDbEntity
  8
SLD-0
  6
SLD-実線
 62
     7
370
    18
100
AcDbCircle
 10
490.2887758365
 20
404.0242641978
 30
0.0
 40
4.999999906000085
100
AcDbArc
 50
270.0
 51
0.0
  0
ARC
  5
185
330
1F
100
AcDbEntity
  8
SLD-0
  6
SLD-実線
 62
     7
370
    18
100
AcDbCircle
 10
509.7887754699
 20
400.024264273
 30
0.0
 40
0.9999999812000055
100
AcDbArc
 50
180.0
 51
270.0
  0
ARC
  5
186
330
1F
100
AcDbEntity
  8
SLD-0
  6
SLD-実線
 62
     7
370
    18
100
AcDbCircle
 10
508.2887754981
 20
404.0242641978
 30
0.0
 40
4.999999906000255
100
AcDbArc
 50
180.0
 51
270.0
  0
ARC
  5
187
330
1F
100
AcDbEntity
  8
SLD-0
  6
SLD-実線
 62
     7
370
    18
100
AcDbCircle
 10
514.2887753853
 20
400.024264273
 30
0.0
 40
0.9999999812000055
100
AcDbArc
 50
270.0
 51
0.0
  0
ARC
  5
188
330
1F
100
AcDbEntity
  8
SLD-0
  6
SLD-実線
 62
     7
370
    18
100
AcDbCircle
 10
520.7887752631
 20
417.0242639534
 30
0.0
 40
0.9999999812000624
100
AcDbArc
 50
270.0
 51
0.0
  0
ARC
  5
189
330
1F
100
AcDbEntity
  8
SLD-0
  6
SLD-実線
 62
     7
370
    18
100
AcDbCircle
 10
513.7887753947
 20
411.0242640662
 30
0.0
 40
4.999999906000028
100
AcDbArc
 50
90.0
 51
180.0
  0
ARC
  5
18A
330
1F
100
AcDbEntity
  8
SLD-0
  6
SLD-実線
 62
     7
370
    18
100
AcDbCircle
 10
475.2887761185
 20
617.9242601764
 30
0.0
 40
0.9999999812000624
100
AcDbArc
 50
0.0
 51
90.0
  0
ARC
  5
18B
330
1F
100
AcDbEntity
  8
SLD-0
  6
SLD-実線
 62
     7
370
    18
100
AcDbCircle
 10
490.2887758365
 20
613.9242602516
 30
0.0
 40
4.999999906000085
100
AcDbArc
 50
0.0
 51
90.0
  0
ARC
  5
18C
330
1F
100
AcDbEntity
  8
SLD-0
  6
SLD-実線
 62
     7
370
    18
100
AcDbCircle
 10
508.2887754981
 20
613.9242602516
 30
0.0
 40
4.999999906000198
100
AcDbArc
 50
90.0
 51
180.0
  0
ARC
  5
18D
330
1F
100
AcDbEntity
  8
SLD-0
  6
SLD-実線
 62
     7
370
    18
100
AcDbCircle
 10
596.2887738437
 20
390.024264461
 30
0.0
 40
2.999999943600073
100
AcDbArc
 50
180.0
 51
270.0
  0
ARC
  5
18E
330
1F
100
AcDbEntity
  8
SLD-0
  6
SLD-実線
 62
     7
370
    18
100
AcDbCircle
 10
585.2887740505
 20
391.0242644422
 30
0.0
 40
7.999999849599988
100
AcDbArc
 50
0.0
 51
90.0
  0
ARC
  5
18F
330
1F
100
AcDbEntity
  8
SLD-0
  6
SLD-実線
 62
     7
370
    18
100
AcDbCircle
 10
601.2887735633
 20
391.7324688333
 30
0.0
 40
4.999999906000085
100
AcDbArc
 50
180.0
 51
253.39845
  0
ARC
  5
190
330
1F
100
AcDbEntity
  8
SLD-0
  6
SLD-実線
 62
     7
370
    18
100
AcDbCircle
 10
599.2887736412
 20
385.024264555
 30
0.0
 40
2.000000403187895
100
AcDbArc
 50
0.0
 51
73.3984563731
  0
ARC
  5
191
330
1F
100
AcDbEntity
  8
SLD-0
  6
SLD-実線
 62
     7
370
    18
100
AcDbCircle
 10
587.2887740129
 20
404.0242641978
 30
0.0
 40
4.999999906000085
100
AcDbArc
 50
180.0
 51
270.0
  0
ARC
  5
192
330
1F
100
AcDbEntity
  8
SLD-0
  6
SLD-実線
 62
     7
370
    18
100
AcDbCircle
 10
569.2887743513
 20
404.0242641978
 30
0.0
 40
4.999999906000085
100
AcDbArc
 50
270.0
 51
0.0
  0
ARC
  5
193
330
1F
100
AcDbEntity
  8
SLD-0
  6
SLD-実線
 62
     7
370
    18
100
AcDbCircle
 10
601.2887735633
 20
613.9242601105
 30
0.0
 40
4.999999905999971
100
AcDbArc
 50
90.0
 51
180.0
  0
ARC
  5
194
330
1F
100
AcDbEntity
  8
SLD-0
  6
SLD-実線
 62
     7
370
    18
100
AcDbCircle
 10
587.2887740129
 20
613.9242602516
 30
0.0
 40
4.999999906000085
100
AcDbArc
 50
90.0
 51
180.0
  0
ARC
  5
195
330
1F
100
AcDbEntity
  8
SLD-0
  6
SLD-実線
 62
     7
370
    18
100
AcDbCircle
 10
569.2887743513
 20
613.9242602516
 30
0.0
 40
4.999999906000085
100
AcDbArc
 50
0.0
 51
90.0
  0
ARC
  5
196
330
1F
100
AcDbEntity
  8
SLD-0
  6
SLD-実線
 62
     7
370
    18
100
AcDbCircle
 10
455.7887764851
 20
628.9242599696
 30
0.0
 40
1.999999962399954
100
AcDbArc
 50
180.0
 51
270.0
  0
ARC
  5
197
330
1F
100
AcDbEntity
  8
SLD-0
  6
SLD-実線
 62
     7
370
    18
100
AcDbCircle
 10
455.7887764851
 20
664.9242592928
 30
0.0
 40
1.999999962400011
100
AcDbArc
 50
90.0
 51
180.0
  0
ARC
  5
198
330
1F
100
AcDbEntity
  8
SLD-0
  6
SLD-実線
 62
     7
370
    18
100
AcDbCircle
 10
563.2887744641
 20
400.024264273
 30
0.0
 40
0.9999999812000055
100
AcDbArc
 50
180.0
 51
270.0
  0
ARC
  5
199
330
1F
100
AcDbEntity
  8
SLD-0
  6
SLD-実線
 62
     7
370
    18
100
AcDbCircle
 10
556.7887745863
 20
417.0242639534
 30
0.0
 40
0.9999999811999487
100
AcDbArc
 50
180.0
 51
270.0
  0
ARC
  5
19A
330
1F
100
AcDbEntity
  8
SLD-0
  6
SLD-実線
 62
     7
370
    18
100
AcDbCircle
 10
563.7887744547
 20
411.0242640662
 30
0.0
 40
4.999999906000028
100
AcDbArc
 50
0.0
 51
90.0
  0
ARC
  5
19B
330
1F
100
AcDbEntity
  8
SLD-0
  6
SLD-実線
 62
     7
370
    18
100
AcDbCircle
 10
567.7887743795
 20
400.024264273
 30
0.0
 40
0.9999999811999487
100
AcDbArc
 50
270.0
 51
0.0
  0
ARC
  5
19C
330
1F
100
AcDbEntity
  8
SLD-0
  6
SLD-実線
 62
     7
370
    18
100
AcDbCircle
 10
594.646259289
 20
770.3348118571
 30
0.0
 40
0.9999990324392911
100
AcDbArc
 50
180.0
 51
231.7119885222
  0
ARC
  5
19D
330
1F
100
AcDbEntity
  8
SLD-0
  6
SLD-実線
 62
     7
370
    18
100
AcDbCircle
 10
589.769942516
 20
770.2913664017
 30
0.0
 40
1.000000347808873
100
AcDbArc
 50
180.0
 51
227.6118607513
  0
ARC
  5
19E
330
1F
100
AcDbEntity
  8
SLD-0
  6
SLD-実線
 62
     7
370
    18
100
AcDbCircle
 10
591.4636930769
 20
766.037571678
 30
0.0
 40
1.00000049432288
100
AcDbArc
 50
0.0
 51
47.6122287723
  0
ARC
  5
19F
330
1F
100
AcDbEntity
  8
SLD-0
  6
SLD-実線
 62
     7
370
    18
100
AcDbCircle
 10
596.917062616
 20
765.9941240852
 30
0.0
 40
0.9999990314424849
100
AcDbArc
 50
0.0
 51
51.711988432
  0
ARC
  5
1A0
330
1F
100
AcDbEntity
  8
SLD-0
  6
SLD-実線
 62
     7
370
    18
100
AcDbCircle
 10
598.7887746063
 20
770.5016073071
 30
0.0
 40
1.000000790724926
100
AcDbArc
 50
180.0
 51
240.0000535576
  0
CIRCLE
  5
1A1
330
1F
100
AcDbEntity
  8
SLD-0
  6
SLD-破線
 62
     7
370
    18
100
AcDbCircle
 10
538.7887749247
 20
639.9242597628
 30
0.0
 40
3.999999924799909
  0
ARC
  5
1A2
330
1F
100
AcDbEntity
  8
SLD-0
  6
SLD-実線
 62
     7
370
    18
100
AcDbCircle
 10
508.9986573042
 20
192.7185227156
 30
0.0
 40
9.699999817639942
100
AcDbArc
 50
180.0
 51
209.90559
  0
ARC
  5
1A3
330
1F
100
AcDbEntity
  8
SLD-0
  6
SLD-実線
 62
     7
370
    18
100
AcDbCircle
 10
559.9986563454
 20
192.7185227156
 30
0.0
 40
9.699999817639991
100
AcDbArc
 50
330.09441
 51
0.0
  0
ARC
  5
1A4
330
1F
100
AcDbEntity
  8
SLD-0
  6
SLD-実線
 62
     7
370
    18
100
AcDbCircle
 10
501.4986574452
 20
221.2326903608
 30
0.0
 40
2.199999958640007
100
AcDbArc
 50
90.0
 51
180.0
  0
ARC
  5
1A5
330
1F
100
AcDbEntity
  8
SLD-0
  6
SLD-実線
 62
     7
370
    18
100
AcDbCircle
 10
511.9986572478
 20
222.1823721622
 30
0.0
 40
3.199999939840012
100
AcDbArc
 50
90.0
 51
157.000387
  0
ARC
  5
1A6
330
1F
100
AcDbEntity
  8
SLD-0
  6
SLD-実線
 62
     7
370
    18
100
AcDbCircle
 10
567.4986562044
 20
221.2326903608
 30
0.0
 40
2.199999958640007
100
AcDbArc
 50
0.0
 51
90.0
  0
ARC
  5
1A7
330
1F
100
AcDbEntity
  8
SLD-0
  6
SLD-実線
 62
     7
370
    18
100
AcDbCircle
 10
556.9986564018
 20
222.1823721622
 30
0.0
 40
3.199999939840102
100
AcDbArc
 50
22.999613
 51
90.0
  0
CIRCLE
  5
1A8
330
1F
100
AcDbEntity
  8
SLD-0
  6
SLD-実線
 62
     7
370
    18
100
AcDbCircle
 10
534.4986568248
 20
200.0185225784
 30
0.0
 40
10.9999997932
  0
ARC
  5
1A9
330
1F
100
AcDbEntity
  8
SLD-0
  6
SLD-実線
 62
     7
370
    18
100
AcDbCircle
 10
519.2887752913
 20
775.1790526741
 30
0.0
 40
4.999999905999971
100
AcDbArc
 50
90.0
 51
180.0
  0
ARC
  5
1AA
330
1F
100
AcDbEntity
  8
SLD-0
  6
SLD-実線
 62
     7
370
    18
100
AcDbCircle
 10
558.2887745581
 20
775.1790526741
 30
0.0
 40
4.999999905999971
100
AcDbArc
 50
0.0
 51
90.0
  0
ARC
  5
1AB
330
1F
100
AcDbEntity
  8
SLD-0
  6
SLD-実線
 62
     7
370
    18
100
AcDbCircle
 10
519.2887752913
 20
708.1242584807
 30
0.0
 40
4.999999906000085
100
AcDbArc
 50
180.0
 51
270.0
  0
ARC
  5
1AC
330
1F
100
AcDbEntity
  8
SLD-0
  6
SLD-実線
 62
     7
370
    18
100
AcDbCircle
 10
558.2887745581
 20
708.1242584807
 30
0.0
 40
4.999999906000085
100
AcDbArc
 50
270.0
 51
0.0
  0
ARC
  5
1AD
330
1F
100
AcDbEntity
  8
SLD-0
  6
SLD-実線
 62
     7
370
    18
100
AcDbCircle
 10
509.7887768671
 20
791.9242555098
 30
0.0
 40
0.9999999812000055
100
AcDbArc
 50
90.0
 51
180.0
  0
ARC
  5
1AE
330
1F
100
AcDbEntity
  8
SLD-0
  6
SLD-実線
 62
     7
370
    18
100
AcDbCircle
 10
507.7887769042
 20
791.8529191475
 30
0.0
 40
0.9999999816235172
100
AcDbArc
 50
274.2363950571
 51
0.0
  0
ARC
  5
1AF
330
1F
100
AcDbEntity
  8
SLD-0
  6
SLD-実線
 62
     7
370
    18
100
AcDbCircle
 10
483.7387636181
 20
787.0632206361
 30
0.0
 40
1.999999230811702
100
AcDbArc
 50
94.236322716
 51
178.4378437366
  0
ARC
  5
1B0
330
1F
100
AcDbEntity
  8
SLD-0
  6
SLD-実線
 62
     7
370
    18
100
AcDbCircle
 10
481.7887756112
 20
776.9242574395
 30
0.0
 40
1.999999962400125
100
AcDbArc
 50
97.85227
 51
180.0
  0
ARC
  5
1B1
330
1F
100
AcDbEntity
  8
SLD-0
  6
SLD-実線
 62
     7
370
    18
100
AcDbCircle
 10
593.8387890281
 20
787.0632206359
 30
0.0
 40
1.999999230717799
100
AcDbArc
 50
1.5621562634
 51
85.7636773565
  0
ARC
  5
1B2
330
1F
100
AcDbEntity
  8
SLD-0
  6
SLD-実線
 62
     7
370
    18
100
AcDbCircle
 10
569.7887757394
 20
791.8529191475
 30
0.0
 40
0.9999999815297005
100
AcDbArc
 50
180.0
 51
265.7636050881
  0
ARC
  5
1B3
330
1F
100
AcDbEntity
  8
SLD-0
  6
SLD-実線
 62
     7
370
    18
100
AcDbCircle
 10
567.7887757767
 20
791.9242555098
 30
0.0
 40
0.9999999811999487
100
AcDbArc
 50
0.0
 51
90.0
  0
ARC
  5
1B4
330
1F
100
AcDbEntity
  8
SLD-0
  6
SLD-実線
 62
     7
370
    18
100
AcDbCircle
 10
591.6462602941
 20
776.9055026426
 30
0.0
 40
1.999999962400011
100
AcDbArc
 50
0.0
 51
90.0
  0
ARC
  5
1B5
330
1F
100
AcDbEntity
  8
SLD-0
  6
SLD-実線
 62
     7
370
    18
100
AcDbCircle
 10
595.7887738531
 20
776.9242571872
 30
0.0
 40
1.999999962400133
100
AcDbArc
 50
0.0
 51
82.14773
  0
ARC
  5
1B6
330
1F
100
AcDbEntity
  8
SLD-0
  6
SLD-実線
 62
     7
370
    18
100
AcDbCircle
 10
586.7699422058
 20
776.9055026426
 30
0.0
 40
1.999999962400125
100
AcDbArc
 50
0.0
 51
90.0
  0
ARC
  5
1B7
330
1F
100
AcDbEntity
  8
SLD-0
  6
SLD-実線
 62
     7
370
    18
100
AcDbCircle
 10
478.7887748581
 20
770.5016075594
 30
0.0
 40
1.000000790724851
100
AcDbArc
 50
299.9999464424
 51
0.0
  0
ARC
  5
1B8
330
1F
100
AcDbEntity
  8
SLD-0
  6
SLD-実線
 62
     7
370
    18
100
AcDbCircle
 10
594.646259289
 20
770.3348118571
 30
0.0
 40
0.9999990324392911
100
AcDbArc
 50
180.0
 51
231.7119885222
  0
ARC
  5
1B9
330
1F
100
AcDbEntity
  8
SLD-0
  6
SLD-実線
 62
     7
370
    18
100
AcDbCircle
 10
589.769942516
 20
770.2913664017
 30
0.0
 40
1.000000347808873
100
AcDbArc
 50
180.0
 51
227.6118607513
  0
ARC
  5
1BA
330
1F
100
AcDbEntity
  8
SLD-0
  6
SLD-実線
 62
     7
370
    18
100
AcDbCircle
 10
598.7887746063
 20
770.5016073071
 30
0.0
 40
1.000000790724926
100
AcDbArc
 50
180.0
 51
240.0000535576
  0
ARC
  5
1BB
330
1F
100
AcDbEntity
  8
SLD-0
  6
SLD-実線
 62
     7
370
    18
100
AcDbCircle
 10
601.8046925577
 20
766.4509661726
 30
0.0
 40
0.9999988217290842
100
AcDbArc
 50
1.5922400352
 51
59.999923307
  0
ARC
  5
1BC
330
1F
100
AcDbEntity
  8
SLD-0
  6
SLD-実線
 62
     7
370
    18
100
AcDbCircle
 10
596.917062616
 20
765.9941240852
 30
0.0
 40
0.9999990314424849
100
AcDbArc
 50
0.0
 51
51.711988432
  0
ARC
  5
1BD
330
1F
100
AcDbEntity
  8
SLD-0
  6
SLD-実線
 62
     7
370
    18
100
AcDbCircle
 10
591.4636930769
 20
766.037571678
 30
0.0
 40
1.00000049432288
100
AcDbArc
 50
0.0
 51
47.6122287723
  0
ARC
  5
1BE
330
1F
100
AcDbEntity
  8
SLD-0
  6
SLD-実線
 62
     7
370
    18
100
AcDbCircle
 10
475.772856863
 20
766.4509665049
 30
0.0
 40
0.9999987293380882
100
AcDbArc
 50
120.000076693
 51
178.4077532647
  0
ENDSEC
  0
SECTION
  2
OBJECTS
  0
DICTIONARY
  5
C
330
0
100
AcDbDictionary
281
     1
  3
ACAD_DETAILVIEWSTYLE
350
1C8
  3
ACAD_GROUP
350
D
  3
ACAD_LAYOUT
350
1A
  3
ACAD_MATERIAL
350
43
  3
ACAD_MLEADERSTYLE
350
6B
  3
ACAD_MLINESTYLE
350
17
  3
ACAD_PLOTSETTINGS
350
19
  3
ACAD_PLOTSTYLENAME
350
E
  3
ACAD_SCALELIST
350
47
  3
ACAD_SECTIONVIEWSTYLE
350
1C9
  3
ACAD_TABLESTYLE
350
69
  3
ACDB_RECOMPOSE_DATA
350
1C5
  3
AcDbVariableDictionary
350
1BF
  0
DICTIONARY
  5
1C8
102
{ACAD_REACTORS
330
C
102
}
330
C
100
AcDbDictionary
281
     1
  0
DICTIONARY
  5
D
102
{ACAD_REACTORS
330
C
102
}
330
C
100
AcDbDictionary
281
     1
  0
DICTIONARY
  5
1A
102
{ACAD_REACTORS
330
C
102
}
330
C
100
AcDbDictionary
281
     1
  3
Layout1
350
1E
  3
Layout2
350
26
  3
Model
350
22
  0
DICTIONARY
  5
43
102
{ACAD_REACTORS
330
C
102
}
330
C
100
AcDbDictionary
281
     1
  3
ByBlock
350
45
  3
ByLayer
350
44
  3
Global
350
46
  0
DICTIONARY
  5
6B
102
{ACAD_REACTORS
330
C
102
}
330
C
100
AcDbDictionary
281
     1
  3
Standard
350
6C
  0
DICTIONARY
  5
17
102
{ACAD_REACTORS
330
C
102
}
330
C
100
AcDbDictionary
281
     1
  3
Standard
350
18
  0
DICTIONARY
  5
19
102
{ACAD_REACTORS
330
C
102
}
330
C
100
AcDbDictionary
281
     1
  0
ACDBDICTIONARYWDFLT
  5
E
102
{ACAD_REACTORS
330
C
102
}
330
C
100
AcDbDictionary
281
     1
  3
Normal
350
F
100
AcDbDictionaryWithDefault
340
F
  0
DICTIONARY
  5
47
102
{ACAD_REACTORS
330
C
102
}
330
C
100
AcDbDictionary
281
     1
  3
A0
350
48
  3
A1
350
49
  3
A2
350
4A
  3
A3
350
4B
  3
A4
350
4C
  3
A5
350
4D
  3
A6
350
4E
  3
A7
350
4F
  3
A8
350
50
  3
A9
350
51
  3
B0
350
52
  3
B1
350
53
  3
B2
350
54
  3
B3
350
55
  3
B4
350
56
  3
B5
350
57
  3
B6
350
58
  3
B7
350
59
  3
B8
350
5A
  3
B9
350
5B
  3
C0
350
5C
  3
C1
350
5D
  3
C2
350
5E
  3
C3
350
5F
  3
C4
350
60
  3
C5
350
61
  3
C6
350
62
  3
C7
350
63
  3
C8
350
64
  3
C9
350
65
  3
D0
350
66
  3
D1
350
67
  3
D2
350
68
  0
DICTIONARY
  5
1C9
102
{ACAD_REACTORS
330
C
102
}
330
C
100
AcDbDictionary
281
     1
  0
DICTIONARY
  5
69
102
{ACAD_REACTORS
330
C
102
}
330
C
100
AcDbDictionary
281
     1
  3
Standard
350
6A
  0
XRECORD
  5
1C5
102
{ACAD_REACTORS
330
C
102
}
330
C
100
AcDbXrecord
280
     1
 90
        1
330
6A
  0
DICTIONARY
  5
1BF
102
{ACAD_REACTORS
330
C
102
}
330
C
100
AcDbDictionary
281
     1
  3
CANNOSCALE
350
1C0
  3
CENTEREXE
350
1CA
  3
CENTERLTYPEFILE
350
1CB
  3
CMLEADERSTYLE
350
1C7
  3
CTABLESTYLE
350
1C6
  0
LAYOUT
  5
1E
102
{ACAD_REACTORS
330
1A
102
}
330
1A
100
AcDbPlotSettings
  1

  2
none_device
  4

  6

 40
0.0
 41
0.0
 42
0.0
 43
0.0
 44
0.0
 45
0.0
 46
0.0
 47
0.0
 48
0.0
 49
0.0
140
0.0
141
0.0
142
1.0
143
1.0
 70
   688
 72
     1
 73
     0
 74
     5
  7

 75
    16
 76
     0
 77
     2
 78
   300
147
1.0
148
0.0
149
0.0
100
AcDbLayout
  1
Layout1
 70
     1
 71
     1
 10
0.0
 20
0.0
 11
420.0
 21
297.0
 12
0.0
 22
0.0
 32
0.0
 14
1.0000000000E+20
 24
1.0000000000E+20
 34
1.0000000000E+20
 15
-1.0000000000E+20
 25
-1.0000000000E+20
 35
-1.0000000000E+20
146
0.0
 13
0.0
 23
0.0
 33
0.0
 16
1.0
 26
0.0
 36
0.0
 17
0.0
 27
1.0
 37
0.0
 76
     0
330
1B
  0
LAYOUT
  5
26
102
{ACAD_REACTORS
330
1A
102
}
330
1A
100
AcDbPlotSettings
  1

  2
none_device
  4

  6

 40
0.0
 41
0.0
 42
0.0
 43
0.0
 44
0.0
 45
0.0
 46
0.0
 47
0.0
 48
0.0
 49
0.0
140
0.0
141
0.0
142
1.0
143
1.0
 70
   688
 72
     1
 73
     0
 74
     5
  7

 75
    16
 76
     0
 77
     2
 78
   300
147
1.0
148
0.0
149
0.0
100
AcDbLayout
  1
Layout2
 70
     1
 71
     2
 10
0.0
 20
0.0
 11
0.0
 21
0.0
 12
0.0
 22
0.0
 32
0.0
 14
0.0
 24
0.0
 34
0.0
 15
0.0
 25
0.0
 35
0.0
146
0.0
 13
0.0
 23
0.0
 33
0.0
 16
1.0
 26
0.0
 36
0.0
 17
0.0
 27
1.0
 37
0.0
 76
     0
330
23
  0
LAYOUT
  5
22
102
{ACAD_REACTORS
330
1A
102
}
330
1A
100
AcDbPlotSettings
  1

  2
none_device
  4
Letter_(8.50_x_11.00_Inches)
  6

 40
6.35
 41
6.35
 42
6.35000508
 43
6.35000508
 44
215.9
 45
279.4
 46
0.0
 47
0.0
 48
0.0
 49
0.0
140
0.0
141
0.0
142
1.0
143
1.0
 70
  1712
 72
     1
 73
     0
 74
     0
  7

 75
     0
 76
     0
 77
     2
 78
   300
147
1.0
148
0.0
149
0.0
100
AcDbLayout
  1
Model
 70
     1
 71
     0
 10
0.0
 20
0.0
 11
1117.6
 21
863.6
 12
0.0
 22
0.0
 32
0.0
 14
0.0
 24
0.0
 34
0.0
 15
1117.6
 25
863.6
 35
0.0
146
0.0
 13
0.0
 23
0.0
 33
0.0
 16
1.0
 26
0.0
 36
0.0
 17
0.0
 27
1.0
 37
0.0
 76
     0
330
1F
331
29
  0
MATERIAL
  5
45
102
{ACAD_REACTORS
330
43
102
}
330
43
100
AcDbMaterial
  1
ByBlock
  0
MATERIAL
  5
44
102
{ACAD_REACTORS
330
43
102
}
330
43
100
AcDbMaterial
  1
ByLayer
  0
MATERIAL
  5
46
102
{ACAD_REACTORS
330
43
102
}
330
43
100
AcDbMaterial
  1
Global
  0
MLEADERSTYLE
  5
6C
102
{ACAD_REACTORS
330
6B
102
}
330
6B
100
AcDbMLeaderStyle
170
     2
171
     1
172
     0
 90
        2
 40
0.0
 41
0.0
173
     1
 91
-1056964608
340
14
 92
       -2
290
     1
 42
2.0
291
     1
 43
8.0
  3
Standard
341
0
 44
4.0
300

342
11
174
     1
178
     6
175
     1
176
     0
 93
-1056964608
 45
4.0
292
     0
297
     0
 46
4.0
343
0
 94
-1056964608
 47
1.0
 49
1.0
140
1.0
293
     1
141
0.0
294
     1
177
     0
142
1.0
295
     0
296
     0
143
3.75
1001
ACAD_MLEADERVER
1070
     2
  0
MLINESTYLE
  5
18
102
{ACAD_REACTORS
330
17
102
}
330
17
100
AcDbMlineStyle
  2
Standard
 70
     0
  3

 62
   256
 51
90.0
 52
90.0
 71
     2
 49
0.5
 62
   256
  6
BYLAYER
 49
-0.5
 62
   256
  6
BYLAYER
  0
ACDBPLACEHOLDER
  5
F
102
{ACAD_REACTORS
330
E
102
}
330
E
  0
SCALE
  5
48
102
{ACAD_REACTORS
330
47
102
}
330
47
100
AcDbScale
 70
     0
300
1:1
140
1.0
141
1.0
290
     1
  0
SCALE
  5
49
102
{ACAD_REACTORS
330
47
102
}
330
47
100
AcDbScale
 70
     0
300
1:2
140
1.0
141
2.0
290
     0
  0
SCALE
  5
4A
102
{ACAD_REACTORS
330
47
102
}
330
47
100
AcDbScale
 70
     0
300
1:4
140
1.0
141
4.0
290
     0
  0
SCALE
  5
4B
102
{ACAD_REACTORS
330
47
102
}
330
47
100
AcDbScale
 70
     0
300
1:5
140
1.0
141
5.0
290
     0
  0
SCALE
  5
4C
102
{ACAD_REACTORS
330
47
102
}
330
47
100
AcDbScale
 70
     0
300
1:8
140
1.0
141
8.0
290
     0
  0
SCALE
  5
4D
102
{ACAD_REACTORS
330
47
102
}
330
47
100
AcDbScale
 70
     0
300
1:10
140
1.0
141
10.0
290
     0
  0
SCALE
  5
4E
102
{ACAD_REACTORS
330
47
102
}
330
47
100
AcDbScale
 70
     0
300
1:16
140
1.0
141
16.0
290
     0
  0
SCALE
  5
4F
102
{ACAD_REACTORS
330
47
102
}
330
47
100
AcDbScale
 70
     0
300
1:20
140
1.0
141
20.0
290
     0
  0
SCALE
  5
50
102
{ACAD_REACTORS
330
47
102
}
330
47
100
AcDbScale
 70
     0
300
1:30
140
1.0
141
30.0
290
     0
  0
SCALE
  5
51
102
{ACAD_REACTORS
330
47
102
}
330
47
100
AcDbScale
 70
     0
300
1:40
140
1.0
141
40.0
290
     0
  0
SCALE
  5
52
102
{ACAD_REACTORS
330
47
102
}
330
47
100
AcDbScale
 70
     0
300
1:50
140
1.0
141
50.0
290
     0
  0
SCALE
  5
53
102
{ACAD_REACTORS
330
47
102
}
330
47
100
AcDbScale
 70
     0
300
1:100
140
1.0
141
100.0
290
     0
  0
SCALE
  5
54
102
{ACAD_REACTORS
330
47
102
}
330
47
100
AcDbScale
 70
     0
300
2:1
140
2.0
141
1.0
290
     0
  0
SCALE
  5
55
102
{ACAD_REACTORS
330
47
102
}
330
47
100
AcDbScale
 70
     0
300
4:1
140
4.0
141
1.0
290
     0
  0
SCALE
  5
56
102
{ACAD_REACTORS
330
47
102
}
330
47
100
AcDbScale
 70
     0
300
8:1
140
8.0
141
1.0
290
     0
  0
SCALE
  5
57
102
{ACAD_REACTORS
330
47
102
}
330
47
100
AcDbScale
 70
     0
300
10:1
140
10.0
141
1.0
290
     0
  0
SCALE
  5
58
102
{ACAD_REACTORS
330
47
102
}
330
47
100
AcDbScale
 70
     0
300
100:1
140
100.0
141
1.0
290
     0
  0
SCALE
  5
59
102
{ACAD_REACTORS
330
47
102
}
330
47
100
AcDbScale
 70
     0
300
1/128" = 1'-0"
140
0.0078125
141
12.0
290
     0
  0
SCALE
  5
5A
102
{ACAD_REACTORS
330
47
102
}
330
47
100
AcDbScale
 70
     0
300
1/64" = 1'-0"
140
0.015625
141
12.0
290
     0
  0
SCALE
  5
5B
102
{ACAD_REACTORS
330
47
102
}
330
47
100
AcDbScale
 70
     0
300
1/32" = 1'-0"
140
0.03125
141
12.0
290
     0
  0
SCALE
  5
5C
102
{ACAD_REACTORS
330
47
102
}
330
47
100
AcDbScale
 70
     0
300
1/16" = 1'-0"
140
0.0625
141
12.0
290
     0
  0
SCALE
  5
5D
102
{ACAD_REACTORS
330
47
102
}
330
47
100
AcDbScale
 70
     0
300
3/32" = 1'-0"
140
0.09375
141
12.0
290
     0
  0
SCALE
  5
5E
102
{ACAD_REACTORS
330
47
102
}
330
47
100
AcDbScale
 70
     0
300
1/8" = 1'-0"
140
0.125
141
12.0
290
     0
  0
SCALE
  5
5F
102
{ACAD_REACTORS
330
47
102
}
330
47
100
AcDbScale
 70
     0
300
3/16" = 1'-0"
140
0.1875
141
12.0
290
     0
  0
SCALE
  5
60
102
{ACAD_REACTORS
330
47
102
}
330
47
100
AcDbScale
 70
     0
300
1/4" = 1'-0"
140
0.25
141
12.0
290
     0
  0
SCALE
  5
61
102
{ACAD_REACTORS
330
47
102
}
330
47
100
AcDbScale
 70
     0
300
3/8" = 1'-0"
140
0.375
141
12.0
290
     0
  0
SCALE
  5
62
102
{ACAD_REACTORS
330
47
102
}
330
47
100
AcDbScale
 70
     0
300
1/2" = 1'-0"
140
0.5
141
12.0
290
     0
  0
SCALE
  5
63
102
{ACAD_REACTORS
330
47
102
}
330
47
100
AcDbScale
 70
     0
300
3/4" = 1'-0"
140
0.75
141
12.0
290
     0
  0
SCALE
  5
64
102
{ACAD_REACTORS
330
47
102
}
330
47
100
AcDbScale
 70
     0
300
1" = 1'-0"
140
1.0
141
12.0
290
     0
  0
SCALE
  5
65
102
{ACAD_REACTORS
330
47
102
}
330
47
100
AcDbScale
 70
     0
300
1-1/2" = 1'-0"
140
1.5
141
12.0
290
     0
  0
SCALE
  5
66
102
{ACAD_REACTORS
330
47
102
}
330
47
100
AcDbScale
 70
     0
300
3" = 1'-0"
140
3.0
141
12.0
290
     0
  0
SCALE
  5
67
102
{ACAD_REACTORS
330
47
102
}
330
47
100
AcDbScale
 70
     0
300
6" = 1'-0"
140
6.0
141
12.0
290
     0
  0
SCALE
  5
68
102
{ACAD_REACTORS
330
47
102
}
330
47
100
AcDbScale
 70
     0
300
1'-0" = 1'-0"
140
12.0
141
12.0
290
     0
  0
TABLESTYLE
  5
6A
102
{ACAD_REACTORS
330
69
102
}
102
{ACAD_XDICTIONARY
360
1C1
102
}
330
69
100
AcDbTableStyle
  3
Standard
 70
     0
 71
     0
 40
0.06
 41
0.06
280
     0
281
     0
  7
Standard
140
4.5
170
     2
 62
     0
 63
   257
283
     0
274
    -2
284
     1
 64
     0
275
    -2
285
     1
 65
     0
276
    -2
286
     1
 66
     0
277
    -2
287
     1
 67
     0
278
    -2
288
     1
 68
     0
279
    -2
289
     1
 69
     0
  7
Standard
140
6.0
170
     5
 62
     0
 63
   257
283
     0
274
    -2
284
     1
 64
     0
275
    -2
285
     1
 65
     0
276
    -2
286
     1
 66
     0
277
    -2
287
     1
 67
     0
278
    -2
288
     1
 68
     0
279
    -2
289
     1
 69
     0
  7
Standard
140
4.5
170
     5
 62
     0
 63
   257
283
     0
274
    -2
284
     1
 64
     0
275
    -2
285
     1
 65
     0
276
    -2
286
     1
 66
     0
277
    -2
287
     1
 67
     0
278
    -2
288
     1
 68
     0
279
    -2
289
     1
 69
     0
  0
DICTIONARYVAR
  5
1C0
102
{ACAD_REACTORS
330
1BF
102
}
330
1BF
100
DictionaryVariables
280
     0
  1
1:1
  0
DICTIONARYVAR
  5
1CA
102
{ACAD_REACTORS
330
1BF
102
}
330
1BF
100
DictionaryVariables
280
     0
  1
3.500000
  0
DICTIONARYVAR
  5
1CB
102
{ACAD_REACTORS
330
1BF
102
}
330
1BF
100
DictionaryVariables
280
     0
  1
acadiso.lin
  0
DICTIONARYVAR
  5
1C7
102
{ACAD_REACTORS
330
1BF
102
}
330
1BF
100
DictionaryVariables
280
     0
  1
Standard
  0
DICTIONARYVAR
  5
1C6
102
{ACAD_REACTORS
330
1BF
102
}
330
1BF
100
DictionaryVariables
280
     0
  1
Standard
  0
DICTIONARY
  5
1C1
330
6A
100
AcDbDictionary
280
     1
281
     1
  3
ACAD_ROUNDTRIP_2008_TABLESTYLE_CELLSTYLEMAP
360
1C3
  3
ACAD_XREC_ROUNDTRIP
360
1C2
  0
CELLSTYLEMAP
  5
1C3
102
{ACAD_REACTORS
330
1C1
102
}
330
1C1
100
AcDbCellStyleMap
 90
        3
300
CELLSTYLE
  1
TABLEFORMAT_BEGIN
 90
        5
170
     1
 91
        0
 92
    32768
 62
   257
 93
        1
300
CONTENTFORMAT
  1
CONTENTFORMAT_BEGIN
 90
        0
 91
        0
 92
        4
 93
        0
300

 40
0.0
140
1.0
 94
        5
 62
     0
340
11
144
6.0
309
CONTENTFORMAT_END
171
     1
301
MARGIN
  1
CELLMARGIN_BEGIN
 40
1.5
 40
1.5
 40
1.5
 40
1.5
 40
1.5
 40
1.5
309
CELLMARGIN_END
 94
        6
 95
        1
302
GRIDFORMAT
  1
GRIDFORMAT_BEGIN
 90
        0
 91
        1
 62
     0
 92
       -2
340
14
 93
        0
 40
0.045
309
GRIDFORMAT_END
 95
        2
302
GRIDFORMAT
  1
GRIDFORMAT_BEGIN
 90
        0
 91
        1
 62
     0
 92
       -2
340
14
 93
        0
 40
0.045
309
GRIDFORMAT_END
 95
        4
302
GRIDFORMAT
  1
GRIDFORMAT_BEGIN
 90
        0
 91
        1
 62
     0
 92
       -2
340
14
 93
        0
 40
0.045
309
GRIDFORMAT_END
 95
        8
302
GRIDFORMAT
  1
GRIDFORMAT_BEGIN
 90
        0
 91
        1
 62
     0
 92
       -2
340
14
 93
        0
 40
0.045
309
GRIDFORMAT_END
 95
       16
302
GRIDFORMAT
  1
GRIDFORMAT_BEGIN
 90
        0
 91
        1
 62
     0
 92
       -2
340
14
 93
        0
 40
0.045
309
GRIDFORMAT_END
 95
       32
302
GRIDFORMAT
  1
GRIDFORMAT_BEGIN
 90
        0
 91
        1
 62
     0
 92
       -2
340
14
 93
        0
 40
0.045
309
GRIDFORMAT_END
309
TABLEFORMAT_END
  1
CELLSTYLE_BEGIN
 90
        1
 91
        1
300
_TITLE
309
CELLSTYLE_END
300
CELLSTYLE
  1
TABLEFORMAT_BEGIN
 90
        5
170
     1
 91
        0
 92
        0
 62
   257
 93
        1
300
CONTENTFORMAT
  1
CONTENTFORMAT_BEGIN
 90
        0
 91
        0
 92
        4
 93
        0
300

 40
0.0
140
1.0
 94
        5
 62
     0
340
11
144
4.5
309
CONTENTFORMAT_END
171
     1
301
MARGIN
  1
CELLMARGIN_BEGIN
 40
1.5
 40
1.5
 40
1.5
 40
1.5
 40
1.5
 40
1.5
309
CELLMARGIN_END
 94
        6
 95
        1
302
GRIDFORMAT
  1
GRIDFORMAT_BEGIN
 90
        0
 91
        1
 62
     0
 92
       -2
340
14
 93
        0
 40
0.045
309
GRIDFORMAT_END
 95
        2
302
GRIDFORMAT
  1
GRIDFORMAT_BEGIN
 90
        0
 91
        1
 62
     0
 92
       -2
340
14
 93
        0
 40
0.045
309
GRIDFORMAT_END
 95
        4
302
GRIDFORMAT
  1
GRIDFORMAT_BEGIN
 90
        0
 91
        1
 62
     0
 92
       -2
340
14
 93
        0
 40
0.045
309
GRIDFORMAT_END
 95
        8
302
GRIDFORMAT
  1
GRIDFORMAT_BEGIN
 90
        0
 91
        1
 62
     0
 92
       -2
340
14
 93
        0
 40
0.045
309
GRIDFORMAT_END
 95
       16
302
GRIDFORMAT
  1
GRIDFORMAT_BEGIN
 90
        0
 91
        1
 62
     0
 92
       -2
340
14
 93
        0
 40
0.045
309
GRIDFORMAT_END
 95
       32
302
GRIDFORMAT
  1
GRIDFORMAT_BEGIN
 90
        0
 91
        1
 62
     0
 92
       -2
340
14
 93
        0
 40
0.045
309
GRIDFORMAT_END
309
TABLEFORMAT_END
  1
CELLSTYLE_BEGIN
 90
        2
 91
        1
300
_HEADER
309
CELLSTYLE_END
300
CELLSTYLE
  1
TABLEFORMAT_BEGIN
 90
        5
170
     1
 91
        0
 92
        0
 62
   257
 93
        1
300
CONTENTFORMAT
  1
CONTENTFORMAT_BEGIN
 90
        0
 91
        0
 92
        4
 93
        0
300

 40
0.0
140
1.0
 94
        2
 62
     0
340
11
144
4.5
309
CONTENTFORMAT_END
171
     1
301
MARGIN
  1
CELLMARGIN_BEGIN
 40
1.5
 40
1.5
 40
1.5
 40
1.5
 40
1.5
 40
1.5
309
CELLMARGIN_END
 94
        6
 95
        1
302
GRIDFORMAT
  1
GRIDFORMAT_BEGIN
 90
        0
 91
        1
 62
     0
 92
       -2
340
14
 93
        0
 40
0.045
309
GRIDFORMAT_END
 95
        2
302
GRIDFORMAT
  1
GRIDFORMAT_BEGIN
 90
        0
 91
        1
 62
     0
 92
       -2
340
14
 93
        0
 40
0.045
309
GRIDFORMAT_END
 95
        4
302
GRIDFORMAT
  1
GRIDFORMAT_BEGIN
 90
        0
 91
        1
 62
     0
 92
       -2
340
14
 93
        0
 40
0.045
309
GRIDFORMAT_END
 95
        8
302
GRIDFORMAT
  1
GRIDFORMAT_BEGIN
 90
        0
 91
        1
 62
     0
 92
       -2
340
14
 93
        0
 40
0.045
309
GRIDFORMAT_END
 95
       16
302
GRIDFORMAT
  1
GRIDFORMAT_BEGIN
 90
        0
 91
        1
 62
     0
 92
       -2
340
14
 93
        0
 40
0.045
309
GRIDFORMAT_END
 95
       32
302
GRIDFORMAT
  1
GRIDFORMAT_BEGIN
 90
        0
 91
        1
 62
     0
 92
       -2
340
14
 93
        0
 40
0.045
309
GRIDFORMAT_END
309
TABLEFORMAT_END
  1
CELLSTYLE_BEGIN
 90
        3
 91
        2
300
_DATA
309
CELLSTYLE_END
  0
XRECORD
  5
1C2
102
{ACAD_REACTORS
330
1C1
102
}
330
1C1
100
AcDbXrecord
280
     1
102
ACAD_ROUNDTRIP_PRE2007_TABLESTYLE
 90
        4
 91
        0
  1

 92
        4
 93
        0
  2

 94
        4
 95
        0
  3

  0
ENDSEC
  0
EOF
