  0
SECTION
  2
HEADER
  9
$ACADVER
  1
AC1018
  9
$ACADMAINTVER
 70
     0
  9
$DWGCODEPAGE
  3
DOS932
  9
$INSBASE
 10
0.0
 20
0.0
 30
0.0
  9
$EXTMIN
 10
0.0
 20
0.0
 30
0.0
  9
$EXTMAX
 10
1117.6
 20
863.6
 30
0.0
  9
$LIMMIN
 10
0.0
 20
0.0
  9
$LIMMAX
 10
1117.6
 20
863.6
  9
$ORTHOMODE
 70
     0
  9
$REGENMODE
 70
     1
  9
$FILLMODE
 70
     1
  9
$QTEXTMODE
 70
     0
  9
$MIRRTEXT
 70
     1
  9
$LTSCALE
 40
1.0
  9
$ATTMODE
 70
     1
  9
$TEXTSIZE
 40
3.5
  9
$TRACEWID
 40
1.0
  9
$TEXTSTYLE
  7
Standard
  9
$CLAYER
  8
0
  9
$CELTYPE
  6
ByLayer
  9
$CECOLOR
 62
   256
  9
$CELTSCALE
 40
1.0
  9
$DISPSILH
 70
     0
  9
$DIMSCALE
 40
1.0
  9
$DIMASZ
 40
3.302
  9
$DIMEXO
 40
1.0
  9
$DIMDLI
 40
3.75
  9
$DIMRND
 40
0.0
  9
$DIMDLE
 40
0.0
  9
$DIMEXE
 40
1.0
  9
$DIMTP
 40
0.0
  9
$DIMTM
 40
0.0
  9
$DIMTXT
 40
3.5
  9
$DIMCEN
 40
2.5
  9
$DIMTSZ
 40
0.0
  9
$DIMTOL
 70
     0
  9
$DIMLIM
 70
     0
  9
$DIMTIH
 70
     1
  9
$DIMTOH
 70
     1
  9
$DIMSE1
 70
     0
  9
$DIMSE2
 70
     0
  9
$DIMTAD
 70
     1
  9
$DIMZIN
 70
     1
  9
$DIMBLK
  1

  9
$DIMASO
 70
     1
  9
$DIMSHO
 70
     1
  9
$DIMPOST
  1

  9
$DIMAPOST
  1

  9
$DIMALT
 70
     0
  9
$DIMALTD
 70
     3
  9
$DIMALTF
 40
0.0393700787
  9
$DIMLFAC
 40
1.0
  9
$DIMTOFL
 70
     1
  9
$DIMTVP
 40
0.0
  9
$DIMTIX
 70
     0
  9
$DIMSOXD
 70
     0
  9
$DIMSAH
 70
     0
  9
$DIMBLK1
  1

  9
$DIMBLK2
  1

  9
$DIMSTYLE
  2
ISO-25
  9
$DIMCLRD
 70
     0
  9
$DIMCLRE
 70
     0
  9
$DIMCLRT
 70
     0
  9
$DIMTFAC
 40
1.0
  9
$DIMGAP
 40
1.524
  9
$DIMJUST
 70
     0
  9
$DIMSD1
 70
     0
  9
$DIMSD2
 70
     0
  9
$DIMTOLJ
 70
     0
  9
$DIMTZIN
 70
     1
  9
$DIMALTZ
 70
     0
  9
$DIMALTTZ
 70
     0
  9
$DIMUPT
 70
     0
  9
$DIMDEC
 70
     0
  9
$DIMTDEC
 70
     4
  9
$DIMALTU
 70
     2
  9
$DIMALTTD
 70
     3
  9
$DIMTXSTY
  7
Standard
  9
$DIMAUNIT
 70
     0
  9
$DIMADEC
 70
     0
  9
$DIMALTRND
 40
0.0
  9
$DIMAZIN
 70
     0
  9
$DIMDSEP
 70
    44
  9
$DIMATFIT
 70
     3
  9
$DIMFRAC
 70
     0
  9
$DIMLDRBLK
  1

  9
$DIMLUNIT
 70
     2
  9
$DIMLWD
 70
    -2
  9
$DIMLWE
 70
    -2
  9
$DIMTMOVE
 70
     0
  9
$LUNITS
 70
     2
  9
$LUPREC
 70
     3
  9
$SKETCHINC
 40
1.0
  9
$FILLETRAD
 40
10.0
  9
$AUNITS
 70
     0
  9
$AUPREC
 70
     0
  9
$MENU
  1
.
  9
$ELEVATION
 40
0.0
  9
$PELEVATION
 40
0.0
  9
$THICKNESS
 40
0.0
  9
$LIMCHECK
 70
     0
  9
$CHAMFERA
 40
0.0
  9
$CHAMFERB
 40
0.0
  9
$CHAMFERC
 40
0.0
  9
$CHAMFERD
 40
0.0
  9
$SKPOLY
 70
     0
  9
$TDCREATE
 40
2460409.453289398
  9
$TDUCREATE
 40
2460409.078289398
  9
$TDUPDATE
 40
2460409.453289757
  9
$TDUUPDATE
 40
2460409.078289757
  9
$TDINDWG
 40
0.0000000116
  9
$TDUSRTIMER
 40
0.0000000116
  9
$USRTIMER
 70
     1
  9
$ANGBASE
 50
0.0
  9
$ANGDIR
 70
     0
  9
$PDMODE
 70
     0
  9
$PDSIZE
 40
-1.0
  9
$PLINEWID
 40
0.0
  9
$SPLFRAME
 70
     0
  9
$SPLINETYPE
 70
     6
  9
$SPLINESEGS
 70
     8
  9
$HANDSEED
  5
1C2
  9
$SURFTAB1
 70
     6
  9
$SURFTAB2
 70
     6
  9
$SURFTYPE
 70
     6
  9
$SURFU
 70
     6
  9
$SURFV
 70
     6
  9
$UCSBASE
  2

  9
$UCSNAME
  2

  9
$UCSORG
 10
0.0
 20
0.0
 30
0.0
  9
$UCSXDIR
 10
1.0
 20
0.0
 30
0.0
  9
$UCSYDIR
 10
0.0
 20
1.0
 30
0.0
  9
$UCSORTHOREF
  2

  9
$UCSORTHOVIEW
 70
     0
  9
$UCSORGTOP
 10
0.0
 20
0.0
 30
0.0
  9
$UCSORGBOTTOM
 10
0.0
 20
0.0
 30
0.0
  9
$UCSORGLEFT
 10
0.0
 20
0.0
 30
0.0
  9
$UCSORGRIGHT
 10
0.0
 20
0.0
 30
0.0
  9
$UCSORGFRONT
 10
0.0
 20
0.0
 30
0.0
  9
$UCSORGBACK
 10
0.0
 20
0.0
 30
0.0
  9
$PUCSBASE
  2

  9
$PUCSNAME
  2

  9
$PUCSORG
 10
0.0
 20
0.0
 30
0.0
  9
$PUCSXDIR
 10
1.0
 20
0.0
 30
0.0
  9
$PUCSYDIR
 10
0.0
 20
1.0
 30
0.0
  9
$PUCSORTHOREF
  2

  9
$PUCSORTHOVIEW
 70
     0
  9
$PUCSORGTOP
 10
0.0
 20
0.0
 30
0.0
  9
$PUCSORGBOTTOM
 10
0.0
 20
0.0
 30
0.0
  9
$PUCSORGLEFT
 10
0.0
 20
0.0
 30
0.0
  9
$PUCSORGRIGHT
 10
0.0
 20
0.0
 30
0.0
  9
$PUCSORGFRONT
 10
0.0
 20
0.0
 30
0.0
  9
$PUCSORGBACK
 10
0.0
 20
0.0
 30
0.0
  9
$USERI1
 70
     0
  9
$USERI2
 70
     0
  9
$USERI3
 70
     0
  9
$USERI4
 70
     0
  9
$USERI5
 70
     0
  9
$USERR1
 40
0.0
  9
$USERR2
 40
0.0
  9
$USERR3
 40
0.0
  9
$USERR4
 40
0.0
  9
$USERR5
 40
0.0
  9
$WORLDVIEW
 70
     1
  9
$SHADEDGE
 70
     3
  9
$SHADEDIF
 70
    70
  9
$TILEMODE
 70
     1
  9
$MAXACTVP
 70
    64
  9
$PINSBASE
 10
0.0
 20
0.0
 30
0.0
  9
$PLIMCHECK
 70
     0
  9
$PEXTMIN
 10
1.0000000000E+20
 20
1.0000000000E+20
 30
1.0000000000E+20
  9
$PEXTMAX
 10
-1.0000000000E+20
 20
-1.0000000000E+20
 30
-1.0000000000E+20
  9
$PLIMMIN
 10
0.0
 20
0.0
  9
$PLIMMAX
 10
420.0
 20
297.0
  9
$UNITMODE
 70
     0
  9
$VISRETAIN
 70
     1
  9
$PLINEGEN
 70
     0
  9
$PSLTSCALE
 70
     1
  9
$TREEDEPTH
 70
  3020
  9
$CMLSTYLE
  2
Standard
  9
$CMLJUST
 70
     0
  9
$CMLSCALE
 40
20.0
  9
$PROXYGRAPHICS
 70
     1
  9
$MEASUREMENT
 70
     1
  9
$CELWEIGHT
370
    -1
  9
$ENDCAPS
280
     0
  9
$JOINSTYLE
280
     0
  9
$LWDISPLAY
290
     1
  9
$INSUNITS
 70
     4
  9
$HYPERLINKBASE
  1

  9
$STYLESHEET
  1

  9
$XEDIT
290
     1
  9
$CEPSNTYPE
380
     0
  9
$PSTYLEMODE
290
     1
  9
$FINGERPRINTGUID
  2
{5c0c409b-6914-47c0-af2d-bb2303e51833}
  9
$VERSIONGUID
  2
{FAEB1C32-E019-11D5-929B-00C0DF256EC4}
  9
$EXTNAMES
290
     1
  9
$PSVPSCALE
 40
0.0
  9
$OLESTARTUP
290
     0
  9
$SORTENTS
280
   127
  9
$INDEXCTL
280
     0
  9
$HIDETEXT
280
     1
  9
$XCLIPFRAME
290
     0
  9
$HALOGAP
280
     0
  9
$OBSCOLOR
 70
   257
  9
$OBSLTYPE
280
     0
  9
$INTERSECTIONDISPLAY
280
     0
  9
$INTERSECTIONCOLOR
 70
   257
  9
$DIMASSOC
280
     2
  9
$PROJECTNAME
  1

  0
ENDSEC
  0
SECTION
  2
CLASSES
  0
CLASS
  1
ACDBDICTIONARYWDFLT
  2
AcDbDictionaryWithDefault
  3
ObjectDBX Classes
 90
        0
 91
        3
280
     0
281
     0
  0
CLASS
  1
VISUALSTYLE
  2
AcDbVisualStyle
  3
ObjectDBX Classes
 90
     4095
 91
        3
280
     0
281
     0
  0
CLASS
  1
MATERIAL
  2
AcDbMaterial
  3
ObjectDBX Classes
 90
     1153
 91
        3
280
     0
281
     0
  0
CLASS
  1
SCALE
  2
AcDbScale
  3
ObjectDBX Classes
 90
     1153
 91
        3
280
     0
281
     0
  0
CLASS
  1
TABLESTYLE
  2
AcDbTableStyle
  3
ObjectDBX Classes
 90
     4095
 91
        3
280
     0
281
     0
  0
CLASS
  1
MLEADERSTYLE
  2
AcDbMLeaderStyle
  3
ACDB_MLEADERSTYLE_CLASS
 90
     4095
 91
        3
280
     0
281
     0
  0
CLASS
  1
SUN
  2
AcDbSun
  3
SCENEOE
 90
     1153
 91
        3
280
     0
281
     0
  0
CLASS
  1
DICTIONARYVAR
  2
AcDbDictionaryVar
  3
ObjectDBX Classes
 90
        0
 91
        3
280
     0
281
     0
  0
CLASS
  1
CELLSTYLEMAP
  2
AcDbCellStyleMap
  3
ObjectDBX Classes
 90
     1152
 91
        3
280
     0
281
     0
  0
ENDSEC
  0
SECTION
  2
TABLES
  0
TABLE
  2
VPORT
  5
8
330
0
100
AcDbSymbolTable
 70
     1
  0
VPORT
  5
29
330
8
100
AcDbSymbolTableRecord
100
AcDbViewportTableRecord
  2
*Active
 70
     0
 10
0.0
 20
0.0
 11
1.0
 21
1.0
 12
558.8
 22
431.8
 13
0.0
 23
0.0
 14
10.0
 24
10.0
 15
10.0
 25
10.0
 16
0.0
 26
0.0
 36
1.0
 17
0.0
 27
0.0
 37
0.0
 40
863.6
 41
1.2941176471
 42
50.0
 43
0.0
 44
0.0
 50
0.0
 51
0.0
 71
     0
 72
  2000
 73
     1
 74
     3
 75
     0
 76
     0
 77
     0
 78
     0
281
     0
 65
     1
110
0.0
120
0.0
130
0.0
111
1.0
121
0.0
131
0.0
112
0.0
122
1.0
132
0.0
 79
     0
146
0.0
  0
ENDTAB
  0
TABLE
  2
LTYPE
  5
5
330
0
100
AcDbSymbolTable
 70
     8
  0
LTYPE
  5
14
330
5
100
AcDbSymbolTableRecord
100
AcDbLinetypeTableRecord
  2
ByBlock
 70
     0
  3

 72
    65
 73
     0
 40
0.0
  0
LTYPE
  5
15
330
5
100
AcDbSymbolTableRecord
100
AcDbLinetypeTableRecord
  2
ByLayer
 70
     0
  3

 72
    65
 73
     0
 40
0.0
  0
LTYPE
  5
16
330
5
100
AcDbSymbolTableRecord
100
AcDbLinetypeTableRecord
  2
Continuous
 70
     0
  3
Solid line
 72
    65
 73
     0
 40
0.0
  0
LTYPE
  5
6E
330
5
100
AcDbSymbolTableRecord
100
AcDbLinetypeTableRecord
  2
SLD-実線
 70
     0
  3
SolidWorks Line Style
 72
    65
 73
     0
 40
0.0
  0
LTYPE
  5
6F
330
5
100
AcDbSymbolTableRecord
100
AcDbLinetypeTableRecord
  2
SLD-破線
 70
     0
  3
SolidWorks Line Style
 72
    65
 73
     2
 40
1.905
 49
1.27
 74
     0
 49
-0.635
 74
     0
  0
LTYPE
  5
70
330
5
100
AcDbSymbolTableRecord
100
AcDbLinetypeTableRecord
  2
SLD-2点鎖線
 70
     0
  3
SolidWorks Line Style
 72
    65
 73
     6
 40
12.7
 49
6.35
 74
     0
 49
-1.27
 74
     0
 49
1.27
 74
     0
 49
-1.27
 74
     0
 49
1.27
 74
     0
 49
-1.27
 74
     0
  0
LTYPE
  5
71
330
5
100
AcDbSymbolTableRecord
100
AcDbLinetypeTableRecord
  2
SLD-鎖線
 70
     0
  3
SolidWorks Line Style
 72
    65
 73
     4
 40
10.16
 49
6.35
 74
     0
 49
-1.27
 74
     0
 49
1.27
 74
     0
 49
-1.27
 74
     0
  0
LTYPE
  5
72
330
5
100
AcDbSymbolTableRecord
100
AcDbLinetypeTableRecord
  2
SLD-1点鎖線(中心線)
 70
     0
  3
SolidWorks Line Style
 72
    65
 73
     4
 40
34.29
 49
30.48
 74
     0
 49
-1.27
 74
     0
 49
1.27
 74
     0
 49
-1.27
 74
     0
  0
LTYPE
  5
73
330
5
100
AcDbSymbolTableRecord
100
AcDbLinetypeTableRecord
  2
SLD-点線
 70
     0
  3
SolidWorks Line Style
 72
    65
 73
     2
 40
0.635
 49
0.0
 74
     0
 49
-0.635
 74
     0
  0
LTYPE
  5
74
330
5
100
AcDbSymbolTableRecord
100
AcDbLinetypeTableRecord
  2
SLD-細-太鎖線(切断面)
 70
     0
  3
SolidWorks Line Style
 72
    65
 73
     4
 40
10.16
 49
6.35
 74
     0
 49
-1.27
 74
     0
 49
1.27
 74
     0
 49
-1.27
 74
     0
  0
ENDTAB
  0
TABLE
  2
LAYER
  5
2
330
0
100
AcDbSymbolTable
 70
     5
  0
LAYER
  5
10
330
2
100
AcDbSymbolTableRecord
100
AcDbLayerTableRecord
  2
0
 70
     0
 62
     7
  6
Continuous
370
    -3
390
F
  0
LAYER
  5
75
330
2
100
AcDbSymbolTableRecord
100
AcDbLayerTableRecord
  2
SLD-0_0
 70
     0
 62
     7
  6
Continuous
370
    -1
390
F
  0
LAYER
  5
76
330
2
100
AcDbSymbolTableRecord
100
AcDbLayerTableRecord
  2
SLD-0
 70
     0
 62
   179
  6
SLD-実線
370
    -3
390
F
  0
LAYER
  5
77
330
2
100
AcDbSymbolTableRecord
100
AcDbLayerTableRecord
  2
100
 70
     0
 62
   179
  6
SLD-実線
370
    -3
390
F
  0
LAYER
  5
78
330
2
100
AcDbSymbolTableRecord
100
AcDbLayerTableRecord
  2
1
 70
     0
 62
   179
  6
SLD-実線
370
    -3
390
F
  0
ENDTAB
  0
TABLE
  2
STYLE
  5
3
330
0
100
AcDbSymbolTable
 70
     1
  0
STYLE
  5
11
330
3
100
AcDbSymbolTableRecord
100
AcDbTextStyleTableRecord
  2
Standard
 70
     0
 40
0.0
 41
1.0
 50
0.0
 71
     0
 42
3.5
  3
txt
  4
bigfont
  0
ENDTAB
  0
TABLE
  2
VIEW
  5
6
330
0
100
AcDbSymbolTable
 70
     0
  0
ENDTAB
  0
TABLE
  2
UCS
  5
7
330
0
100
AcDbSymbolTable
 70
     0
  0
ENDTAB
  0
TABLE
  2
APPID
  5
9
330
0
100
AcDbSymbolTable
 70
     2
  0
APPID
  5
12
330
9
100
AcDbSymbolTableRecord
100
AcDbRegAppTableRecord
  2
ACAD
 70
     0
  0
APPID
  5
1BA
330
9
100
AcDbSymbolTableRecord
100
AcDbRegAppTableRecord
  2
ACAD_MLEADERVER
 70
     0
  0
ENDTAB
  0
TABLE
  2
DIMSTYLE
  5
A
330
0
100
AcDbSymbolTable
 70
     1
100
AcDbDimStyleTable
  0
DIMSTYLE
105
27
330
A
100
AcDbSymbolTableRecord
100
AcDbDimStyleTableRecord
  2
ISO-25
 70
     0
 41
2.5
 42
0.625
 43
3.75
 44
1.25
 73
     0
 74
     0
 77
     1
 78
     8
140
2.5
141
2.5
143
0.0393700787
147
0.625
171
     3
172
     1
178
     0
271
     2
272
     2
274
     3
278
    44
283
     0
284
     8
340
11
  0
ENDTAB
  0
TABLE
  2
BLOCK_RECORD
  5
1
330
0
100
AcDbSymbolTable
 70
     1
  0
BLOCK_RECORD
  5
1F
330
1
100
AcDbSymbolTableRecord
100
AcDbBlockTableRecord
  2
*Model_Space
340
22
  0
BLOCK_RECORD
  5
1B
330
1
100
AcDbSymbolTableRecord
100
AcDbBlockTableRecord
  2
*Paper_Space
340
1E
  0
BLOCK_RECORD
  5
23
330
1
100
AcDbSymbolTableRecord
100
AcDbBlockTableRecord
  2
*Paper_Space0
340
26
  0
ENDTAB
  0
ENDSEC
  0
SECTION
  2
BLOCKS
  0
BLOCK
  5
20
330
1F
100
AcDbEntity
  8
0
100
AcDbBlockBegin
  2
*Model_Space
 70
     0
 10
0.0
 20
0.0
 30
0.0
  3
*Model_Space
  1

  0
ENDBLK
  5
21
330
1F
100
AcDbEntity
  8
0
100
AcDbBlockEnd
  0
BLOCK
  5
1C
330
1B
100
AcDbEntity
 67
     1
  8
0
100
AcDbBlockBegin
  2
*Paper_Space
 70
     0
 10
0.0
 20
0.0
 30
0.0
  3
*Paper_Space
  1

  0
ENDBLK
  5
1D
330
1B
100
AcDbEntity
 67
     1
  8
0
100
AcDbBlockEnd
  0
BLOCK
  5
24
330
23
100
AcDbEntity
  8
0
100
AcDbBlockBegin
  2
*Paper_Space0
 70
     0
 10
0.0
 20
0.0
 30
0.0
  3
*Paper_Space0
  1

  0
ENDBLK
  5
25
330
23
100
AcDbEntity
  8
0
100
AcDbBlockEnd
  0
ENDSEC
  0
SECTION
  2
ENTITIES
  0
LINE
  5
79
330
1F
100
AcDbEntity
  8
SLD-0
  6
SLD-1点鎖線(中心線)
 62
     7
370
    18
100
AcDbLine
 10
538.5905118643
 20
218.1704450222
 30
0.0
 11
574.9392261162
 21
218.1704450222
 31
0.0
  0
LINE
  5
7A
330
1F
100
AcDbEntity
  8
SLD-0
  6
SLD-実線
 62
     7
370
    18
100
AcDbLine
 10
521.9215615828
 20
218.5342950286
 30
0.0
 11
521.9215615828
 21
239.3846135641
 31
0.0
  0
LINE
  5
7B
330
1F
100
AcDbEntity
  8
SLD-0
  6
SLD-実線
 62
     7
370
    18
100
AcDbLine
 10
524.1215616202
 20
241.5846136015
 30
0.0
 11
557.1215621783
 21
241.5846136015
 31
0.0
  0
LINE
  5
7C
330
1F
100
AcDbEntity
  8
SLD-0
  6
SLD-実線
 62
     7
370
    18
100
AcDbLine
 10
557.1215621783
 20
243.5342954527
 30
0.0
 11
534.6215617987
 21
243.5342954527
 31
0.0
  0
LINE
  5
7D
330
1F
100
AcDbEntity
  8
SLD-0
  6
SLD-実線
 62
     7
370
    18
100
AcDbLine
 10
531.4215617445
 20
236.698904427
 30
0.0
 11
531.4215617445
 21
218.5342950286
 31
0.0
  0
LINE
  5
7E
330
1F
100
AcDbEntity
  8
SLD-0
  6
SLD-実線
 62
     7
370
    18
100
AcDbLine
 10
531.4215617445
 20
236.698904427
 30
0.0
 11
557.1215621783
 21
236.698904427
 31
0.0
  0
LINE
  5
7F
330
1F
100
AcDbEntity
  8
SLD-0
  6
SLD-実線
 62
     7
370
    18
100
AcDbLine
 10
557.1215621783
 20
243.5342954527
 30
0.0
 11
579.6215625605
 21
243.5342954527
 31
0.0
  0
LINE
  5
80
330
1F
100
AcDbEntity
  8
SLD-0
  6
SLD-実線
 62
     7
370
    18
100
AcDbLine
 10
590.1215627365
 20
241.5846136015
 30
0.0
 11
557.1215621783
 21
241.5846136015
 31
0.0
  0
LINE
  5
81
330
1F
100
AcDbEntity
  8
SLD-0
  6
SLD-実線
 62
     7
370
    18
100
AcDbLine
 10
582.8215626146
 20
236.698904427
 30
0.0
 11
557.1215621783
 21
236.698904427
 31
0.0
  0
LINE
  5
82
330
1F
100
AcDbEntity
  8
SLD-0
  6
SLD-実線
 62
     7
370
    18
100
AcDbLine
 10
592.3215627739
 20
218.5342950286
 30
0.0
 11
592.3215627739
 21
239.3846135641
 31
0.0
  0
LINE
  5
83
330
1F
100
AcDbEntity
  8
SLD-0
  6
SLD-実線
 62
     7
370
    18
100
AcDbLine
 10
582.8215626146
 20
236.698904427
 30
0.0
 11
582.8215626146
 21
218.5342950286
 31
0.0
  0
LINE
  5
84
330
1F
100
AcDbEntity
  8
SLD-0
  6
SLD-1点鎖線(中心線)
 62
     7
370
    18
100
AcDbLine
 10
557.1215621783
 20
39.7250283679
 30
0.0
 11
557.1215621783
 21
242.0710136091
 31
0.0
  0
LINE
  5
85
330
1F
100
AcDbEntity
  8
SLD-0
  6
SLD-実線
 62
     7
370
    18
100
AcDbLine
 10
581.5888671374
 20
683.2358983489
 30
0.0
 11
581.5888671374
 21
669.2534390216
 31
0.0
  0
LINE
  5
86
330
1F
100
AcDbEntity
  8
SLD-0
  6
SLD-実線
 62
     7
370
    18
100
AcDbLine
 10
578.0072807141
 20
683.2358983489
 30
0.0
 11
578.0072807141
 21
669.2534390216
 31
0.0
  0
LINE
  5
87
330
1F
100
AcDbEntity
  8
SLD-0
  6
SLD-実線
 62
     7
370
    18
100
AcDbLine
 10
536.2358436425
 20
683.2358983489
 30
0.0
 11
536.2358436425
 21
669.2534390216
 31
0.0
  0
LINE
  5
88
330
1F
100
AcDbEntity
  8
SLD-0
  6
SLD-実線
 62
     7
370
    18
100
AcDbLine
 10
532.6542526726
 20
683.2910256225
 30
0.0
 11
532.6542526726
 21
669.2534390216
 31
0.0
  0
LINE
  5
89
330
1F
100
AcDbEntity
  8
SLD-0
  6
SLD-1点鎖線(中心線)
 62
     7
370
    18
100
AcDbLine
 10
533.7492799644
 20
690.6343621093
 30
0.0
 11
526.872002576
 21
690.6343621093
 31
0.0
  0
LINE
  5
8A
330
1F
100
AcDbEntity
  8
SLD-0
  6
SLD-1点鎖線(中心線)
 62
     7
370
    18
100
AcDbLine
 10
530.1215617207
 20
686.7008802252
 30
0.0
 11
530.1215617207
 21
694.3411894454
 31
0.0
  0
LINE
  5
8B
330
1F
100
AcDbEntity
  8
SLD-0
  6
SLD-実線
 62
     7
370
    18
100
AcDbLine
 10
537.621561849
 20
693.4534394302
 30
0.0
 11
576.6215625077
 21
693.4534394302
 31
0.0
  0
LINE
  5
8C
330
1F
100
AcDbEntity
  8
SLD-0
  6
SLD-1点鎖線(中心線)
 62
     7
370
    18
100
AcDbLine
 10
587.7492808796
 20
690.6343621093
 30
0.0
 11
580.8720034886
 21
690.6343621093
 31
0.0
  0
LINE
  5
8D
330
1F
100
AcDbEntity
  8
SLD-0
  6
SLD-1点鎖線(中心線)
 62
     7
370
    18
100
AcDbLine
 10
584.1215626359
 20
686.7008802252
 30
0.0
 11
584.1215626359
 21
694.3411894454
 31
0.0
  0
LINE
  5
8E
330
1F
100
AcDbEntity
  8
SLD-0
  6
SLD-実線
 62
     7
370
    18
100
AcDbLine
 10
581.6215625927
 20
698.4534395153
 30
0.0
 11
581.6215625927
 21
765.5082361064
 31
0.0
  0
LINE
  5
8F
330
1F
100
AcDbEntity
  8
SLD-0
  6
SLD-1点鎖線(中心線)
 62
     7
370
    18
100
AcDbLine
 10
584.1215626359
 20
768.9239861622
 30
0.0
 11
584.1215626359
 21
776.5642953824
 31
0.0
  0
LINE
  5
90
330
1F
100
AcDbEntity
  8
SLD-0
  6
SLD-1点鎖線(中心線)
 62
     7
370
    18
100
AcDbLine
 10
587.7492808796
 20
772.8574680463
 30
0.0
 11
580.8720034886
 21
772.8574680463
 31
0.0
  0
LINE
  5
91
330
1F
100
AcDbEntity
  8
SLD-0
  6
SLD-実線
 62
     7
370
    18
100
AcDbLine
 10
532.6215617652
 20
698.453439514
 30
0.0
 11
532.6215617652
 21
765.5082361052
 31
0.0
  0
LINE
  5
92
330
1F
100
AcDbEntity
  8
SLD-0
  6
SLD-実線
 62
     7
370
    18
100
AcDbLine
 10
576.6215625077
 20
770.508236189
 30
0.0
 11
537.621561849
 21
770.508236189
 31
0.0
  0
LINE
  5
93
330
1F
100
AcDbEntity
  8
SLD-0
  6
SLD-1点鎖線(中心線)
 62
     7
370
    18
100
AcDbLine
 10
530.1215617207
 20
768.9239861622
 30
0.0
 11
530.1215617207
 21
776.5642953824
 31
0.0
  0
LINE
  5
94
330
1F
100
AcDbEntity
  8
SLD-0
  6
SLD-1点鎖線(中心線)
 62
     7
370
    18
100
AcDbLine
 10
533.7492799644
 20
772.8574680463
 30
0.0
 11
526.872002576
 21
772.8574680463
 31
0.0
  0
LINE
  5
95
330
1F
100
AcDbEntity
  8
SLD-0
  6
SLD-1点鎖線(中心線)
 62
     7
370
    18
100
AcDbLine
 10
557.1215621783
 20
314.3527466501
 30
0.0
 11
557.1215621783
 21
819.2619688312
 31
0.0
  0
LINE
  5
96
330
1F
100
AcDbEntity
  8
1
  6
SLD-実線
 62
     7
370
    18
100
AcDbLine
 10
521.9215615828
 20
692.935898512
 30
0.0
 11
521.9215615828
 21
771.0257771072
 31
0.0
  0
LINE
  5
97
330
1F
100
AcDbEntity
  8
1
  6
SLD-実線
 62
     7
370
    18
100
AcDbLine
 10
531.6215617459
 20
683.2358983489
 30
0.0
 11
582.6215626108
 21
683.2358983489
 31
0.0
  0
LINE
  5
98
330
1F
100
AcDbEntity
  8
1
  6
SLD-実線
 62
     7
370
    18
100
AcDbLine
 10
592.3215627739
 20
692.935898512
 30
0.0
 11
592.3215627739
 21
771.0257771072
 31
0.0
  0
LINE
  5
99
330
1F
100
AcDbEntity
  8
1
  6
SLD-実線
 62
     7
370
    18
100
AcDbLine
 10
531.6215617459
 20
780.7257772702
 30
0.0
 11
582.6215626108
 21
780.7257772702
 31
0.0
  0
LINE
  5
9A
330
1F
100
AcDbEntity
  8
SLD-0
  6
SLD-1点鎖線(中心線)
 62
     7
370
    18
100
AcDbLine
 10
539.4088391507
 20
216.0342949867
 30
0.0
 11
575.3127261236
 21
216.0342949867
 31
0.0
  0
LINE
  5
9B
330
1F
100
AcDbEntity
  8
SLD-0
  6
SLD-実線
 62
     7
370
    18
100
AcDbLine
 10
496.1215611458
 20
647.2534386478
 30
0.0
 11
496.1215611458
 21
613.2534380728
 31
0.0
  0
LINE
  5
9C
330
1F
100
AcDbEntity
  8
SLD-0
  6
SLD-実線
 62
     7
370
    18
100
AcDbLine
 10
557.1215621783
 20
660.2534388682
 30
0.0
 11
627.0288769989
 21
660.2534388682
 31
0.0
  0
LINE
  5
9D
330
1F
100
AcDbEntity
  8
SLD-0
  6
SLD-実線
 62
     7
370
    18
100
AcDbLine
 10
575.1215624825
 20
669.2534390216
 30
0.0
 11
618.1215632108
 21
669.2534390216
 31
0.0
  0
LINE
  5
9E
330
1F
100
AcDbEntity
  8
SLD-0
  6
SLD-実線
 62
     7
370
    18
100
AcDbLine
 10
614.6124722433
 20
761.2534405787
 30
0.0
 11
614.7003540614
 21
758.0311359769
 31
0.0
  0
LINE
  5
9F
330
1F
100
AcDbEntity
  8
SLD-0
  6
SLD-実線
 62
     7
370
    18
100
AcDbLine
 10
497.8765789324
 20
696.9374851061
 30
0.0
 11
497.5178425633
 21
683.7837848832
 31
0.0
  0
LINE
  5
A0
330
1F
100
AcDbEntity
  8
SLD-0
  6
SLD-実線
 62
     7
370
    18
100
AcDbLine
 10
499.1215611961
 20
660.2534388682
 30
0.0
 11
496.1215611458
 21
660.2534388682
 31
0.0
  0
LINE
  5
A1
330
1F
100
AcDbEntity
  8
SLD-0
  6
SLD-実線
 62
     7
370
    18
100
AcDbLine
 10
548.6215620359
 20
589.2534376681
 30
0.0
 11
557.1215621783
 21
589.2534376681
 31
0.0
  0
LINE
  5
A2
330
1F
100
AcDbEntity
  8
SLD-0
  6
SLD-実線
 62
     7
370
    18
100
AcDbLine
 10
565.3715623179
 20
589.2534376681
 30
0.0
 11
565.3715623179
 21
590.2534376848
 31
0.0
  0
LINE
  5
A3
330
1F
100
AcDbEntity
  8
SLD-0
  6
SLD-実線
 62
     7
370
    18
100
AcDbLine
 10
565.6215623233
 20
595.2534377686
 30
0.0
 11
565.6215623233
 21
597.2534378021
 31
0.0
  0
LINE
  5
A4
330
1F
100
AcDbEntity
  8
SLD-0
  6
SLD-実線
 62
     7
370
    18
100
AcDbLine
 10
565.6215623233
 20
595.2534377686
 30
0.0
 11
557.1215621783
 21
595.2534377686
 31
0.0
  0
LINE
  5
A5
330
1F
100
AcDbEntity
  8
SLD-0
  6
SLD-実線
 62
     7
370
    18
100
AcDbLine
 10
565.6215623233
 20
589.2534376681
 30
0.0
 11
557.1215621783
 21
589.2534376681
 31
0.0
  0
LINE
  5
A6
330
1F
100
AcDbEntity
  8
SLD-0
  6
SLD-実線
 62
     7
370
    18
100
AcDbLine
 10
618.1215644269
 20
664.2534378426
 30
0.0
 11
623.105387238
 21
667.1308515289
 31
0.0
  0
LINE
  5
A7
330
1F
100
AcDbEntity
  8
SLD-0
  6
SLD-実線
 62
     7
370
    18
100
AcDbLine
 10
621.1370947413
 20
756.8079357329
 30
0.0
 11
623.6049993305
 21
668.024661504
 31
0.0
  0
LINE
  5
A8
330
1F
100
AcDbEntity
  8
SLD-0
  6
SLD-実線
 62
     7
370
    18
100
AcDbLine
 10
568.6215623736
 20
590.2534376848
 30
0.0
 11
568.6215623736
 21
592.7534377267
 31
0.0
  0
LINE
  5
A9
330
1F
100
AcDbEntity
  8
SLD-0
  6
SLD-実線
 62
     7
370
    18
100
AcDbLine
 10
568.6215623736
 20
590.2534376848
 30
0.0
 11
557.1215621783
 21
590.2534376848
 31
0.0
  0
LINE
  5
AA
330
1F
100
AcDbEntity
  8
SLD-0
  6
SLD-実線
 62
     7
370
    18
100
AcDbLine
 10
572.1215624323
 20
592.7534377267
 30
0.0
 11
572.1215624323
 21
594.2534377519
 31
0.0
  0
LINE
  5
AB
330
1F
100
AcDbEntity
  8
SLD-0
  6
SLD-実線
 62
     7
370
    18
100
AcDbLine
 10
572.1215624323
 20
592.7534377267
 30
0.0
 11
557.1215621783
 21
592.7534377267
 31
0.0
  0
LINE
  5
AC
330
1F
100
AcDbEntity
  8
SLD-0
  6
SLD-実線
 62
     7
370
    18
100
AcDbLine
 10
572.1215624323
 20
594.2534377519
 30
0.0
 11
557.1215621783
 21
594.2534377519
 31
0.0
  0
LINE
  5
AD
330
1F
100
AcDbEntity
  8
SLD-0
  6
SLD-実線
 62
     7
370
    18
100
AcDbLine
 10
565.3715623179
 20
594.2534377519
 30
0.0
 11
565.3715623179
 21
595.2534377686
 31
0.0
  0
LINE
  5
AE
330
1F
100
AcDbEntity
  8
SLD-0
  6
SLD-実線
 62
     7
370
    18
100
AcDbLine
 10
497.6215594328
 20
759.9647643191
 30
0.0
 11
493.6056411832
 21
757.6461733708
 31
0.0
  0
LINE
  5
AF
330
1F
100
AcDbEntity
  8
SLD-0
  6
SLD-実線
 62
     7
370
    18
100
AcDbLine
 10
493.106029026
 20
756.8079358477
 30
0.0
 11
490.8693656025
 21
676.3437391412
 31
0.0
  0
LINE
  5
B0
330
1F
100
AcDbEntity
  8
SLD-0
  6
SLD-実線
 62
     7
370
    18
100
AcDbLine
 10
539.1215618741
 20
669.2534390216
 30
0.0
 11
504.8258294751
 21
669.2534390216
 31
0.0
  0
LINE
  5
B1
330
1F
100
AcDbEntity
  8
SLD-0
  6
SLD-実線
 62
     7
370
    18
100
AcDbLine
 10
557.1215621783
 20
660.2534388682
 30
0.0
 11
487.2142428137
 21
660.2534388682
 31
0.0
  0
LINE
  5
B2
330
1F
100
AcDbEntity
  8
SLD-0
  6
SLD-実線
 62
     7
370
    18
100
AcDbLine
 10
548.8715620388
 20
594.2534377519
 30
0.0
 11
548.8715620388
 21
595.2534377686
 31
0.0
  0
LINE
  5
B3
330
1F
100
AcDbEntity
  8
SLD-0
  6
SLD-実線
 62
     7
370
    18
100
AcDbLine
 10
542.1215619244
 20
594.2534377519
 30
0.0
 11
557.1215621783
 21
594.2534377519
 31
0.0
  0
LINE
  5
B4
330
1F
100
AcDbEntity
  8
SLD-0
  6
SLD-実線
 62
     7
370
    18
100
AcDbLine
 10
542.1215619244
 20
592.7534377267
 30
0.0
 11
557.1215621783
 21
592.7534377267
 31
0.0
  0
LINE
  5
B5
330
1F
100
AcDbEntity
  8
SLD-0
  6
SLD-実線
 62
     7
370
    18
100
AcDbLine
 10
542.1215619244
 20
592.7534377267
 30
0.0
 11
542.1215619244
 21
594.2534377519
 31
0.0
  0
LINE
  5
B6
330
1F
100
AcDbEntity
  8
SLD-0
  6
SLD-実線
 62
     7
370
    18
100
AcDbLine
 10
545.621561983
 20
590.2534376848
 30
0.0
 11
557.1215621783
 21
590.2534376848
 31
0.0
  0
LINE
  5
B7
330
1F
100
AcDbEntity
  8
SLD-0
  6
SLD-実線
 62
     7
370
    18
100
AcDbLine
 10
545.621561983
 20
590.2534376848
 30
0.0
 11
545.621561983
 21
592.7534377267
 31
0.0
  0
LINE
  5
B8
330
1F
100
AcDbEntity
  8
SLD-0
  6
SLD-実線
 62
     7
370
    18
100
AcDbLine
 10
548.6215620359
 20
595.2534377686
 30
0.0
 11
557.1215621783
 21
595.2534377686
 31
0.0
  0
LINE
  5
B9
330
1F
100
AcDbEntity
  8
SLD-0
  6
SLD-実線
 62
     7
370
    18
100
AcDbLine
 10
548.6215620359
 20
595.2534377686
 30
0.0
 11
548.6215620359
 21
597.2534378021
 31
0.0
  0
LINE
  5
BA
330
1F
100
AcDbEntity
  8
SLD-0
  6
SLD-実線
 62
     7
370
    18
100
AcDbLine
 10
548.8715620388
 20
589.2534376681
 30
0.0
 11
548.8715620388
 21
590.2534376848
 31
0.0
  0
LINE
  5
BB
330
1F
100
AcDbEntity
  8
SLD-0
  6
SLD-実線
 62
     7
370
    18
100
AcDbLine
 10
557.1215621783
 20
600.2534378524
 30
0.0
 11
487.121560995
 21
600.2534378524
 31
0.0
  0
LINE
  5
BC
330
1F
100
AcDbEntity
  8
SLD-0
  6
SLD-実線
 62
     7
370
    18
100
AcDbLine
 10
557.1215621783
 20
597.2534378021
 30
0.0
 11
481.1215608919
 21
597.2534378021
 31
0.0
  0
LINE
  5
BD
330
1F
100
AcDbEntity
  8
SLD-0
  6
SLD-実線
 62
     7
370
    18
100
AcDbLine
 10
557.1215621783
 20
600.2534378524
 30
0.0
 11
474.6215607829
 21
600.2534378524
 31
0.0
  0
LINE
  5
BE
330
1F
100
AcDbEntity
  8
SLD-0
  6
SLD-実線
 62
     7
370
    18
100
AcDbLine
 10
532.1215617568
 20
479.3534358073
 30
0.0
 11
519.6215615447
 21
479.3534358073
 31
0.0
  0
LINE
  5
BF
330
1F
100
AcDbEntity
  8
SLD-0
  6
SLD-実線
 62
     7
370
    18
100
AcDbLine
 10
539.1215618728
 20
467.3534356049
 30
0.0
 11
532.1215617555
 21
467.3534356049
 31
0.0
  0
LINE
  5
C0
330
1F
100
AcDbEntity
  8
SLD-0
  6
SLD-実線
 62
     7
370
    18
100
AcDbLine
 10
540.1215618896
 20
468.3534356217
 30
0.0
 11
540.1215618896
 21
471.353435672
 31
0.0
  0
LINE
  5
C1
330
1F
100
AcDbEntity
  8
SLD-0
  6
SLD-実線
 62
     7
370
    18
100
AcDbLine
 10
527.1215616704
 20
451.353435333
 30
0.0
 11
527.1215616704
 21
462.3534355199
 31
0.0
  0
LINE
  5
C2
330
1F
100
AcDbEntity
  8
SLD-0
  6
SLD-実線
 62
     7
370
    18
100
AcDbLine
 10
533.6215617819
 20
451.353435333
 30
0.0
 11
533.6215617819
 21
453.3534353665
 31
0.0
  0
LINE
  5
C3
330
1F
100
AcDbEntity
  8
SLD-0
  6
SLD-実線
 62
     7
370
    18
100
AcDbLine
 10
538.6215618657
 20
453.3534353665
 30
0.0
 11
533.6215617819
 21
453.3534353665
 31
0.0
  0
LINE
  5
C4
330
1F
100
AcDbEntity
  8
SLD-0
  6
SLD-実線
 62
     7
370
    18
100
AcDbLine
 10
538.6215618657
 20
450.3534353162
 30
0.0
 11
538.6215618657
 21
453.3534353665
 31
0.0
  0
LINE
  5
C5
330
1F
100
AcDbEntity
  8
SLD-0
  6
SLD-実線
 62
     7
370
    18
100
AcDbLine
 10
557.1215621783
 20
427.3534349282
 30
0.0
 11
483.1215609254
 21
427.3534349282
 31
0.0
  0
LINE
  5
C6
330
1F
100
AcDbEntity
  8
SLD-0
  6
SLD-実線
 62
     7
370
    18
100
AcDbLine
 10
557.1215621783
 20
425.0534348876
 30
0.0
 11
483.1215609254
 21
425.0534348876
 31
0.0
  0
LINE
  5
C7
330
1F
100
AcDbEntity
  8
SLD-0
  6
SLD-実線
 62
     7
370
    18
100
AcDbLine
 10
545.3688710711
 20
421.0534348206
 30
0.0
 11
541.3688710041
 21
425.0534348876
 31
0.0
  0
LINE
  5
C8
330
1F
100
AcDbEntity
  8
SLD-0
  6
SLD-実線
 62
     7
370
    18
100
AcDbLine
 10
545.3688710711
 20
421.0534348206
 30
0.0
 11
557.1215621783
 21
421.0534348206
 31
0.0
  0
LINE
  5
C9
330
1F
100
AcDbEntity
  8
SLD-0
  6
SLD-1点鎖線(中心線)
 62
     7
370
    18
100
AcDbLine
 10
557.1215621783
 20
414.3527483439
 30
0.0
 11
557.1215621783
 21
817.5725415319
 31
0.0
  0
LINE
  5
CA
330
1F
100
AcDbEntity
  8
SLD-0
  6
SLD-1点鎖線(中心線)
 62
     7
370
    18
100
AcDbLine
 10
557.1215621783
 20
39.7250283679
 30
0.0
 11
557.1215621783
 21
242.0710136091
 31
0.0
  0
LINE
  5
CB
330
1F
100
AcDbEntity
  8
SLD-0
  6
SLD-実線
 62
     7
370
    18
100
AcDbLine
 10
494.2539792955
 20
672.2534390718
 30
0.0
 11
487.3656746342
 21
672.2534390718
 31
0.0
  0
LINE
  5
CC
330
1F
100
AcDbEntity
  8
SLD-0
  6
SLD-実線
 62
     7
370
    18
100
AcDbLine
 10
504.8258294751
 20
692.7028939641
 30
0.0
 11
504.8258294751
 21
647.2534386478
 31
0.0
  0
LINE
  5
CD
330
1F
100
AcDbEntity
  8
SLD-0
  6
SLD-実線
 62
     7
370
    18
100
AcDbLine
 10
494.1025474749
 20
671.4900299687
 30
0.0
 11
494.1025474749
 21
647.2534386478
 31
0.0
  0
LINE
  5
CE
330
1F
100
AcDbEntity
  8
SLD-0
  6
SLD-実線
 62
     7
370
    18
100
AcDbLine
 10
487.2142428137
 20
671.4900299687
 30
0.0
 11
487.2142428137
 21
649.2534386813
 31
0.0
  0
LINE
  5
CF
330
1F
100
AcDbEntity
  8
SLD-0
  6
SLD-実線
 62
     7
370
    18
100
AcDbLine
 10
504.8258290496
 20
684.2534394379
 30
0.0
 11
494.6112288769
 21
672.8226846972
 31
0.0
  0
LINE
  5
D0
330
1F
100
AcDbEntity
  8
SLD-0
  6
SLD-実線
 62
     7
370
    18
100
AcDbLine
 10
497.5178425633
 20
683.7837848832
 30
0.0
 11
487.7229242156
 21
672.8226846972
 31
0.0
  0
LINE
  5
D1
330
1F
100
AcDbEntity
  8
SLD-0
  6
SLD-実線
 62
     7
370
    18
100
AcDbLine
 10
627.0288769989
 20
672.2534390718
 30
0.0
 11
627.0288769989
 21
649.2534386813
 31
0.0
  0
LINE
  5
D2
330
1F
100
AcDbEntity
  8
SLD-0
  6
SLD-実線
 62
     7
370
    18
100
AcDbLine
 10
627.0288769989
 20
672.2534390718
 30
0.0
 11
623.3691223906
 21
676.5104527803
 31
0.0
  0
LINE
  5
D3
330
1F
100
AcDbEntity
  8
SLD-0
  6
SLD-実線
 62
     7
370
    18
100
AcDbLine
 10
575.1215624825
 20
660.2534388682
 30
0.0
 11
575.1215624825
 21
683.2358983489
 31
0.0
  0
LINE
  5
D4
330
1F
100
AcDbEntity
  8
SLD-0
  6
SLD-実線
 62
     7
370
    18
100
AcDbLine
 10
539.1215618741
 20
660.2534388682
 30
0.0
 11
539.1215618741
 21
683.2358983489
 31
0.0
  0
LINE
  5
D5
330
1F
100
AcDbEntity
  8
SLD-0
  6
SLD-実線
 62
     7
370
    18
100
AcDbLine
 10
504.8258294751
 20
647.2534386478
 30
0.0
 11
489.2142428472
 21
647.2534386478
 31
0.0
  0
LINE
  5
D6
330
1F
100
AcDbEntity
  8
SLD-0
  6
SLD-実線
 62
     7
370
    18
100
AcDbLine
 10
618.1215632108
 20
647.2534386478
 30
0.0
 11
625.0288769654
 21
647.2534386478
 31
0.0
  0
LINE
  5
D7
330
1F
100
AcDbEntity
  8
SLD-0
  6
SLD-1点鎖線(中心線)
 62
     7
370
    18
100
AcDbLine
 10
488.1215610117
 20
418.3877620468
 30
0.0
 11
488.1215610117
 21
429.4583895092
 31
0.0
  0
LINE
  5
D8
330
1F
100
AcDbEntity
  8
SLD-0
  6
SLD-実線
 62
     7
370
    18
100
AcDbLine
 10
484.6215609505
 20
420.5534348122
 30
0.0
 11
484.6215609505
 21
425.0534348876
 31
0.0
  0
LINE
  5
D9
330
1F
100
AcDbEntity
  8
SLD-0
  6
SLD-実線
 62
     7
370
    18
100
AcDbLine
 10
484.6215609505
 20
420.5534348122
 30
0.0
 11
491.6215610704
 21
420.5534348122
 31
0.0
  0
LINE
  5
DA
330
1F
100
AcDbEntity
  8
SLD-0
  6
SLD-実線
 62
     7
370
    18
100
AcDbLine
 10
491.6215610704
 20
420.5534348122
 30
0.0
 11
491.6215610704
 21
425.0534348876
 31
0.0
  0
LINE
  5
DB
330
1F
100
AcDbEntity
  8
SLD-0
  6
SLD-実線
 62
     7
370
    18
100
AcDbLine
 10
499.6306516905
 20
761.2534407411
 30
0.0
 11
497.5178425633
 21
683.7837848832
 31
0.0
  0
LINE
  5
DC
330
1F
100
AcDbEntity
  8
SLD-0
  6
SLD-実線
 62
     7
370
    18
100
AcDbLine
 10
498.1215606552
 20
760.8307909056
 30
0.0
 11
498.1215606552
 21
761.2534409138
 31
0.0
  0
LINE
  5
DD
330
1F
100
AcDbEntity
  8
SLD-0
  6
SLD-実線
 62
     7
370
    18
100
AcDbLine
 10
616.1215631773
 20
760.8307905706
 30
0.0
 11
616.1215631773
 21
761.2534405787
 31
0.0
  0
LINE
  5
DE
330
1F
100
AcDbEntity
  8
SLD-0
  6
SLD-実線
 62
     7
370
    18
100
AcDbLine
 10
616.6215643998
 20
759.964763984
 30
0.0
 11
620.6374826494
 21
757.6461730358
 31
0.0
  0
LINE
  5
DF
330
1F
100
AcDbEntity
  8
SLD-0
  6
SLD-実線
 62
     7
370
    18
100
AcDbLine
 10
587.3225399627
 20
669.2534390216
 30
0.0
 11
587.3225399627
 21
683.2358983489
 31
0.0
  0
LINE
  5
E0
330
1F
100
AcDbEntity
  8
SLD-0
  6
SLD-実線
 62
     7
370
    18
100
AcDbLine
 10
591.9562764051
 20
669.2534390216
 30
0.0
 11
591.9562764051
 21
690.2990348322
 31
0.0
  0
LINE
  5
E1
330
1F
100
AcDbEntity
  8
SLD-0
  6
SLD-実線
 62
     7
370
    18
100
AcDbLine
 10
602.7073174963
 20
761.2534405787
 30
0.0
 11
602.7073174963
 21
669.2534390216
 31
0.0
  0
LINE
  5
E2
330
1F
100
AcDbEntity
  8
SLD-0
  6
SLD-実線
 62
     7
370
    18
100
AcDbLine
 10
599.8788901738
 20
761.2534405787
 30
0.0
 11
599.8788901738
 21
669.2534390216
 31
0.0
  0
LINE
  5
E3
330
1F
100
AcDbEntity
  8
SLD-0
  6
SLD-実線
 62
     7
370
    18
100
AcDbLine
 10
595.9876173823
 20
761.2534405787
 30
0.0
 11
595.9876173823
 21
669.2534390216
 31
0.0
  0
LINE
  5
E4
330
1F
100
AcDbEntity
  8
SLD-0
  6
SLD-実線
 62
     7
370
    18
100
AcDbLine
 10
610.7964779529
 20
756.3667592182
 30
0.0
 11
610.7964779529
 21
669.2534395641
 31
0.0
  0
LINE
  5
E5
330
1F
100
AcDbEntity
  8
SLD-0
  6
SLD-実線
 62
     7
370
    18
100
AcDbLine
 10
604.3737857052
 20
761.2534405787
 30
0.0
 11
604.3737857052
 21
669.2534390216
 31
0.0
  0
LINE
  5
E6
330
1F
100
AcDbEntity
  8
SLD-0
  6
SLD-実線
 62
     7
370
    18
100
AcDbLine
 10
607.1027312074
 20
760.6205496576
 30
0.0
 11
607.1027312074
 21
761.2534405787
 31
0.0
  0
LINE
  5
E7
330
1F
100
AcDbEntity
  8
SLD-0
  6
SLD-実線
 62
     7
370
    18
100
AcDbLine
 10
522.2868434075
 20
669.2534390216
 30
0.0
 11
522.2868434075
 21
690.2990348322
 31
0.0
  0
LINE
  5
E8
330
1F
100
AcDbEntity
  8
SLD-0
  6
SLD-実線
 62
     7
370
    18
100
AcDbLine
 10
514.3642341829
 20
761.2534405787
 30
0.0
 11
514.3642341829
 21
669.2534390216
 31
0.0
  0
LINE
  5
E9
330
1F
100
AcDbEntity
  8
SLD-0
  6
SLD-実線
 62
     7
370
    18
100
AcDbLine
 10
511.5358068628
 20
761.2534405787
 30
0.0
 11
511.5358068628
 21
669.2534390216
 31
0.0
  0
LINE
  5
EA
330
1F
100
AcDbEntity
  8
SLD-0
  6
SLD-実線
 62
     7
370
    18
100
AcDbLine
 10
518.2555069743
 20
761.2534405787
 30
0.0
 11
518.2555069743
 21
669.2534390216
 31
0.0
  0
LINE
  5
EB
330
1F
100
AcDbEntity
  8
SLD-0
  6
SLD-実線
 62
     7
370
    18
100
AcDbLine
 10
526.920584394
 20
669.2534390216
 30
0.0
 11
526.920584394
 21
684.4511574602
 31
0.0
  0
LINE
  5
EC
330
1F
100
AcDbEntity
  8
SLD-0
  6
SLD-実線
 62
     7
370
    18
100
AcDbLine
 10
616.2498561839
 20
669.2534400367
 30
0.0
 11
616.2498561839
 21
756.3233096914
 31
0.0
  0
LINE
  5
ED
330
1F
100
AcDbEntity
  8
SLD-0
  6
SLD-実線
 62
     7
370
    18
100
AcDbLine
 10
609.3919085188
 20
761.2534405787
 30
0.0
 11
609.3919085188
 21
758.0899450693
 31
0.0
  0
LINE
  5
EE
330
1F
100
AcDbEntity
  8
SLD-0
  6
SLD-実線
 62
     7
370
    18
100
AcDbLine
 10
611.979049471
 20
760.663995113
 30
0.0
 11
611.979049471
 21
761.2534405787
 31
0.0
  0
LINE
  5
EF
330
1F
100
AcDbEntity
  8
SLD-0
  6
SLD-実線
 62
     7
370
    18
100
AcDbLine
 10
612.3594320398
 20
759.8790909142
 30
0.0
 11
615.8694684615
 21
757.10821814
 31
0.0
  0
LINE
  5
F0
330
1F
100
AcDbEntity
  8
SLD-0
  6
SLD-実線
 62
     7
370
    18
100
AcDbLine
 10
610.4706273326
 20
757.1053544145
 30
0.0
 11
607.4285818266
 21
759.881954462
 31
0.0
  0
LINE
  5
F1
330
1F
100
AcDbEntity
  8
SLD-0
  6
SLD-実線
 62
     7
370
    18
100
AcDbLine
 10
520.6215615615
 20
761.2534405787
 30
0.0
 11
493.8215611078
 21
761.2534405787
 31
0.0
  0
LINE
  5
F2
330
1F
100
AcDbEntity
  8
SLD-0
  6
SLD-実線
 62
     7
370
    18
100
AcDbLine
 10
557.1215592166
 20
811.2534429667
 30
0.0
 11
513.2515584757
 21
811.2534429667
 31
0.0
  0
LINE
  5
F3
330
1F
100
AcDbEntity
  8
SLD-0
  6
SLD-実線
 62
     7
370
    18
100
AcDbLine
 10
493.8215611078
 20
761.2534405787
 30
0.0
 11
493.8215611078
 21
795.123441152
 31
0.0
  0
LINE
  5
F4
330
1F
100
AcDbEntity
  8
SLD-0
  6
SLD-実線
 62
     7
370
    18
100
AcDbLine
 10
512.1215584561
 20
807.5137247197
 30
0.0
 11
512.1215584561
 21
810.1234429471
 31
0.0
  0
LINE
  5
F5
330
1F
100
AcDbEntity
  8
SLD-0
  6
SLD-実線
 62
     7
370
    18
100
AcDbLine
 10
511.9083477764
 20
807.1041504443
 30
0.0
 11
496.4119338798
 21
796.2534411704
 31
0.0
  0
LINE
  5
F6
330
1F
100
AcDbEntity
  8
SLD-0
  6
SLD-実線
 62
     7
370
    18
100
AcDbLine
 10
557.1215621783
 20
796.2534411704
 30
0.0
 11
494.9515611261
 21
796.2534411704
 31
0.0
  0
LINE
  5
F7
330
1F
100
AcDbEntity
  8
SLD-0
  6
SLD-実線
 62
     7
370
    18
100
AcDbLine
 10
557.1215621783
 20
807.2534413573
 30
0.0
 11
512.048470506
 21
807.2534413573
 31
0.0
  0
LINE
  5
F8
330
1F
100
AcDbEntity
  8
SLD-0
  6
SLD-実線
 62
     7
370
    18
100
AcDbLine
 10
557.1215621783
 20
796.2534411704
 30
0.0
 11
619.2915632305
 21
796.2534411704
 31
0.0
  0
LINE
  5
F9
330
1F
100
AcDbEntity
  8
SLD-0
  6
SLD-実線
 62
     7
370
    18
100
AcDbLine
 10
620.4215632489
 20
761.2534405787
 30
0.0
 11
620.4215632489
 21
795.123441152
 31
0.0
  0
LINE
  5
FA
330
1F
100
AcDbEntity
  8
SLD-0
  6
SLD-実線
 62
     7
370
    18
100
AcDbLine
 10
557.1215621783
 20
807.2534413573
 30
0.0
 11
602.194649304
 21
807.2534413573
 31
0.0
  0
LINE
  5
FB
330
1F
100
AcDbEntity
  8
SLD-0
  6
SLD-実線
 62
     7
370
    18
100
AcDbLine
 10
602.3347681633
 20
807.1041515137
 30
0.0
 11
617.8311866091
 21
796.2534422398
 31
0.0
  0
LINE
  5
FC
330
1F
100
AcDbEntity
  8
SLD-0
  6
SLD-実線
 62
     7
370
    18
100
AcDbLine
 10
602.1215599784
 20
807.513724721
 30
0.0
 11
602.1215599784
 21
810.1234429483
 31
0.0
  0
LINE
  5
FD
330
1F
100
AcDbEntity
  8
SLD-0
  6
SLD-実線
 62
     7
370
    18
100
AcDbLine
 10
557.1215592166
 20
811.2534429667
 30
0.0
 11
600.9915599601
 21
811.2534429667
 31
0.0
  0
LINE
  5
FE
330
1F
100
AcDbEntity
  8
SLD-0
  6
SLD-実線
 62
     7
370
    18
100
AcDbLine
 10
593.1429718803
 20
761.2534405787
 30
0.0
 11
620.4215632489
 21
761.2534405787
 31
0.0
  0
LINE
  5
FF
330
1F
100
AcDbEntity
  8
SLD-0
  6
SLD-1点鎖線(中心線)
 62
     7
370
    18
100
AcDbLine
 10
618.1432223014
 20
775.7534408243
 30
0.0
 11
623.605008759
 21
775.7534408243
 31
0.0
  0
LINE
  5
100
330
1F
100
AcDbEntity
  8
SLD-0
  6
SLD-実線
 62
     7
370
    18
100
AcDbLine
 10
557.1215621783
 20
610.2534380226
 30
0.0
 11
476.6215608164
 21
610.2534380226
 31
0.0
  0
LINE
  5
101
330
1F
100
AcDbEntity
  8
SLD-0
  6
SLD-実線
 62
     7
370
    18
100
AcDbLine
 10
474.6215607829
 20
600.2534378524
 30
0.0
 11
474.6215607829
 21
608.253437989
 31
0.0
  0
LINE
  5
102
330
1F
100
AcDbEntity
  8
SLD-0
  6
SLD-実線
 62
     7
370
    18
100
AcDbLine
 10
481.1215608919
 20
597.2534378021
 30
0.0
 11
481.1215608919
 21
600.2534378524
 31
0.0
  0
LINE
  5
103
330
1F
100
AcDbEntity
  8
SLD-0
  6
SLD-実線
 62
     7
370
    18
100
AcDbLine
 10
633.1215634648
 20
597.2534378021
 30
0.0
 11
633.1215634648
 21
600.2534378524
 31
0.0
  0
LINE
  5
104
330
1F
100
AcDbEntity
  8
SLD-0
  6
SLD-実線
 62
     7
370
    18
100
AcDbLine
 10
557.1215621783
 20
597.2534378021
 30
0.0
 11
633.1215634648
 21
597.2534378021
 31
0.0
  0
LINE
  5
105
330
1F
100
AcDbEntity
  8
SLD-0
  6
SLD-実線
 62
     7
370
    18
100
AcDbLine
 10
557.1215621783
 20
610.2534380226
 30
0.0
 11
637.6215635402
 21
610.2534380226
 31
0.0
  0
LINE
  5
106
330
1F
100
AcDbEntity
  8
SLD-0
  6
SLD-実線
 62
     7
370
    18
100
AcDbLine
 10
639.6215635737
 20
600.2534378524
 30
0.0
 11
639.6215635737
 21
608.253437989
 31
0.0
  0
LINE
  5
107
330
1F
100
AcDbEntity
  8
SLD-0
  6
SLD-実線
 62
     7
370
    18
100
AcDbLine
 10
557.1215621783
 20
600.2534378524
 30
0.0
 11
639.6215635737
 21
600.2534378524
 31
0.0
  0
LINE
  5
108
330
1F
100
AcDbEntity
  8
SLD-0
  6
SLD-実線
 62
     7
370
    18
100
AcDbLine
 10
618.1215632108
 20
669.2534390216
 30
0.0
 11
618.1215632108
 21
613.2534380728
 31
0.0
  0
LINE
  5
109
330
1F
100
AcDbEntity
  8
SLD-0
  6
SLD-実線
 62
     7
370
    18
100
AcDbLine
 10
472.6215607507
 20
111.0342932104
 30
0.0
 11
459.1215605219
 21
111.0342932104
 31
0.0
  0
LINE
  5
10A
330
1F
100
AcDbEntity
  8
SLD-0
  6
SLD-実線
 62
     7
370
    18
100
AcDbLine
 10
472.6215607507
 20
161.034294056
 30
0.0
 11
459.1215605219
 21
161.034294056
 31
0.0
  0
LINE
  5
10B
330
1F
100
AcDbEntity
  8
SLD-0
  6
SLD-実線
 62
     7
370
    18
100
AcDbLine
 10
457.1215604871
 20
113.0342932452
 30
0.0
 11
457.1215604871
 21
159.0342940212
 31
0.0
  0
LINE
  5
10C
330
1F
100
AcDbEntity
  8
SLD-0
  6
SLD-1点鎖線(中心線)
 62
     7
370
    18
100
AcDbLine
 10
674.3975959824
 20
136.0342936332
 30
0.0
 11
448.8252421648
 21
136.0342936332
 31
0.0
  0
LINE
  5
10D
330
1F
100
AcDbEntity
  8
SLD-0
  6
SLD-破線
 62
     7
370
    18
100
AcDbLine
 10
474.6215607829
 20
151.28429389
 30
0.0
 11
457.1215604871
 21
151.28429389
 31
0.0
  0
LINE
  5
10E
330
1F
100
AcDbEntity
  8
SLD-0
  6
SLD-破線
 62
     7
370
    18
100
AcDbLine
 10
474.6215607829
 20
152.6587939147
 30
0.0
 11
457.1215604871
 21
152.6587939147
 31
0.0
  0
LINE
  5
10F
330
1F
100
AcDbEntity
  8
SLD-0
  6
SLD-破線
 62
     7
370
    18
100
AcDbLine
 10
474.6215607829
 20
119.4097933516
 30
0.0
 11
457.1215604871
 21
119.4097933516
 31
0.0
  0
LINE
  5
110
330
1F
100
AcDbEntity
  8
SLD-0
  6
SLD-破線
 62
     7
370
    18
100
AcDbLine
 10
474.6215607829
 20
120.7842933763
 30
0.0
 11
457.1215604871
 21
120.7842933763
 31
0.0
  0
LINE
  5
111
330
1F
100
AcDbEntity
  8
SLD-0
  6
SLD-実線
 62
     7
370
    18
100
AcDbLine
 10
483.1215609254
 20
425.0534348876
 30
0.0
 11
483.1215609254
 21
596.2534377854
 31
0.0
  0
LINE
  5
112
330
1F
100
AcDbEntity
  8
SLD-0
  6
SLD-実線
 62
     7
370
    18
100
AcDbLine
 10
508.6215613578
 20
455.3534354
 30
0.0
 11
508.6215613578
 21
488.2534359575
 31
0.0
  0
LINE
  5
113
330
1F
100
AcDbEntity
  8
SLD-0
  6
SLD-実線
 62
     7
370
    18
100
AcDbLine
 10
605.6215629988
 20
455.3534354
 30
0.0
 11
605.6215629988
 21
488.2534359575
 31
0.0
  0
LINE
  5
114
330
1F
100
AcDbEntity
  8
SLD-0
  6
SLD-実線
 62
     7
370
    18
100
AcDbLine
 10
624.1215633127
 20
440.3534351473
 30
0.0
 11
624.1215633127
 21
596.2534377867
 31
0.0
  0
LINE
  5
115
330
1F
100
AcDbEntity
  8
SLD-0
  6
SLD-実線
 62
     7
370
    18
100
AcDbLine
 10
557.1215621783
 20
450.3534353162
 30
0.0
 11
613.121563127
 21
450.3534353162
 31
0.0
  0
LINE
  5
116
330
1F
100
AcDbEntity
  8
SLD-0
  6
SLD-実線
 62
     7
370
    18
100
AcDbLine
 10
557.1215621783
 20
450.3534353162
 30
0.0
 11
491.121561062
 21
450.3534353162
 31
0.0
  0
LINE
  5
117
330
1F
100
AcDbEntity
  8
SLD-0
  6
SLD-実線
 62
     7
370
    18
100
AcDbLine
 10
582.1215626024
 20
479.3534358073
 30
0.0
 11
594.6215628144
 21
479.3534358073
 31
0.0
  0
LINE
  5
118
330
1F
100
AcDbEntity
  8
SLD-0
  6
SLD-実線
 62
     7
370
    18
100
AcDbLine
 10
574.1215624658
 20
468.3534356204
 30
0.0
 11
574.1215624658
 21
471.3534356707
 31
0.0
  0
LINE
  5
119
330
1F
100
AcDbEntity
  8
SLD-0
  6
SLD-実線
 62
     7
370
    18
100
AcDbLine
 10
575.1215624825
 20
467.3534356037
 30
0.0
 11
582.1215626024
 21
467.3534356037
 31
0.0
  0
LINE
  5
11A
330
1F
100
AcDbEntity
  8
SLD-0
  6
SLD-実線
 62
     7
370
    18
100
AcDbLine
 10
587.1215626862
 20
451.353435333
 30
0.0
 11
587.1215626862
 21
462.3534355199
 31
0.0
  0
LINE
  5
11B
330
1F
100
AcDbEntity
  8
SLD-0
  6
SLD-実線
 62
     7
370
    18
100
AcDbLine
 10
575.6215624909
 20
450.3534353162
 30
0.0
 11
575.6215624909
 21
453.3534353665
 31
0.0
  0
LINE
  5
11C
330
1F
100
AcDbEntity
  8
SLD-0
  6
SLD-実線
 62
     7
370
    18
100
AcDbLine
 10
575.6215624909
 20
453.3534353665
 30
0.0
 11
580.6215625773
 21
453.3534353665
 31
0.0
  0
LINE
  5
11D
330
1F
100
AcDbEntity
  8
SLD-0
  6
SLD-実線
 62
     7
370
    18
100
AcDbLine
 10
580.6215625773
 20
451.353435333
 30
0.0
 11
580.6215625773
 21
453.3534353665
 31
0.0
  0
LINE
  5
11E
330
1F
100
AcDbEntity
  8
SLD-0
  6
SLD-実線
 62
     7
370
    18
100
AcDbLine
 10
557.1215621783
 20
435.3534350623
 30
0.0
 11
485.1215609589
 21
435.3534350623
 31
0.0
  0
LINE
  5
11F
330
1F
100
AcDbEntity
  8
SLD-0
  6
SLD-実線
 62
     7
370
    18
100
AcDbLine
 10
506.6215613243
 20
568.253437311
 30
0.0
 11
506.6215613243
 21
572.2534373781
 31
0.0
  0
LINE
  5
120
330
1F
100
AcDbEntity
  8
SLD-0
  6
SLD-実線
 62
     7
370
    18
100
AcDbLine
 10
508.6215613578
 20
572.2534373781
 30
0.0
 11
506.6215613243
 21
572.2534373781
 31
0.0
  0
LINE
  5
121
330
1F
100
AcDbEntity
  8
SLD-0
  6
SLD-実線
 62
     7
370
    18
100
AcDbLine
 10
508.6215613578
 20
568.253437311
 30
0.0
 11
506.6215613243
 21
568.253437311
 31
0.0
  0
LINE
  5
122
330
1F
100
AcDbEntity
  8
SLD-0
  6
SLD-実線
 62
     7
370
    18
100
AcDbLine
 10
508.6215613578
 20
572.2534373781
 30
0.0
 11
508.6215613578
 21
592.2534377183
 31
0.0
  0
LINE
  5
123
330
1F
100
AcDbEntity
  8
SLD-0
  6
SLD-実線
 62
     7
370
    18
100
AcDbLine
 10
605.6215629988
 20
568.253437311
 30
0.0
 11
607.6215630323
 21
568.253437311
 31
0.0
  0
LINE
  5
124
330
1F
100
AcDbEntity
  8
SLD-0
  6
SLD-実線
 62
     7
370
    18
100
AcDbLine
 10
607.6215630323
 20
568.253437311
 30
0.0
 11
607.6215630323
 21
572.2534373781
 31
0.0
  0
LINE
  5
125
330
1F
100
AcDbEntity
  8
SLD-0
  6
SLD-実線
 62
     7
370
    18
100
AcDbLine
 10
605.6215629988
 20
572.2534373781
 30
0.0
 11
607.6215630323
 21
572.2534373781
 31
0.0
  0
LINE
  5
126
330
1F
100
AcDbEntity
  8
SLD-0
  6
SLD-実線
 62
     7
370
    18
100
AcDbLine
 10
605.6215629988
 20
572.2534373781
 30
0.0
 11
605.6215629988
 21
592.2534377183
 31
0.0
  0
LINE
  5
127
330
1F
100
AcDbEntity
  8
SLD-0
  6
SLD-実線
 62
     7
370
    18
100
AcDbLine
 10
506.6215613243
 20
488.2534359575
 30
0.0
 11
506.6215613243
 21
492.2534360246
 31
0.0
  0
LINE
  5
128
330
1F
100
AcDbEntity
  8
SLD-0
  6
SLD-実線
 62
     7
370
    18
100
AcDbLine
 10
508.6215613578
 20
492.2534360246
 30
0.0
 11
506.6215613243
 21
492.2534360246
 31
0.0
  0
LINE
  5
129
330
1F
100
AcDbEntity
  8
SLD-0
  6
SLD-実線
 62
     7
370
    18
100
AcDbLine
 10
508.6215613578
 20
488.2534359575
 30
0.0
 11
506.6215613243
 21
488.2534359575
 31
0.0
  0
LINE
  5
12A
330
1F
100
AcDbEntity
  8
SLD-0
  6
SLD-実線
 62
     7
370
    18
100
AcDbLine
 10
508.6215613578
 20
492.2534360246
 30
0.0
 11
508.6215613578
 21
568.253437311
 31
0.0
  0
LINE
  5
12B
330
1F
100
AcDbEntity
  8
SLD-0
  6
SLD-1点鎖線(中心線)
 62
     7
370
    18
100
AcDbLine
 10
510.6853159375
 20
490.253435991
 30
0.0
 11
505.2183294826
 21
490.253435991
 31
0.0
  0
LINE
  5
12C
330
1F
100
AcDbEntity
  8
SLD-0
  6
SLD-1点鎖線(中心線)
 62
     7
370
    18
100
AcDbLine
 10
603.5578038726
 20
490.253435991
 30
0.0
 11
609.0247948741
 21
490.253435991
 31
0.0
  0
LINE
  5
12D
330
1F
100
AcDbEntity
  8
SLD-0
  6
SLD-実線
 62
     7
370
    18
100
AcDbLine
 10
605.6215629988
 20
488.2534359575
 30
0.0
 11
607.6215630323
 21
488.2534359575
 31
0.0
  0
LINE
  5
12E
330
1F
100
AcDbEntity
  8
SLD-0
  6
SLD-実線
 62
     7
370
    18
100
AcDbLine
 10
607.6215630323
 20
488.2534359575
 30
0.0
 11
607.6215630323
 21
492.2534360246
 31
0.0
  0
LINE
  5
12F
330
1F
100
AcDbEntity
  8
SLD-0
  6
SLD-実線
 62
     7
370
    18
100
AcDbLine
 10
605.6215629988
 20
492.2534360246
 30
0.0
 11
607.6215630323
 21
492.2534360246
 31
0.0
  0
LINE
  5
130
330
1F
100
AcDbEntity
  8
SLD-0
  6
SLD-実線
 62
     7
370
    18
100
AcDbLine
 10
605.6215629988
 20
492.2534360246
 30
0.0
 11
605.6215629988
 21
568.253437311
 31
0.0
  0
LINE
  5
131
330
1F
100
AcDbEntity
  8
SLD-0
  6
SLD-実線
 62
     7
370
    18
100
AcDbLine
 10
629.6215634061
 20
420.5534348122
 30
0.0
 11
622.6215632863
 21
420.5534348122
 31
0.0
  0
LINE
  5
132
330
1F
100
AcDbEntity
  8
SLD-0
  6
SLD-実線
 62
     7
370
    18
100
AcDbLine
 10
629.6215634061
 20
420.5534348122
 30
0.0
 11
629.6215634061
 21
425.0534348876
 31
0.0
  0
LINE
  5
133
330
1F
100
AcDbEntity
  8
SLD-0
  6
SLD-1点鎖線(中心線)
 62
     7
370
    18
100
AcDbLine
 10
626.1215633475
 20
418.3877620468
 30
0.0
 11
626.1215633475
 21
429.4583895092
 31
0.0
  0
LINE
  5
134
330
1F
100
AcDbEntity
  8
SLD-0
  6
SLD-実線
 62
     7
370
    18
100
AcDbLine
 10
622.6215632863
 20
420.5534348122
 30
0.0
 11
622.6215632863
 21
425.0534348876
 31
0.0
  0
LINE
  5
135
330
1F
100
AcDbEntity
  8
SLD-0
  6
SLD-実線
 62
     7
370
    18
100
AcDbLine
 10
557.1215621783
 20
425.0534348876
 30
0.0
 11
631.1215634313
 21
425.0534348876
 31
0.0
  0
LINE
  5
136
330
1F
100
AcDbEntity
  8
SLD-0
  6
SLD-実線
 62
     7
370
    18
100
AcDbLine
 10
568.8742532855
 20
421.0534348206
 30
0.0
 11
557.1215621783
 21
421.0534348206
 31
0.0
  0
LINE
  5
137
330
1F
100
AcDbEntity
  8
SLD-0
  6
SLD-実線
 62
     7
370
    18
100
AcDbLine
 10
568.8742532855
 20
421.0534348206
 30
0.0
 11
572.8742533538
 21
425.0534348889
 31
0.0
  0
LINE
  5
138
330
1F
100
AcDbEntity
  8
SLD-0
  6
SLD-実線
 62
     7
370
    18
100
AcDbLine
 10
631.1215634313
 20
425.0534348876
 30
0.0
 11
631.1215634313
 21
433.3534350288
 31
0.0
  0
LINE
  5
139
330
1F
100
AcDbEntity
  8
SLD-0
  6
SLD-実線
 62
     7
370
    18
100
AcDbLine
 10
557.1215621783
 20
435.3534350623
 30
0.0
 11
629.1215633977
 21
435.3534350623
 31
0.0
  0
LINE
  5
13A
330
1F
100
AcDbEntity
  8
SLD-0
  6
SLD-実線
 62
     7
370
    18
100
AcDbLine
 10
557.1215621783
 20
427.3534349282
 30
0.0
 11
631.1215634313
 21
427.3534349282
 31
0.0
  0
LINE
  5
13B
330
1F
100
AcDbEntity
  8
SLD-0
  6
SLD-1点鎖線(中心線)
 62
     7
370
    18
100
AcDbLine
 10
603.5578038726
 20
570.2534373445
 30
0.0
 11
609.0247948741
 21
570.2534373445
 31
0.0
  0
LINE
  5
13C
330
1F
100
AcDbEntity
  8
SLD-0
  6
SLD-1点鎖線(中心線)
 62
     7
370
    18
100
AcDbLine
 10
510.6853159375
 20
570.2534373445
 30
0.0
 11
505.2183294826
 21
570.2534373445
 31
0.0
  0
LINE
  5
13D
330
1F
100
AcDbEntity
  8
SLD-0
  6
SLD-実線
 62
     7
370
    18
100
AcDbLine
 10
618.1215632108
 20
440.3534351461
 30
0.0
 11
618.1215632108
 21
445.3534352324
 31
0.0
  0
LINE
  5
13E
330
1F
100
AcDbEntity
  8
SLD-0
  6
SLD-実線
 62
     7
370
    18
100
AcDbLine
 10
500.6082884944
 20
218.5342950286
 30
0.0
 11
613.6348358622
 21
218.5342950286
 31
0.0
  0
LINE
  5
13F
330
1F
100
AcDbEntity
  8
SLD-0
  6
SLD-実線
 62
     7
370
    18
100
AcDbLine
 10
500.6082884944
 20
53.5342922378
 30
0.0
 11
613.6348358622
 21
53.5342922378
 31
0.0
  0
LINE
  5
140
330
1F
100
AcDbEntity
  8
SLD-0
  6
SLD-実線
 62
     7
370
    18
100
AcDbLine
 10
639.6215635737
 20
79.5210199493
 30
0.0
 11
639.6215635737
 21
192.5475673171
 31
0.0
  0
LINE
  5
141
330
1F
100
AcDbEntity
  8
SLD-0
  6
SLD-実線
 62
     7
370
    18
100
AcDbLine
 10
474.6215607829
 20
79.5210199493
 30
0.0
 11
474.6215607829
 21
192.5475673171
 31
0.0
  0
LINE
  5
142
330
1F
100
AcDbEntity
  8
SLD-0
  6
SLD-1点鎖線(中心線)
 62
     7
370
    18
100
AcDbLine
 10
631.6529270752
 20
61.5029241897
 30
0.0
 11
602.9516720445
 21
90.204183767
 31
0.0
  0
LINE
  5
143
330
1F
100
AcDbEntity
  8
SLD-0
  6
SLD-1点鎖線(中心線)
 62
     7
370
    18
100
AcDbLine
 10
510.6604613923
 20
182.4953944192
 30
0.0
 11
482.1422745451
 21
211.0135767198
 31
0.0
  0
LINE
  5
144
330
1F
100
AcDbEntity
  8
SLD-0
  6
SLD-1点鎖線(中心線)
 62
     7
370
    18
100
AcDbLine
 10
615.6665495331
 20
117.0118705834
 30
0.0
 11
632.1586407221
 21
111.6532659488
 31
0.0
  0
LINE
  5
145
330
1F
100
AcDbEntity
  8
SLD-0
  6
SLD-1点鎖線(中心線)
 62
     7
370
    18
100
AcDbLine
 10
482.4907972796
 20
111.7852886769
 30
0.0
 11
500.1365021228
 21
117.5187251373
 31
0.0
  0
LINE
  5
146
330
1F
100
AcDbEntity
  8
SLD-0
  6
SLD-1点鎖線(中心線)
 62
     7
370
    18
100
AcDbLine
 10
509.4995022817
 20
201.5804311055
 30
0.0
 11
522.2894115888
 21
183.976630809
 31
0.0
  0
LINE
  5
147
330
1F
100
AcDbEntity
  8
SLD-0
  6
SLD-1点鎖線(中心線)
 62
     7
370
    18
100
AcDbLine
 10
604.9220084416
 20
201.8259629284
 30
0.0
 11
592.8509582378
 21
185.211589919
 31
0.0
  0
LINE
  5
148
330
1F
100
AcDbEntity
  8
SLD-0
  6
SLD-実線
 62
     7
370
    18
100
AcDbLine
 10
474.6215607829
 20
605.2534379388
 30
0.0
 11
459.1215605206
 21
605.2534379388
 31
0.0
  0
LINE
  5
149
330
1F
100
AcDbEntity
  8
SLD-0
  6
SLD-実線
 62
     7
370
    18
100
AcDbLine
 10
487.2142428137
 20
655.2534387844
 30
0.0
 11
459.1215605206
 21
655.2534387844
 31
0.0
  0
LINE
  5
14A
330
1F
100
AcDbEntity
  8
SLD-0
  6
SLD-破線
 62
     7
370
    18
100
AcDbLine
 10
474.6215607829
 20
613.6289380788
 30
0.0
 11
457.1215604871
 21
613.6289380788
 31
0.0
  0
LINE
  5
14B
330
1F
100
AcDbEntity
  8
SLD-0
  6
SLD-破線
 62
     7
370
    18
100
AcDbLine
 10
474.6215607829
 20
615.0034381034
 30
0.0
 11
457.1215604871
 21
615.0034381034
 31
0.0
  0
LINE
  5
14C
330
1F
100
AcDbEntity
  8
SLD-0
  6
SLD-破線
 62
     7
370
    18
100
AcDbLine
 10
474.6215607829
 20
646.8779386418
 30
0.0
 11
457.1215604871
 21
646.8779386418
 31
0.0
  0
LINE
  5
14D
330
1F
100
AcDbEntity
  8
SLD-0
  6
SLD-破線
 62
     7
370
    18
100
AcDbLine
 10
474.6215607829
 20
645.5034386197
 30
0.0
 11
457.1215604871
 21
645.5034386197
 31
0.0
  0
LINE
  5
14E
330
1F
100
AcDbEntity
  8
SLD-0
  6
SLD-実線
 62
     7
370
    18
100
AcDbLine
 10
457.1215604871
 20
607.2534379723
 30
0.0
 11
457.1215604871
 21
653.2534387509
 31
0.0
  0
LINE
  5
14F
330
1F
100
AcDbEntity
  8
SLD-0
  6
SLD-1点鎖線(中心線)
 62
     7
370
    18
100
AcDbLine
 10
480.0350063289
 20
630.2534383603
 30
0.0
 11
451.3061785695
 21
630.2534383603
 31
0.0
  0
LINE
  5
150
330
1F
100
AcDbEntity
  8
SLD-0
  6
SLD-実線
 62
     7
370
    18
100
AcDbLine
 10
597.6215628647
 20
455.3534354
 30
0.0
 11
597.6215628647
 21
592.2534377183
 31
0.0
  0
LINE
  5
151
330
1F
100
AcDbEntity
  8
SLD-0
  6
SLD-実線
 62
     7
370
    18
100
AcDbLine
 10
516.6215614945
 20
455.3534354
 30
0.0
 11
516.6215614945
 21
592.2534377183
 31
0.0
  0
LINE
  5
152
330
1F
100
AcDbEntity
  8
SLD-0
  6
SLD-実線
 62
     7
370
    18
100
AcDbLine
 10
548.6215620359
 20
450.3534353162
 30
0.0
 11
548.6215620359
 21
589.2534376681
 31
0.0
  0
LINE
  5
153
330
1F
100
AcDbEntity
  8
SLD-0
  6
SLD-実線
 62
     7
370
    18
100
AcDbLine
 10
565.6215623233
 20
450.3534353162
 30
0.0
 11
565.6215623233
 21
589.2534376681
 31
0.0
  0
LINE
  5
154
330
1F
100
AcDbEntity
  8
SLD-0
  6
SLD-実線
 62
     7
370
    18
100
AcDbLine
 10
539.5215618818
 20
471.9534356823
 30
0.0
 11
532.1215617568
 21
479.3534358073
 31
0.0
  0
LINE
  5
155
330
1F
100
AcDbEntity
  8
SLD-0
  6
SLD-実線
 62
     7
370
    18
100
AcDbLine
 10
574.1215624658
 20
471.3534356707
 30
0.0
 11
582.1215626024
 21
479.3534358073
 31
0.0
  0
LINE
  5
156
330
1F
100
AcDbEntity
  8
SLD-0
  6
SLD-1点鎖線(中心線)
 62
     7
370
    18
100
AcDbLine
 10
548.6538529441
 20
618.2534381566
 30
0.0
 11
566.5464487006
 21
618.2534381566
 31
0.0
  0
ARC
  5
157
330
1F
100
AcDbEntity
  8
SLD-0
  6
SLD-実線
 62
     7
370
    18
100
AcDbCircle
 10
557.1215621783
 20
218.1704450222
 30
0.0
 40
11.00000018616044
100
AcDbArc
 50
1.895526
 51
178.104474
  0
ARC
  5
158
330
1F
100
AcDbEntity
  8
SLD-0
  6
SLD-実線
 62
     7
370
    18
100
AcDbCircle
 10
524.1215616202
 20
239.3846135641
 30
0.0
 40
2.20000003738005
100
AcDbArc
 50
90.0
 51
180.0
  0
ARC
  5
159
330
1F
100
AcDbEntity
  8
SLD-0
  6
SLD-実線
 62
     7
370
    18
100
AcDbCircle
 10
534.6215617987
 20
240.3342953985
 30
0.0
 40
3.200000054144781
100
AcDbArc
 50
90.0
 51
157.000387
  0
ARC
  5
15A
330
1F
100
AcDbEntity
  8
SLD-0
  6
SLD-実線
 62
     7
370
    18
100
AcDbCircle
 10
590.1215627365
 20
239.3846135641
 30
0.0
 40
2.20000003738005
100
AcDbArc
 50
0.0
 51
90.0
  0
ARC
  5
15B
330
1F
100
AcDbEntity
  8
SLD-0
  6
SLD-実線
 62
     7
370
    18
100
AcDbCircle
 10
579.6215625605
 20
240.3342953985
 30
0.0
 40
3.20000005414477
100
AcDbArc
 50
22.999613
 51
90.0
  0
ARC
  5
15C
330
1F
100
AcDbEntity
  8
SLD-0
  6
SLD-実線
 62
     7
370
    18
100
AcDbCircle
 10
537.621561849
 20
698.453439514
 30
0.0
 40
5.000000083799932
100
AcDbArc
 50
180.0
 51
270.0
  0
ARC
  5
15D
330
1F
100
AcDbEntity
  8
SLD-0
  6
SLD-実線
 62
     7
370
    18
100
AcDbCircle
 10
576.6215625077
 20
698.4534395153
 30
0.0
 40
5.000000085070155
100
AcDbArc
 50
270.0
 51
0.0
  0
ARC
  5
15E
330
1F
100
AcDbEntity
  8
SLD-0
  6
SLD-実線
 62
     7
370
    18
100
AcDbCircle
 10
576.6215625077
 20
765.5082361039
 30
0.0
 40
5.000000085070269
100
AcDbArc
 50
0.0000000291
 51
90.0
  0
ARC
  5
15F
330
1F
100
AcDbEntity
  8
SLD-0
  6
SLD-実線
 62
     7
370
    18
100
AcDbCircle
 10
537.621561849
 20
765.5082361052
 30
0.0
 40
5.00000008380016
100
AcDbArc
 50
90.0
 51
180.0
  0
ARC
  5
160
330
1F
100
AcDbEntity
  8
SLD-0
  6
SLD-実線
 62
     7
370
    18
100
AcDbCircle
 10
520.6215615615
 20
766.2534406629
 30
0.0
 40
5.000000084209071
100
AcDbArc
 50
270.0
 51
285.070062
  0
ARC
  5
161
330
1F
100
AcDbEntity
  8
1
  6
SLD-実線
 62
     7
370
    18
100
AcDbCircle
 10
531.6215617459
 20
692.935898512
 30
0.0
 40
9.700000163080063
100
AcDbArc
 50
180.0
 51
270.0
  0
ARC
  5
162
330
1F
100
AcDbEntity
  8
1
  6
SLD-実線
 62
     7
370
    18
100
AcDbCircle
 10
582.6215626108
 20
692.935898512
 30
0.0
 40
9.700000163080063
100
AcDbArc
 50
270.0
 51
0.0
  0
ARC
  5
163
330
1F
100
AcDbEntity
  8
1
  6
SLD-実線
 62
     7
370
    18
100
AcDbCircle
 10
582.6215626108
 20
771.0257771072
 30
0.0
 40
9.700000163080063
100
AcDbArc
 50
0.0
 51
90.0
  0
ARC
  5
164
330
1F
100
AcDbEntity
  8
1
  6
SLD-実線
 62
     7
370
    18
100
AcDbCircle
 10
531.6215617459
 20
771.0257771072
 30
0.0
 40
9.700000163080063
100
AcDbArc
 50
90.0
 51
180.0
  0
ARC
  5
165
330
1F
100
AcDbEntity
  8
SLD-0
  6
SLD-実線
 62
     7
370
    18
100
AcDbCircle
 10
620.1374821235
 20
756.7801493986
 30
0.0
 40
0.9999987329811603
100
AcDbArc
 50
1.5922466343
 51
59.999923298
  0
ARC
  5
166
330
1F
100
AcDbEntity
  8
SLD-0
  6
SLD-実線
 62
     7
370
    18
100
AcDbCircle
 10
622.6053867115
 20
667.9968751672
 30
0.0
 40
0.9999987342860758
100
AcDbArc
 50
300.000076702
 51
1.5922467758
  0
ARC
  5
167
330
1F
100
AcDbEntity
  8
SLD-0
  6
SLD-実線
 62
     7
370
    18
100
AcDbCircle
 10
494.1056417711
 20
756.7801496261
 30
0.0
 40
0.9999988571453053
100
AcDbArc
 50
120.000076702
 51
178.4077600214
  0
ARC
  5
168
330
1F
100
AcDbEntity
  8
SLD-0
  6
SLD-実線
 62
     7
370
    18
100
AcDbCircle
 10
532.1215617555
 20
462.3534355199
 30
0.0
 40
5.000000085069985
100
AcDbArc
 50
90.0
 51
180.0
  0
ARC
  5
169
330
1F
100
AcDbEntity
  8
SLD-0
  6
SLD-実線
 62
     7
370
    18
100
AcDbCircle
 10
539.1215618728
 20
468.3534356217
 30
0.0
 40
1.000000016759941
100
AcDbArc
 50
270.0
 51
0.0
  0
ARC
  5
16A
330
1F
100
AcDbEntity
  8
SLD-0
  6
SLD-実線
 62
     7
370
    18
100
AcDbCircle
 10
532.6215617651
 20
451.353435333
 30
0.0
 40
1.000000016841909
100
AcDbArc
 50
270.0
 51
0.0
  0
ARC
  5
16B
330
1F
100
AcDbEntity
  8
SLD-0
  6
SLD-実線
 62
     7
370
    18
100
AcDbCircle
 10
528.1215616873
 20
451.353435333
 30
0.0
 40
1.000000016841909
100
AcDbArc
 50
180.0
 51
270.0
  0
CIRCLE
  5
16C
330
1F
100
AcDbEntity
  8
SLD-0
  6
SLD-実線
 62
     7
370
    18
100
AcDbCircle
 10
557.1215621783
 20
136.0342936332
 30
0.0
 40
12.50000021154574
  0
ARC
  5
16D
330
1F
100
AcDbEntity
  8
SLD-0
  6
SLD-実線
 62
     7
370
    18
100
AcDbCircle
 10
489.2142428472
 20
649.2534386813
 30
0.0
 40
2.000000033519996
100
AcDbArc
 50
180.0
 51
270.0
  0
ARC
  5
16E
330
1F
100
AcDbEntity
  8
SLD-0
  6
SLD-実線
 62
     7
370
    18
100
AcDbCircle
 10
489.2142426035
 20
671.4900299687
 30
0.0
 40
1.999999789794964
100
AcDbArc
 50
138.215756714
 51
180.0
  0
ARC
  5
16F
330
1F
100
AcDbEntity
  8
SLD-0
  6
SLD-実線
 62
     7
370
    18
100
AcDbCircle
 10
496.1025472647
 20
671.4900299687
 30
0.0
 40
1.999999789795091
100
AcDbArc
 50
138.215756714
 51
180.0
  0
ARC
  5
170
330
1F
100
AcDbEntity
  8
SLD-0
  6
SLD-実線
 62
     7
370
    18
100
AcDbCircle
 10
625.0288769654
 20
649.2534386813
 30
0.0
 40
2.000000033519996
100
AcDbArc
 50
270.0
 51
0.0
  0
ARC
  5
171
330
1F
100
AcDbEntity
  8
SLD-0
  6
SLD-実線
 62
     7
370
    18
100
AcDbCircle
 10
497.1215598291
 20
760.8307909056
 30
0.0
 40
1.000000826147925
100
AcDbArc
 50
299.9999464514
 51
0.0
  0
ARC
  5
172
330
1F
100
AcDbEntity
  8
SLD-0
  6
SLD-実線
 62
     7
370
    18
100
AcDbCircle
 10
617.1215640035
 20
760.8307905706
 30
0.0
 40
1.000000826148052
100
AcDbArc
 50
180.0
 51
240.0000535486
  0
ARC
  5
173
330
1F
100
AcDbEntity
  8
SLD-0
  6
SLD-実線
 62
     7
370
    18
100
AcDbCircle
 10
608.1027315919
 20
760.6205496576
 30
0.0
 40
1.000000384468837
100
AcDbArc
 50
180.0
 51
227.6118607556
  0
ARC
  5
174
330
1F
100
AcDbEntity
  8
SLD-0
  6
SLD-実線
 62
     7
370
    18
100
AcDbCircle
 10
609.7964775693
 20
756.3667592182
 30
0.0
 40
1.000000383612587
100
AcDbArc
 50
0.0
 51
47.6118608631
  0
ARC
  5
175
330
1F
100
AcDbEntity
  8
SLD-0
  6
SLD-実線
 62
     7
370
    18
100
AcDbCircle
 10
612.9790499471
 20
760.663995113
 30
0.0
 40
1.000000476053174
100
AcDbArc
 50
180.0
 51
231.7117841317
  0
ARC
  5
176
330
1F
100
AcDbEntity
  8
SLD-0
  6
SLD-実線
 62
     7
370
    18
100
AcDbCircle
 10
615.249855333
 20
756.3233096914
 30
0.0
 40
1.00000085081179
100
AcDbArc
 50
0.0
 51
51.7121499201
  0
ARC
  5
177
330
1F
100
AcDbEntity
  8
SLD-0
  6
SLD-実線
 62
     7
370
    18
100
AcDbCircle
 10
513.2515584757
 20
810.1234429471
 30
0.0
 40
1.13000001964997
100
AcDbArc
 50
90.0
 51
180.0
  0
ARC
  5
178
330
1F
100
AcDbEntity
  8
SLD-0
  6
SLD-実線
 62
     7
370
    18
100
AcDbCircle
 10
494.9515611261
 20
795.123441152
 30
0.0
 40
1.130000018379974
100
AcDbArc
 50
90.0
 51
180.0
  0
ARC
  5
179
330
1F
100
AcDbEntity
  8
SLD-0
  6
SLD-実線
 62
     7
370
    18
100
AcDbCircle
 10
511.621560329
 20
807.5137247197
 30
0.0
 40
0.4999981270419921
100
AcDbArc
 50
305.0000424515
 51
0.0
  0
ARC
  5
17A
330
1F
100
AcDbEntity
  8
SLD-0
  6
SLD-実線
 62
     7
370
    18
100
AcDbCircle
 10
602.6215594094
 20
807.513724721
 30
0.0
 40
0.4999994309616821
100
AcDbArc
 50
180.0
 51
234.9995307679
  0
ARC
  5
17B
330
1F
100
AcDbEntity
  8
SLD-0
  6
SLD-実線
 62
     7
370
    18
100
AcDbCircle
 10
619.2915632305
 20
795.123441152
 30
0.0
 40
1.130000018380088
100
AcDbArc
 50
0.0
 51
90.0
  0
ARC
  5
17C
330
1F
100
AcDbEntity
  8
SLD-0
  6
SLD-実線
 62
     7
370
    18
100
AcDbCircle
 10
600.9915599601
 20
810.1234429483
 30
0.0
 40
1.130000018380088
100
AcDbArc
 50
0.0
 51
90.0
  0
ARC
  5
17D
330
1F
100
AcDbEntity
  8
SLD-0
  6
SLD-実線
 62
     7
370
    18
100
AcDbCircle
 10
493.1215610953
 20
613.2534380728
 30
0.0
 40
3.0000000505255
100
AcDbArc
 50
270.0
 51
0.0
  0
ARC
  5
17E
330
1F
100
AcDbEntity
  8
SLD-0
  6
SLD-実線
 62
     7
370
    18
100
AcDbCircle
 10
476.6215608164
 20
608.253437989
 30
0.0
 40
2.000000033520109
100
AcDbArc
 50
90.0
 51
180.0
  0
ARC
  5
17F
330
1F
100
AcDbEntity
  8
SLD-0
  6
SLD-実線
 62
     7
370
    18
100
AcDbCircle
 10
637.6215635402
 20
608.253437989
 30
0.0
 40
2.000000033520109
100
AcDbArc
 50
0.0
 51
90.0
  0
ARC
  5
180
330
1F
100
AcDbEntity
  8
SLD-0
  6
SLD-実線
 62
     7
370
    18
100
AcDbCircle
 10
621.1215632614
 20
613.2534380728
 30
0.0
 40
3.000000050525614
100
AcDbArc
 50
180.0
 51
270.0
  0
ARC
  5
181
330
1F
100
AcDbEntity
  8
SLD-0
  6
SLD-実線
 62
     7
370
    18
100
AcDbCircle
 10
459.1215605219
 20
159.0342940212
 30
0.0
 40
2.000000034790048
100
AcDbArc
 50
90.0
 51
180.0
  0
ARC
  5
182
330
1F
100
AcDbEntity
  8
SLD-0
  6
SLD-実線
 62
     7
370
    18
100
AcDbCircle
 10
459.1215605219
 20
113.0342932452
 30
0.0
 40
2.000000034790048
100
AcDbArc
 50
180.0
 51
270.0
  0
ARC
  5
183
330
1F
100
AcDbEntity
  8
SLD-0
  6
SLD-実線
 62
     7
370
    18
100
AcDbCircle
 10
482.1215609085
 20
596.2534377854
 30
0.0
 40
1.000000016841796
100
AcDbArc
 50
0.0
 51
90.0
  0
ARC
  5
184
330
1F
100
AcDbEntity
  8
SLD-0
  6
SLD-実線
 62
     7
370
    18
100
AcDbCircle
 10
521.6215615787
 20
592.2534377183
 30
0.0
 40
5.000000084209319
100
AcDbArc
 50
90.0
 51
180.0
  0
ARC
  5
185
330
1F
100
AcDbEntity
  8
SLD-0
  6
SLD-実線
 62
     7
370
    18
100
AcDbCircle
 10
503.6215612736
 20
592.2534377183
 30
0.0
 40
5.000000084209205
100
AcDbArc
 50
0.0
 51
90.0
  0
ARC
  5
186
330
1F
100
AcDbEntity
  8
SLD-0
  6
SLD-実線
 62
     7
370
    18
100
AcDbCircle
 10
610.6215630843
 20
592.2534377183
 30
0.0
 40
5.000000085479201
100
AcDbArc
 50
90.0
 51
180.0
  0
ARC
  5
187
330
1F
100
AcDbEntity
  8
SLD-0
  6
SLD-実線
 62
     7
370
    18
100
AcDbCircle
 10
592.6215627792
 20
592.2534377183
 30
0.0
 40
5.000000085479314
100
AcDbArc
 50
0.0
 51
90.0
  0
ARC
  5
188
330
1F
100
AcDbEntity
  8
SLD-0
  6
SLD-実線
 62
     7
370
    18
100
AcDbCircle
 10
625.1215633308
 20
596.2534377867
 30
0.0
 40
1.000000018111791
100
AcDbArc
 50
90.0
 51
180.0
  0
ARC
  5
189
330
1F
100
AcDbEntity
  8
SLD-0
  6
SLD-実線
 62
     7
370
    18
100
AcDbCircle
 10
519.6215615447
 20
482.3534358579
 30
0.0
 40
3.0000000505255
100
AcDbArc
 50
180.0
 51
270.0
  0
ARC
  5
18A
330
1F
100
AcDbEntity
  8
SLD-0
  6
SLD-実線
 62
     7
370
    18
100
AcDbCircle
 10
594.6215628144
 20
482.3534358579
 30
0.0
 40
3.0000000505255
100
AcDbArc
 50
270.0
 51
0.0
  0
ARC
  5
18B
330
1F
100
AcDbEntity
  8
SLD-0
  6
SLD-実線
 62
     7
370
    18
100
AcDbCircle
 10
575.1215624825
 20
468.3534356204
 30
0.0
 40
1.000000016760055
100
AcDbArc
 50
180.0
 51
270.0
  0
ARC
  5
18C
330
1F
100
AcDbEntity
  8
SLD-0
  6
SLD-実線
 62
     7
370
    18
100
AcDbCircle
 10
582.1215626024
 20
462.3534355199
 30
0.0
 40
5.000000083799989
100
AcDbArc
 50
0.0
 51
90.0
  0
ARC
  5
18D
330
1F
100
AcDbEntity
  8
SLD-0
  6
SLD-実線
 62
     7
370
    18
100
AcDbCircle
 10
586.1215626694
 20
451.353435333
 30
0.0
 40
1.000000016841852
100
AcDbArc
 50
270.0
 51
0.0
  0
ARC
  5
18E
330
1F
100
AcDbEntity
  8
SLD-0
  6
SLD-実線
 62
     7
370
    18
100
AcDbCircle
 10
581.6215625941
 20
451.353435333
 30
0.0
 40
1.000000016841852
100
AcDbArc
 50
180.0
 51
270.0
  0
ARC
  5
18F
330
1F
100
AcDbEntity
  8
SLD-0
  6
SLD-実線
 62
     7
370
    18
100
AcDbCircle
 10
491.121561062
 20
442.3534351802
 30
0.0
 40
8.0000001360047
100
AcDbArc
 50
90.0
 51
180.0
  0
ARC
  5
190
330
1F
100
AcDbEntity
  8
SLD-0
  6
SLD-実線
 62
     7
370
    18
100
AcDbCircle
 10
485.1215609589
 20
433.3534350286
 30
0.0
 40
2.000000033683705
100
AcDbArc
 50
90.0
 51
180.0
  0
ARC
  5
191
330
1F
100
AcDbEntity
  8
SLD-0
  6
SLD-実線
 62
     7
370
    18
100
AcDbCircle
 10
521.6215615787
 20
455.3534354
 30
0.0
 40
5.000000084209319
100
AcDbArc
 50
180.0
 51
270.0
  0
ARC
  5
192
330
1F
100
AcDbEntity
  8
SLD-0
  6
SLD-実線
 62
     7
370
    18
100
AcDbCircle
 10
503.6215612736
 20
455.3534354
 30
0.0
 40
5.000000084209205
100
AcDbArc
 50
270.0
 51
0.0
  0
ARC
  5
193
330
1F
100
AcDbEntity
  8
SLD-0
  6
SLD-実線
 62
     7
370
    18
100
AcDbCircle
 10
592.6215627792
 20
455.3534354
 30
0.0
 40
5.000000085479201
100
AcDbArc
 50
270.0
 51
0.0
  0
ARC
  5
194
330
1F
100
AcDbEntity
  8
SLD-0
  6
SLD-実線
 62
     7
370
    18
100
AcDbCircle
 10
610.6215630843
 20
455.3534354
 30
0.0
 40
5.000000085479201
100
AcDbArc
 50
180.0
 51
270.0
  0
ARC
  5
195
330
1F
100
AcDbEntity
  8
SLD-0
  6
SLD-実線
 62
     7
370
    18
100
AcDbCircle
 10
629.1215633977
 20
433.3534350288
 30
0.0
 40
2.000000033520109
100
AcDbArc
 50
0.0
 51
90.0
  0
ARC
  5
196
330
1F
100
AcDbEntity
  8
SLD-0
  6
SLD-実線
 62
     7
370
    18
100
AcDbCircle
 10
623.121563295
 20
440.3534351461
 30
0.0
 40
5.000000084209148
100
AcDbArc
 50
180.0
 51
270.0
  0
ARC
  5
197
330
1F
100
AcDbEntity
  8
SLD-0
  6
SLD-実線
 62
     7
370
    18
100
AcDbCircle
 10
613.121563127
 20
445.3534352324
 30
0.0
 40
5.000000083800046
100
AcDbArc
 50
0.0
 51
90.0
  0
ARC
  5
198
330
1F
100
AcDbEntity
  8
SLD-0
  6
SLD-実線
 62
     7
370
    18
100
AcDbCircle
 10
629.1215633977
 20
440.3534351473
 30
0.0
 40
5.000000085069928
100
AcDbArc
 50
180.0
 51
270.0
  0
ARC
  5
199
330
1F
100
AcDbEntity
  8
SLD-0
  6
SLD-実線
 62
     7
370
    18
100
AcDbCircle
 10
557.1215621783
 20
136.0342936332
 30
0.0
 40
100.0000016635732
100
AcDbArc
 50
34.4115086465
 51
55.5884913535
  0
ARC
  5
19A
330
1F
100
AcDbEntity
  8
SLD-0
  6
SLD-実線
 62
     7
370
    18
100
AcDbCircle
 10
557.1215621783
 20
136.0342936332
 30
0.0
 40
100.0000016635732
100
AcDbArc
 50
304.4115086465
 51
325.5884913535
  0
ARC
  5
19B
330
1F
100
AcDbEntity
  8
SLD-0
  6
SLD-実線
 62
     7
370
    18
100
AcDbCircle
 10
557.1215621783
 20
136.0342936332
 30
0.0
 40
100.0000016635732
100
AcDbArc
 50
214.4115086465
 51
235.5884913535
  0
ARC
  5
19C
330
1F
100
AcDbEntity
  8
SLD-0
  6
SLD-実線
 62
     7
370
    18
100
AcDbCircle
 10
557.1215621783
 20
136.0342936332
 30
0.0
 40
100.0000016635733
100
AcDbArc
 50
124.4115086465
 51
145.5884913535
  0
ARC
  5
19D
330
1F
100
AcDbEntity
  8
SLD-0
  6
SLD-実線
 62
     7
370
    18
100
AcDbCircle
 10
472.6215607507
 20
163.0342940897
 30
0.0
 40
2.000000033683619
100
AcDbArc
 50
270.0
 51
0.0
  0
ARC
  5
19E
330
1F
100
AcDbEntity
  8
SLD-0
  6
SLD-実線
 62
     7
370
    18
100
AcDbCircle
 10
472.6215607507
 20
109.0342931767
 30
0.0
 40
2.000000033683676
100
AcDbArc
 50
0.0
 51
90.0
  0
ARC
  5
19F
330
1F
100
AcDbEntity
  8
SLD-0
  6
SLD-1点鎖線(中心線)
 62
     7
370
    18
100
AcDbCircle
 10
557.1215621783
 20
136.0342936332
 30
0.0
 40
69.00000116773235
100
AcDbArc
 50
44.406876
 51
63.365277
  0
CIRCLE
  5
1A0
330
1F
100
AcDbEntity
  8
SLD-0
  6
SLD-実線
 62
     7
370
    18
100
AcDbCircle
 10
557.1215621783
 20
136.0342936332
 30
0.0
 40
74.00000125235067
  0
ARC
  5
1A1
330
1F
100
AcDbEntity
  8
SLD-0
  6
SLD-1点鎖線(中心線)
 62
     7
370
    18
100
AcDbCircle
 10
557.1215621783
 20
136.0342936332
 30
0.0
 40
90.00000152312937
100
AcDbArc
 50
122.905688
 51
148.042479
  0
ARC
  5
1A2
330
1F
100
AcDbEntity
  8
SLD-0
  6
SLD-1点鎖線(中心線)
 62
     7
370
    18
100
AcDbCircle
 10
557.1215621783
 20
136.0342936332
 30
0.0
 40
90.00000152312921
100
AcDbArc
 50
302.377519
 51
327.217906
  0
CIRCLE
  5
1A3
330
1F
100
AcDbEntity
  8
SLD-0
  6
SLD-実線
 62
     7
370
    18
100
AcDbCircle
 10
620.7611723461
 20
72.3946789188
 30
0.0
 40
5.000000084618364
  0
CIRCLE
  5
1A4
330
1F
100
AcDbEntity
  8
SLD-0
  6
SLD-実線
 62
     7
370
    18
100
AcDbCircle
 10
493.4819520105
 20
199.673903801
 30
0.0
 40
5.00000008461825
  0
ARC
  5
1A5
330
1F
100
AcDbEntity
  8
SLD-0
  6
SLD-実線
 62
     7
370
    18
100
AcDbCircle
 10
557.1215621783
 20
136.0342936332
 30
0.0
 40
37.50000063463724
100
AcDbArc
 50
84.301807
 51
104.456615
  0
ARC
  5
1A6
330
1F
100
AcDbEntity
  8
SLD-0
  6
SLD-実線
 62
     7
370
    18
100
AcDbCircle
 10
557.1215621783
 20
136.0342936332
 30
0.0
 40
50.00000084618297
100
AcDbArc
 50
83.610772
 51
114.299132
  0
CIRCLE
  5
1A7
330
1F
100
AcDbEntity
  8
SLD-0
  6
SLD-実線
 62
     7
370
    18
100
AcDbCircle
 10
622.7444632894
 20
114.7121205448
 30
0.0
 40
4.800000081233634
  0
CIRCLE
  5
1A8
330
1F
100
AcDbEntity
  8
SLD-0
  6
SLD-実線
 62
     7
370
    18
100
AcDbCircle
 10
557.1215621783
 20
67.0342924666
 30
0.0
 40
4.80000008123352
  0
CIRCLE
  5
1A9
330
1F
100
AcDbEntity
  8
SLD-0
  6
SLD-実線
 62
     7
370
    18
100
AcDbCircle
 10
491.4986610673
 20
114.7121205448
 30
0.0
 40
4.80000008123352
  0
CIRCLE
  5
1AA
330
1F
100
AcDbEntity
  8
SLD-0
  6
SLD-実線
 62
     7
370
    18
100
AcDbCircle
 10
516.5643796733
 20
191.8564673048
 30
0.0
 40
4.80000008123352
  0
CIRCLE
  5
1AB
330
1F
100
AcDbEntity
  8
SLD-0
  6
SLD-実線
 62
     7
370
    18
100
AcDbCircle
 10
597.6787446833
 20
191.8564673048
 30
0.0
 40
4.80000008123352
  0
ARC
  5
1AC
330
1F
100
AcDbEntity
  8
SLD-0
  6
SLD-1点鎖線(中心線)
 62
     7
370
    18
100
AcDbCircle
 10
557.1215621783
 20
136.0342936332
 30
0.0
 40
69.00000116773253
100
AcDbArc
 50
115.660454
 51
136.310785
  0
ARC
  5
1AD
330
1F
100
AcDbEntity
  8
SLD-0
  6
SLD-1点鎖線(中心線)
 62
     7
370
    18
100
AcDbCircle
 10
557.1215621783
 20
136.0342936332
 30
0.0
 40
69.0000011677325
100
AcDbArc
 50
187.316284
 51
207.370691
  0
ARC
  5
1AE
330
1F
100
AcDbEntity
  8
SLD-0
  6
SLD-1点鎖線(中心線)
 62
     7
370
    18
100
AcDbCircle
 10
557.1215621783
 20
136.0342936332
 30
0.0
 40
69.00000116773248
100
AcDbArc
 50
260.168066
 51
278.827267
  0
ARC
  5
1AF
330
1F
100
AcDbEntity
  8
SLD-0
  6
SLD-1点鎖線(中心線)
 62
     7
370
    18
100
AcDbCircle
 10
557.1215621783
 20
136.0342936332
 30
0.0
 40
69.00000116773245
100
AcDbArc
 50
332.548233
 51
352.074654
  0
ARC
  5
1B0
330
1F
100
AcDbEntity
  8
SLD-0
  6
SLD-実線
 62
     7
370
    18
100
AcDbCircle
 10
557.1215621783
 20
136.0342936332
 30
0.0
 40
37.50000063463734
100
AcDbArc
 50
155.13534
 51
31.252849
  0
ARC
  5
1B1
330
1F
100
AcDbEntity
  8
SLD-0
  6
SLD-実線
 62
     7
370
    18
100
AcDbCircle
 10
557.1215621783
 20
136.0342936332
 30
0.0
 40
50.00000084618311
100
AcDbArc
 50
153.925155
 51
37.175879
  0
ARC
  5
1B2
330
1F
100
AcDbEntity
  8
SLD-0
  6
SLD-実線
 62
     7
370
    18
100
AcDbCircle
 10
459.1215605206
 20
607.2534379723
 30
0.0
 40
2.000000033520053
100
AcDbArc
 50
180.0
 51
270.0
  0
ARC
  5
1B3
330
1F
100
AcDbEntity
  8
SLD-0
  6
SLD-実線
 62
     7
370
    18
100
AcDbCircle
 10
459.1215605206
 20
653.2534387509
 30
0.0
 40
2.000000033520053
100
AcDbArc
 50
90.0
 51
180.0
  0
CIRCLE
  5
1B4
330
1F
100
AcDbEntity
  8
SLD-0
  6
SLD-破線
 62
     7
370
    18
100
AcDbCircle
 10
557.1215621783
 20
618.2534381566
 30
0.0
 40
4.0000000676946
  0
ENDSEC
  0
SECTION
  2
OBJECTS
  0
DICTIONARY
  5
C
330
0
100
AcDbDictionary
281
     1
  3
ACAD_DETAILVIEWSTYLE
350
1BE
  3
ACAD_GROUP
350
D
  3
ACAD_LAYOUT
350
1A
  3
ACAD_MATERIAL
350
43
  3
ACAD_MLEADERSTYLE
350
6B
  3
ACAD_MLINESTYLE
350
17
  3
ACAD_PLOTSETTINGS
350
19
  3
ACAD_PLOTSTYLENAME
350
E
  3
ACAD_SCALELIST
350
47
  3
ACAD_SECTIONVIEWSTYLE
350
1BF
  3
ACAD_TABLESTYLE
350
69
  3
ACDB_RECOMPOSE_DATA
350
1BB
  3
AcDbVariableDictionary
350
1B5
  0
DICTIONARY
  5
1BE
102
{ACAD_REACTORS
330
C
102
}
330
C
100
AcDbDictionary
281
     1
  0
DICTIONARY
  5
D
102
{ACAD_REACTORS
330
C
102
}
330
C
100
AcDbDictionary
281
     1
  0
DICTIONARY
  5
1A
102
{ACAD_REACTORS
330
C
102
}
330
C
100
AcDbDictionary
281
     1
  3
Layout1
350
1E
  3
Layout2
350
26
  3
Model
350
22
  0
DICTIONARY
  5
43
102
{ACAD_REACTORS
330
C
102
}
330
C
100
AcDbDictionary
281
     1
  3
ByBlock
350
45
  3
ByLayer
350
44
  3
Global
350
46
  0
DICTIONARY
  5
6B
102
{ACAD_REACTORS
330
C
102
}
330
C
100
AcDbDictionary
281
     1
  3
Standard
350
6C
  0
DICTIONARY
  5
17
102
{ACAD_REACTORS
330
C
102
}
330
C
100
AcDbDictionary
281
     1
  3
Standard
350
18
  0
DICTIONARY
  5
19
102
{ACAD_REACTORS
330
C
102
}
330
C
100
AcDbDictionary
281
     1
  0
ACDBDICTIONARYWDFLT
  5
E
102
{ACAD_REACTORS
330
C
102
}
330
C
100
AcDbDictionary
281
     1
  3
Normal
350
F
100
AcDbDictionaryWithDefault
340
F
  0
DICTIONARY
  5
47
102
{ACAD_REACTORS
330
C
102
}
330
C
100
AcDbDictionary
281
     1
  3
A0
350
48
  3
A1
350
49
  3
A2
350
4A
  3
A3
350
4B
  3
A4
350
4C
  3
A5
350
4D
  3
A6
350
4E
  3
A7
350
4F
  3
A8
350
50
  3
A9
350
51
  3
B0
350
52
  3
B1
350
53
  3
B2
350
54
  3
B3
350
55
  3
B4
350
56
  3
B5
350
57
  3
B6
350
58
  3
B7
350
59
  3
B8
350
5A
  3
B9
350
5B
  3
C0
350
5C
  3
C1
350
5D
  3
C2
350
5E
  3
C3
350
5F
  3
C4
350
60
  3
C5
350
61
  3
C6
350
62
  3
C7
350
63
  3
C8
350
64
  3
C9
350
65
  3
D0
350
66
  3
D1
350
67
  3
D2
350
68
  0
DICTIONARY
  5
1BF
102
{ACAD_REACTORS
330
C
102
}
330
C
100
AcDbDictionary
281
     1
  0
DICTIONARY
  5
69
102
{ACAD_REACTORS
330
C
102
}
330
C
100
AcDbDictionary
281
     1
  3
Standard
350
6A
  0
XRECORD
  5
1BB
102
{ACAD_REACTORS
330
C
102
}
330
C
100
AcDbXrecord
280
     1
 90
        1
330
6A
  0
DICTIONARY
  5
1B5
102
{ACAD_REACTORS
330
C
102
}
330
C
100
AcDbDictionary
281
     1
  3
CANNOSCALE
350
1B6
  3
CENTEREXE
350
1C0
  3
CENTERLTYPEFILE
350
1C1
  3
CMLEADERSTYLE
350
1BD
  3
CTABLESTYLE
350
1BC
  0
LAYOUT
  5
1E
102
{ACAD_REACTORS
330
1A
102
}
330
1A
100
AcDbPlotSettings
  1

  2
none_device
  4

  6

 40
0.0
 41
0.0
 42
0.0
 43
0.0
 44
0.0
 45
0.0
 46
0.0
 47
0.0
 48
0.0
 49
0.0
140
0.0
141
0.0
142
1.0
143
1.0
 70
   688
 72
     1
 73
     0
 74
     5
  7

 75
    16
 76
     0
 77
     2
 78
   300
147
1.0
148
0.0
149
0.0
100
AcDbLayout
  1
Layout1
 70
     1
 71
     1
 10
0.0
 20
0.0
 11
420.0
 21
297.0
 12
0.0
 22
0.0
 32
0.0
 14
1.0000000000E+20
 24
1.0000000000E+20
 34
1.0000000000E+20
 15
-1.0000000000E+20
 25
-1.0000000000E+20
 35
-1.0000000000E+20
146
0.0
 13
0.0
 23
0.0
 33
0.0
 16
1.0
 26
0.0
 36
0.0
 17
0.0
 27
1.0
 37
0.0
 76
     0
330
1B
  0
LAYOUT
  5
26
102
{ACAD_REACTORS
330
1A
102
}
330
1A
100
AcDbPlotSettings
  1

  2
none_device
  4

  6

 40
0.0
 41
0.0
 42
0.0
 43
0.0
 44
0.0
 45
0.0
 46
0.0
 47
0.0
 48
0.0
 49
0.0
140
0.0
141
0.0
142
1.0
143
1.0
 70
   688
 72
     1
 73
     0
 74
     5
  7

 75
    16
 76
     0
 77
     2
 78
   300
147
1.0
148
0.0
149
0.0
100
AcDbLayout
  1
Layout2
 70
     1
 71
     2
 10
0.0
 20
0.0
 11
0.0
 21
0.0
 12
0.0
 22
0.0
 32
0.0
 14
0.0
 24
0.0
 34
0.0
 15
0.0
 25
0.0
 35
0.0
146
0.0
 13
0.0
 23
0.0
 33
0.0
 16
1.0
 26
0.0
 36
0.0
 17
0.0
 27
1.0
 37
0.0
 76
     0
330
23
  0
LAYOUT
  5
22
102
{ACAD_REACTORS
330
1A
102
}
330
1A
100
AcDbPlotSettings
  1

  2
none_device
  4
Letter_(8.50_x_11.00_Inches)
  6

 40
6.35
 41
6.35
 42
6.35000508
 43
6.35000508
 44
215.9
 45
279.4
 46
0.0
 47
0.0
 48
0.0
 49
0.0
140
0.0
141
0.0
142
1.0
143
1.0
 70
  1712
 72
     1
 73
     0
 74
     0
  7

 75
     0
 76
     0
 77
     2
 78
   300
147
1.0
148
0.0
149
0.0
100
AcDbLayout
  1
Model
 70
     1
 71
     0
 10
0.0
 20
0.0
 11
1117.6
 21
863.6
 12
0.0
 22
0.0
 32
0.0
 14
0.0
 24
0.0
 34
0.0
 15
1117.6
 25
863.6
 35
0.0
146
0.0
 13
0.0
 23
0.0
 33
0.0
 16
1.0
 26
0.0
 36
0.0
 17
0.0
 27
1.0
 37
0.0
 76
     0
330
1F
331
29
  0
MATERIAL
  5
45
102
{ACAD_REACTORS
330
43
102
}
330
43
100
AcDbMaterial
  1
ByBlock
  0
MATERIAL
  5
44
102
{ACAD_REACTORS
330
43
102
}
330
43
100
AcDbMaterial
  1
ByLayer
  0
MATERIAL
  5
46
102
{ACAD_REACTORS
330
43
102
}
330
43
100
AcDbMaterial
  1
Global
  0
MLEADERSTYLE
  5
6C
102
{ACAD_REACTORS
330
6B
102
}
330
6B
100
AcDbMLeaderStyle
170
     2
171
     1
172
     0
 90
        2
 40
0.0
 41
0.0
173
     1
 91
-1056964608
340
14
 92
       -2
290
     1
 42
2.0
291
     1
 43
8.0
  3
Standard
341
0
 44
4.0
300

342
11
174
     1
178
     6
175
     1
176
     0
 93
-1056964608
 45
4.0
292
     0
297
     0
 46
4.0
343
0
 94
-1056964608
 47
1.0
 49
1.0
140
1.0
293
     1
141
0.0
294
     1
177
     0
142
1.0
295
     0
296
     0
143
3.75
1001
ACAD_MLEADERVER
1070
     2
  0
MLINESTYLE
  5
18
102
{ACAD_REACTORS
330
17
102
}
330
17
100
AcDbMlineStyle
  2
Standard
 70
     0
  3

 62
   256
 51
90.0
 52
90.0
 71
     2
 49
0.5
 62
   256
  6
BYLAYER
 49
-0.5
 62
   256
  6
BYLAYER
  0
ACDBPLACEHOLDER
  5
F
102
{ACAD_REACTORS
330
E
102
}
330
E
  0
SCALE
  5
48
102
{ACAD_REACTORS
330
47
102
}
330
47
100
AcDbScale
 70
     0
300
1:1
140
1.0
141
1.0
290
     1
  0
SCALE
  5
49
102
{ACAD_REACTORS
330
47
102
}
330
47
100
AcDbScale
 70
     0
300
1:2
140
1.0
141
2.0
290
     0
  0
SCALE
  5
4A
102
{ACAD_REACTORS
330
47
102
}
330
47
100
AcDbScale
 70
     0
300
1:4
140
1.0
141
4.0
290
     0
  0
SCALE
  5
4B
102
{ACAD_REACTORS
330
47
102
}
330
47
100
AcDbScale
 70
     0
300
1:5
140
1.0
141
5.0
290
     0
  0
SCALE
  5
4C
102
{ACAD_REACTORS
330
47
102
}
330
47
100
AcDbScale
 70
     0
300
1:8
140
1.0
141
8.0
290
     0
  0
SCALE
  5
4D
102
{ACAD_REACTORS
330
47
102
}
330
47
100
AcDbScale
 70
     0
300
1:10
140
1.0
141
10.0
290
     0
  0
SCALE
  5
4E
102
{ACAD_REACTORS
330
47
102
}
330
47
100
AcDbScale
 70
     0
300
1:16
140
1.0
141
16.0
290
     0
  0
SCALE
  5
4F
102
{ACAD_REACTORS
330
47
102
}
330
47
100
AcDbScale
 70
     0
300
1:20
140
1.0
141
20.0
290
     0
  0
SCALE
  5
50
102
{ACAD_REACTORS
330
47
102
}
330
47
100
AcDbScale
 70
     0
300
1:30
140
1.0
141
30.0
290
     0
  0
SCALE
  5
51
102
{ACAD_REACTORS
330
47
102
}
330
47
100
AcDbScale
 70
     0
300
1:40
140
1.0
141
40.0
290
     0
  0
SCALE
  5
52
102
{ACAD_REACTORS
330
47
102
}
330
47
100
AcDbScale
 70
     0
300
1:50
140
1.0
141
50.0
290
     0
  0
SCALE
  5
53
102
{ACAD_REACTORS
330
47
102
}
330
47
100
AcDbScale
 70
     0
300
1:100
140
1.0
141
100.0
290
     0
  0
SCALE
  5
54
102
{ACAD_REACTORS
330
47
102
}
330
47
100
AcDbScale
 70
     0
300
2:1
140
2.0
141
1.0
290
     0
  0
SCALE
  5
55
102
{ACAD_REACTORS
330
47
102
}
330
47
100
AcDbScale
 70
     0
300
4:1
140
4.0
141
1.0
290
     0
  0
SCALE
  5
56
102
{ACAD_REACTORS
330
47
102
}
330
47
100
AcDbScale
 70
     0
300
8:1
140
8.0
141
1.0
290
     0
  0
SCALE
  5
57
102
{ACAD_REACTORS
330
47
102
}
330
47
100
AcDbScale
 70
     0
300
10:1
140
10.0
141
1.0
290
     0
  0
SCALE
  5
58
102
{ACAD_REACTORS
330
47
102
}
330
47
100
AcDbScale
 70
     0
300
100:1
140
100.0
141
1.0
290
     0
  0
SCALE
  5
59
102
{ACAD_REACTORS
330
47
102
}
330
47
100
AcDbScale
 70
     0
300
1/128" = 1'-0"
140
0.0078125
141
12.0
290
     0
  0
SCALE
  5
5A
102
{ACAD_REACTORS
330
47
102
}
330
47
100
AcDbScale
 70
     0
300
1/64" = 1'-0"
140
0.015625
141
12.0
290
     0
  0
SCALE
  5
5B
102
{ACAD_REACTORS
330
47
102
}
330
47
100
AcDbScale
 70
     0
300
1/32" = 1'-0"
140
0.03125
141
12.0
290
     0
  0
SCALE
  5
5C
102
{ACAD_REACTORS
330
47
102
}
330
47
100
AcDbScale
 70
     0
300
1/16" = 1'-0"
140
0.0625
141
12.0
290
     0
  0
SCALE
  5
5D
102
{ACAD_REACTORS
330
47
102
}
330
47
100
AcDbScale
 70
     0
300
3/32" = 1'-0"
140
0.09375
141
12.0
290
     0
  0
SCALE
  5
5E
102
{ACAD_REACTORS
330
47
102
}
330
47
100
AcDbScale
 70
     0
300
1/8" = 1'-0"
140
0.125
141
12.0
290
     0
  0
SCALE
  5
5F
102
{ACAD_REACTORS
330
47
102
}
330
47
100
AcDbScale
 70
     0
300
3/16" = 1'-0"
140
0.1875
141
12.0
290
     0
  0
SCALE
  5
60
102
{ACAD_REACTORS
330
47
102
}
330
47
100
AcDbScale
 70
     0
300
1/4" = 1'-0"
140
0.25
141
12.0
290
     0
  0
SCALE
  5
61
102
{ACAD_REACTORS
330
47
102
}
330
47
100
AcDbScale
 70
     0
300
3/8" = 1'-0"
140
0.375
141
12.0
290
     0
  0
SCALE
  5
62
102
{ACAD_REACTORS
330
47
102
}
330
47
100
AcDbScale
 70
     0
300
1/2" = 1'-0"
140
0.5
141
12.0
290
     0
  0
SCALE
  5
63
102
{ACAD_REACTORS
330
47
102
}
330
47
100
AcDbScale
 70
     0
300
3/4" = 1'-0"
140
0.75
141
12.0
290
     0
  0
SCALE
  5
64
102
{ACAD_REACTORS
330
47
102
}
330
47
100
AcDbScale
 70
     0
300
1" = 1'-0"
140
1.0
141
12.0
290
     0
  0
SCALE
  5
65
102
{ACAD_REACTORS
330
47
102
}
330
47
100
AcDbScale
 70
     0
300
1-1/2" = 1'-0"
140
1.5
141
12.0
290
     0
  0
SCALE
  5
66
102
{ACAD_REACTORS
330
47
102
}
330
47
100
AcDbScale
 70
     0
300
3" = 1'-0"
140
3.0
141
12.0
290
     0
  0
SCALE
  5
67
102
{ACAD_REACTORS
330
47
102
}
330
47
100
AcDbScale
 70
     0
300
6" = 1'-0"
140
6.0
141
12.0
290
     0
  0
SCALE
  5
68
102
{ACAD_REACTORS
330
47
102
}
330
47
100
AcDbScale
 70
     0
300
1'-0" = 1'-0"
140
12.0
141
12.0
290
     0
  0
TABLESTYLE
  5
6A
102
{ACAD_REACTORS
330
69
102
}
102
{ACAD_XDICTIONARY
360
1B7
102
}
330
69
100
AcDbTableStyle
  3
Standard
 70
     0
 71
     0
 40
0.06
 41
0.06
280
     0
281
     0
  7
Standard
140
4.5
170
     2
 62
     0
 63
   257
283
     0
274
    -2
284
     1
 64
     0
275
    -2
285
     1
 65
     0
276
    -2
286
     1
 66
     0
277
    -2
287
     1
 67
     0
278
    -2
288
     1
 68
     0
279
    -2
289
     1
 69
     0
  7
Standard
140
6.0
170
     5
 62
     0
 63
   257
283
     0
274
    -2
284
     1
 64
     0
275
    -2
285
     1
 65
     0
276
    -2
286
     1
 66
     0
277
    -2
287
     1
 67
     0
278
    -2
288
     1
 68
     0
279
    -2
289
     1
 69
     0
  7
Standard
140
4.5
170
     5
 62
     0
 63
   257
283
     0
274
    -2
284
     1
 64
     0
275
    -2
285
     1
 65
     0
276
    -2
286
     1
 66
     0
277
    -2
287
     1
 67
     0
278
    -2
288
     1
 68
     0
279
    -2
289
     1
 69
     0
  0
DICTIONARYVAR
  5
1B6
102
{ACAD_REACTORS
330
1B5
102
}
330
1B5
100
DictionaryVariables
280
     0
  1
1:1
  0
DICTIONARYVAR
  5
1C0
102
{ACAD_REACTORS
330
1B5
102
}
330
1B5
100
DictionaryVariables
280
     0
  1
3.500000
  0
DICTIONARYVAR
  5
1C1
102
{ACAD_REACTORS
330
1B5
102
}
330
1B5
100
DictionaryVariables
280
     0
  1
acadiso.lin
  0
DICTIONARYVAR
  5
1BD
102
{ACAD_REACTORS
330
1B5
102
}
330
1B5
100
DictionaryVariables
280
     0
  1
Standard
  0
DICTIONARYVAR
  5
1BC
102
{ACAD_REACTORS
330
1B5
102
}
330
1B5
100
DictionaryVariables
280
     0
  1
Standard
  0
DICTIONARY
  5
1B7
330
6A
100
AcDbDictionary
280
     1
281
     1
  3
ACAD_ROUNDTRIP_2008_TABLESTYLE_CELLSTYLEMAP
360
1B9
  3
ACAD_XREC_ROUNDTRIP
360
1B8
  0
CELLSTYLEMAP
  5
1B9
102
{ACAD_REACTORS
330
1B7
102
}
330
1B7
100
AcDbCellStyleMap
 90
        3
300
CELLSTYLE
  1
TABLEFORMAT_BEGIN
 90
        5
170
     1
 91
        0
 92
    32768
 62
   257
 93
        1
300
CONTENTFORMAT
  1
CONTENTFORMAT_BEGIN
 90
        0
 91
        0
 92
        4
 93
        0
300

 40
0.0
140
1.0
 94
        5
 62
     0
340
11
144
6.0
309
CONTENTFORMAT_END
171
     1
301
MARGIN
  1
CELLMARGIN_BEGIN
 40
1.5
 40
1.5
 40
1.5
 40
1.5
 40
1.5
 40
1.5
309
CELLMARGIN_END
 94
        6
 95
        1
302
GRIDFORMAT
  1
GRIDFORMAT_BEGIN
 90
        0
 91
        1
 62
     0
 92
       -2
340
14
 93
        0
 40
0.045
309
GRIDFORMAT_END
 95
        2
302
GRIDFORMAT
  1
GRIDFORMAT_BEGIN
 90
        0
 91
        1
 62
     0
 92
       -2
340
14
 93
        0
 40
0.045
309
GRIDFORMAT_END
 95
        4
302
GRIDFORMAT
  1
GRIDFORMAT_BEGIN
 90
        0
 91
        1
 62
     0
 92
       -2
340
14
 93
        0
 40
0.045
309
GRIDFORMAT_END
 95
        8
302
GRIDFORMAT
  1
GRIDFORMAT_BEGIN
 90
        0
 91
        1
 62
     0
 92
       -2
340
14
 93
        0
 40
0.045
309
GRIDFORMAT_END
 95
       16
302
GRIDFORMAT
  1
GRIDFORMAT_BEGIN
 90
        0
 91
        1
 62
     0
 92
       -2
340
14
 93
        0
 40
0.045
309
GRIDFORMAT_END
 95
       32
302
GRIDFORMAT
  1
GRIDFORMAT_BEGIN
 90
        0
 91
        1
 62
     0
 92
       -2
340
14
 93
        0
 40
0.045
309
GRIDFORMAT_END
309
TABLEFORMAT_END
  1
CELLSTYLE_BEGIN
 90
        1
 91
        1
300
_TITLE
309
CELLSTYLE_END
300
CELLSTYLE
  1
TABLEFORMAT_BEGIN
 90
        5
170
     1
 91
        0
 92
        0
 62
   257
 93
        1
300
CONTENTFORMAT
  1
CONTENTFORMAT_BEGIN
 90
        0
 91
        0
 92
        4
 93
        0
300

 40
0.0
140
1.0
 94
        5
 62
     0
340
11
144
4.5
309
CONTENTFORMAT_END
171
     1
301
MARGIN
  1
CELLMARGIN_BEGIN
 40
1.5
 40
1.5
 40
1.5
 40
1.5
 40
1.5
 40
1.5
309
CELLMARGIN_END
 94
        6
 95
        1
302
GRIDFORMAT
  1
GRIDFORMAT_BEGIN
 90
        0
 91
        1
 62
     0
 92
       -2
340
14
 93
        0
 40
0.045
309
GRIDFORMAT_END
 95
        2
302
GRIDFORMAT
  1
GRIDFORMAT_BEGIN
 90
        0
 91
        1
 62
     0
 92
       -2
340
14
 93
        0
 40
0.045
309
GRIDFORMAT_END
 95
        4
302
GRIDFORMAT
  1
GRIDFORMAT_BEGIN
 90
        0
 91
        1
 62
     0
 92
       -2
340
14
 93
        0
 40
0.045
309
GRIDFORMAT_END
 95
        8
302
GRIDFORMAT
  1
GRIDFORMAT_BEGIN
 90
        0
 91
        1
 62
     0
 92
       -2
340
14
 93
        0
 40
0.045
309
GRIDFORMAT_END
 95
       16
302
GRIDFORMAT
  1
GRIDFORMAT_BEGIN
 90
        0
 91
        1
 62
     0
 92
       -2
340
14
 93
        0
 40
0.045
309
GRIDFORMAT_END
 95
       32
302
GRIDFORMAT
  1
GRIDFORMAT_BEGIN
 90
        0
 91
        1
 62
     0
 92
       -2
340
14
 93
        0
 40
0.045
309
GRIDFORMAT_END
309
TABLEFORMAT_END
  1
CELLSTYLE_BEGIN
 90
        2
 91
        1
300
_HEADER
309
CELLSTYLE_END
300
CELLSTYLE
  1
TABLEFORMAT_BEGIN
 90
        5
170
     1
 91
        0
 92
        0
 62
   257
 93
        1
300
CONTENTFORMAT
  1
CONTENTFORMAT_BEGIN
 90
        0
 91
        0
 92
        4
 93
        0
300

 40
0.0
140
1.0
 94
        2
 62
     0
340
11
144
4.5
309
CONTENTFORMAT_END
171
     1
301
MARGIN
  1
CELLMARGIN_BEGIN
 40
1.5
 40
1.5
 40
1.5
 40
1.5
 40
1.5
 40
1.5
309
CELLMARGIN_END
 94
        6
 95
        1
302
GRIDFORMAT
  1
GRIDFORMAT_BEGIN
 90
        0
 91
        1
 62
     0
 92
       -2
340
14
 93
        0
 40
0.045
309
GRIDFORMAT_END
 95
        2
302
GRIDFORMAT
  1
GRIDFORMAT_BEGIN
 90
        0
 91
        1
 62
     0
 92
       -2
340
14
 93
        0
 40
0.045
309
GRIDFORMAT_END
 95
        4
302
GRIDFORMAT
  1
GRIDFORMAT_BEGIN
 90
        0
 91
        1
 62
     0
 92
       -2
340
14
 93
        0
 40
0.045
309
GRIDFORMAT_END
 95
        8
302
GRIDFORMAT
  1
GRIDFORMAT_BEGIN
 90
        0
 91
        1
 62
     0
 92
       -2
340
14
 93
        0
 40
0.045
309
GRIDFORMAT_END
 95
       16
302
GRIDFORMAT
  1
GRIDFORMAT_BEGIN
 90
        0
 91
        1
 62
     0
 92
       -2
340
14
 93
        0
 40
0.045
309
GRIDFORMAT_END
 95
       32
302
GRIDFORMAT
  1
GRIDFORMAT_BEGIN
 90
        0
 91
        1
 62
     0
 92
       -2
340
14
 93
        0
 40
0.045
309
GRIDFORMAT_END
309
TABLEFORMAT_END
  1
CELLSTYLE_BEGIN
 90
        3
 91
        2
300
_DATA
309
CELLSTYLE_END
  0
XRECORD
  5
1B8
102
{ACAD_REACTORS
330
1B7
102
}
330
1B7
100
AcDbXrecord
280
     1
102
ACAD_ROUNDTRIP_PRE2007_TABLESTYLE
 90
        4
 91
        0
  1

 92
        4
 93
        0
  2

 94
        4
 95
        0
  3

  0
ENDSEC
  0
EOF
